  0
SECTION
  2
HEADER
  9
$ACADVER
  1
AC1009
  9
$INSBASE
 10
4559.3358173435872231
 20
375.1981831326307884
 30
0.0
  9
$EXTMIN
 10
4541.6192819268208041
 20
360.237553615442323
 30
0.0
  9
$EXTMAX
 10
4577.0523527928207841
 20
390.1588134579423013
 30
0.0
  9
$LIMMIN
 10
0.0
 20
0.0
  9
$LIMMAX
 10
11.6929133858000007
 20
8.2677165353999982
  9
$ORTHOMODE
 70
     0
  9
$REGENMODE
 70
     1
  9
$FILLMODE
 70
     1
  9
$QTEXTMODE
 70
     0
  9
$MIRRTEXT
 70
     0
  9
$DRAGMODE
 70
     2
  9
$LTSCALE
 40
0.6431102362
  9
$OSMODE
 70
  4095
  9
$ATTMODE
 70
     1
  9
$TEXTSIZE
 40
0.2
  9
$TRACEWID
 40
0.05
  9
$TEXTSTYLE
  7
STANDARD
  9
$CLAYER
  8
0
  9
$CELTYPE
  6
BYLAYER
  9
$CECOLOR
 62
   256
  9
$DIMSCALE
 40
1.0
  9
$DIMASZ
 40
0.1875
  9
$DIMEXO
 40
0.0625
  9
$DIMDLI
 40
0.4443307087
  9
$DIMRND
 40
0.0
  9
$DIMDLE
 40
0.0
  9
$DIMEXE
 40
0.125
  9
$DIMTP
 40
0.01
  9
$DIMTM
 40
0.01
  9
$DIMTXT
 40
2.0
  9
$DIMCEN
 40
0.1052362205
  9
$DIMTSZ
 40
0.0
  9
$DIMTOL
 70
     1
  9
$DIMLIM
 70
     0
  9
$DIMTIH
 70
     1
  9
$DIMTOH
 70
     1
  9
$DIMSE1
 70
     0
  9
$DIMSE2
 70
     0
  9
$DIMTAD
 70
     0
  9
$DIMZIN
 70
     0
  9
$DIMBLK
  1

  9
$DIMASO
 70
     1
  9
$DIMSHO
 70
     1
  9
$DIMPOST
  1
\X
  9
$DIMAPOST
  1

  9
$DIMALT
 70
     1
  9
$DIMALTD
 70
     2
  9
$DIMALTF
 40
25.3999999999999986
  9
$DIMLFAC
 40
1.0
  9
$DIMTOFL
 70
     0
  9
$DIMTVP
 40
0.0
  9
$DIMTIX
 70
     0
  9
$DIMSOXD
 70
     0
  9
$DIMSAH
 70
     0
  9
$DIMBLK1
  1

  9
$DIMBLK2
  1

  9
$DIMSTYLE
  2
STANDARD
  9
$DIMCLRD
 70
     0
  9
$DIMCLRE
 70
     0
  9
$DIMCLRT
 70
     0
  9
$DIMTFAC
 40
1.0
  9
$DIMGAP
 40
0.09
  9
$LUNITS
 70
     2
  9
$LUPREC
 70
     4
  9
$SKETCHINC
 40
0.1
  9
$FILLETRAD
 40
0.0
  9
$AUNITS
 70
     0
  9
$AUPREC
 70
     0
  9
$MENU
  1
.
  9
$ELEVATION
 40
0.0
  9
$PELEVATION
 40
0.0
  9
$THICKNESS
 40
0.0
  9
$LIMCHECK
 70
     0
  9
$BLIPMODE
 70
     0
  9
$CHAMFERA
 40
0.0
  9
$CHAMFERB
 40
0.0
  9
$SKPOLY
 70
     0
  9
$TDCREATE
 40
2458060.468368056230247
  9
$TDUPDATE
 40
2459872.4767708331346512
  9
$TDINDWG
 40
0.4776806713
  9
$TDUSRTIMER
 40
0.4776806713
  9
$USRTIMER
 70
     1
  9
$ANGBASE
 50
0.0
  9
$ANGDIR
 70
     0
  9
$PDMODE
 70
     0
  9
$PDSIZE
 40
0.3125
  9
$PLINEWID
 40
0.0
  9
$COORDS
 70
     1
  9
$SPLFRAME
 70
     0
  9
$SPLINETYPE
 70
     6
  9
$SPLINESEGS
 70
     8
  9
$ATTDIA
 70
     1
  9
$ATTREQ
 70
     1
  9
$HANDLING
 70
     1
  9
$HANDSEED
  5
1C671
  9
$SURFTAB1
 70
     6
  9
$SURFTAB2
 70
     6
  9
$SURFTYPE
 70
     6
  9
$SURFU
 70
     6
  9
$SURFV
 70
     6
  9
$UCSNAME
  2

  9
$UCSORG
 10
0.0
 20
0.0
 30
0.0
  9
$UCSXDIR
 10
1.0
 20
0.0
 30
0.0
  9
$UCSYDIR
 10
0.0
 20
1.0
 30
0.0
  9
$PUCSNAME
  2

  9
$PUCSORG
 10
0.0
 20
0.0
 30
0.0
  9
$PUCSXDIR
 10
1.0
 20
0.0
 30
0.0
  9
$PUCSYDIR
 10
0.0
 20
1.0
 30
0.0
  9
$USERI1
 70
     0
  9
$USERI2
 70
     0
  9
$USERI3
 70
     0
  9
$USERI4
 70
     0
  9
$USERI5
 70
     0
  9
$USERR1
 40
0.0
  9
$USERR2
 40
0.0
  9
$USERR3
 40
0.0
  9
$USERR4
 40
0.0
  9
$USERR5
 40
0.0
  9
$WORLDVIEW
 70
     1
  9
$SHADEDGE
 70
     3
  9
$SHADEDIF
 70
    70
  9
$TILEMODE
 70
     1
  9
$MAXACTVP
 70
    64
  9
$PLIMCHECK
 70
     0
  9
$PEXTMIN
 10
1.0000000000000000E+20
 20
1.0000000000000000E+20
 30
1.0000000000000000E+20
  9
$PEXTMAX
 10
-1.0000000000000000E+20
 20
-1.0000000000000000E+20
 30
-1.0000000000000000E+20
  9
$PLIMMIN
 10
0.0
 20
0.0
  9
$PLIMMAX
 10
12.0
 20
9.0
  9
$UNITMODE
 70
     0
  9
$VISRETAIN
 70
     1
  9
$PLINEGEN
 70
     0
  9
$PSLTSCALE
 70
     1
  0
ENDSEC
  0
SECTION
  2
TABLES
  0
TABLE
  2
VPORT
 70
     1
  0
VPORT
  2
*ACTIVE
 70
     0
 10
0.0
 20
0.0
 11
1.0
 21
1.0
 12
648.0021073736188555
 22
242.9239311770108998
 13
0.0
 23
0.0
 14
1.0
 24
1.0
 15
0.0
 25
0.0
 16
0.0
 26
0.0
 36
60.4960186965801583
 17
3911.3653564453120453
 27
132.5796051025390057
 37
0.0
 40
31.3197407522191789
 41
1.5508333333333331
 42
50.0
 43
0.0
 44
0.0
 50
0.0
 51
0.0
 71
     0
 72
   100
 73
     1
 74
     1
 75
     0
 76
     0
 77
     0
 78
     0
  0
ENDTAB
  0
TABLE
  2
LTYPE
 70
     2
  0
LTYPE
  2
CONTINUOUS
 70
     0
  3
Solid line
 72
    65
 73
     0
 40
0.0
  0
LTYPE
  2
PHANTOM2
 70
     0
  3
___ _ _ ___ _ _ ___ _ _ ___ _ _
 72
    65
 73
     6
 40
1.25
 49
0.625
 49
-0.125
 49
0.125
 49
-0.125
 49
0.125
 49
-0.125
  0
ENDTAB
  0
TABLE
  2
LAYER
 70
     2
  0
LAYER
  2
0
 70
     0
 62
   255
  6
CONTINUOUS
  0
LAYER
  2
DEFPOINTS
 70
     0
 62
     7
  6
CONTINUOUS
  0
ENDTAB
  0
TABLE
  2
STYLE
 70
     1
  0
STYLE
  2
STANDARD
 70
     0
 40
0.0
 41
0.8
 50
0.0
 71
     0
 42
0.2
  3
txt
  4

  0
ENDTAB
  0
TABLE
  2
VIEW
 70
     0
  0
ENDTAB
  0
TABLE
  2
UCS
 70
     0
  0
ENDTAB
  0
TABLE
  2
APPID
 70
    10
  0
APPID
  2
ACAD
 70
     0
  0
APPID
  2
ACAD_MLEADERVER
 70
     0
  0
APPID
  2
ACAD_EXEMPT_FROM_CAD_STANDARDS
 70
     0
  0
APPID
  2
ACAD_NAV_VCDISPLAY
 70
     0
  0
APPID
  2
ACAECLAYERSTANDARD
 70
     0
  0
APPID
  2
ACCMTRANSPARENCY
 70
     0
  0
APPID
  2
ACAD_DSTYLE_DIMJAG
 70
     0
  0
APPID
  2
ACAD_DSTYLE_DIMTALN
 70
     0
  0
APPID
  2
ACDBATTR
 70
     0
  0
APPID
  2
ACADANNOTATIVE
 70
     0
  0
ENDTAB
  0
TABLE
  2
DIMSTYLE
 70
     1
  0
DIMSTYLE
  2
STANDARD
 70
     0
  3

  4

  5

  6

  7

 40
1.0
 41
0.1875
 42
0.0625
 43
0.38
 44
0.125
 45
0.0
 46
0.0
 47
0.01
 48
0.01
140
0.15625
141
0.09
142
0.0
143
25.3999999999999986
144
1.0
145
0.0
146
1.0
147
0.09
 71
     1
 72
     0
 73
     1
 74
     1
 75
     0
 76
     0
 77
     0
 78
     4
170
     0
171
     2
172
     0
173
     0
174
     0
175
     0
176
     0
177
     0
178
     0
  0
ENDTAB
  0
ENDSEC
  0
SECTION
  2
BLOCKS
  0
BLOCK
  8
0
  2
$MODEL_SPACE
 70
     0
 10
0.0
 20
0.0
 30
0.0
  3
$MODEL_SPACE
  1

  0
ENDBLK
  5
21
  8
0
  0
BLOCK
 67
     1
  8
0
  2
$PAPER_SPACE
 70
     0
 10
0.0
 20
0.0
 30
0.0
  3
$PAPER_SPACE
  1

  0
ENDBLK
  5
1D
 67
     1
  8
0
  0
ENDSEC
  0
SECTION
  2
ENTITIES
  0
ATTDEF
  5
159BF
  8
0
 10
4559.3311290939009268
 20
375.1954311027075164
 30
0.0
 40
0.001
  1
K-1.1824.013.AS
  3

  2
MODELNUMBER
 70
     0
1001
ACDBATTR
1070
     0
1070
     1
  0
ATTDEF
  5
159C0
  8
0
 10
4559.3310032842446162
 20
375.1937642623282727
 30
0.0
 40
0.001
  1

  3

  2
TRADENAME
 70
     0
1001
ACDBATTR
1070
     0
1070
     1
  0
ATTDEF
  5
159C1
  8
0
 10
4559.3311290939009268
 20
375.1920977693741861
 30
0.0
 40
0.001
  1
SHOWER TRAY
  3

  2
PRODUCT
 70
     0
1001
ACDBATTR
1070
     0
1070
     1
  0
LINE
  5
1C517
  8
0
 10
4541.9340574107400244
 20
390.1588134579423013
 30
0.0
 11
4576.7375772764353314
 21
390.1588134579423013
 31
0.0
  0
LINE
  5
1C518
  8
0
 10
4541.6192819268208041
 20
360.5523266926805945
 30
0.0
 11
4541.6192819268208041
 21
389.8440379740525827
 31
0.0
  0
LINE
  5
1C519
  8
0
 10
4577.0523527928207841
 20
360.5523267253182098
 30
0.0
 11
4577.0523527928207841
 21
389.8440395399434237
 31
0.0
  0
LINE
  5
1C51A
  8
0
 10
4576.7375806578047559
 20
360.237553615442323
 30
0.0
 11
4541.9340540297944244
 21
360.237553615442323
 31
0.0
  0
ARC
  5
1C51C
  8
0
 10
4541.9340960191802878
 20
389.8439993655828744
 30
0.0
 40
0.3148140947268176
 50
90.0070266889129869
 51
179.9929733058075954
  0
ARC
  5
1C51D
  8
0
 10
4576.7375386842777516
 20
389.843999349199521
 30
0.0
 40
0.3148141111082595
 50
0.007314665788398
 51
89.9929762750114577
  0
ARC
  5
1C51E
  8
0
 10
4576.7375403750584155
 20
360.5523660330803182
 30
0.0
 40
0.3148124202151832
 50
270.007331449473611
 51
359.9928459973932036
  0
ARC
  5
1C51F
  8
0
 10
4541.9340943287106711
 20
360.5523660172091809
 30
0.0
 40
0.3148124043461933
 50
180.0071570544704116
 51
269.9926656070812783
  0
LINE
  5
1C520
  8
0
 10
4546.809537216920944
 20
387.4150511486423056
 30
0.0
 11
4551.9716426870199939
 21
387.4084709444422856
 31
0.0
  0
LINE
  5
1C521
  8
0
 10
4551.9716426870199939
 20
387.4084709444422856
 30
0.0
 11
4571.8250194573201952
 21
387.4084714848423232
 31
0.0
  0
LINE
  5
1C522
  8
0
 10
4574.3020071976206964
 20
384.9314780249422938
 30
0.0
 11
4574.3020086916203581
 21
365.4648879008423137
 31
0.0
  0
LINE
  5
1C523
  8
0
 10
4571.8250193696212591
 20
362.9878945513423218
 30
0.0
 11
4551.971642643920859
 21
362.9879025026423278
 31
0.0
  0
LINE
  5
1C524
  8
0
 10
4551.971642643920859
 20
362.9879025026423278
 30
0.0
 11
4546.8095639938210297
 21
362.9812885296423133
 31
0.0
  0
LINE
  5
1C525
  8
0
 10
4544.3619817491207868
 20
365.428750589442302
 30
0.0
 11
4544.3619805404196086
 21
384.9676219928423961
 31
0.0
  0
ARC
  5
1C526
  8
0
 10
4546.7240787041182557
 20
385.0529574343469221
 30
0.0
 40
2.3636391163890371
 50
87.9279918488755214
 51
182.0690228930658066
  0
ARC
  5
1C527
  8
0
 10
4546.7241240866933367
 20
365.3434266745596233
 30
0.0
 40
2.363682845350298
 50
177.9312949893107998
 51
272.0715185041157724
  0
ARC
  5
1C528
  8
0
 10
4571.9366652786829945
 20
365.3532381458148279
 30
0.0
 40
2.367977011907469
 50
267.2976039412696991
 51
2.7024892196125512
  0
ARC
  5
1C529
  8
0
 10
4571.9366675640048925
 20
385.0431315934151826
 30
0.0
 40
2.367973416595484
 50
357.297414300793605
 51
92.7024533979742387
  0
CIRCLE
  5
1C52A
  8
0
 10
4570.556289800821105
 20
375.1981835366423184
 30
0.0
 40
1.7716535432999969
  0
CIRCLE
  5
1C52B
  8
0
 10
4570.556289800821105
 20
375.1981835366423184
 30
0.0
 40
2.234188334800002
  0
ENDSEC
  0
EOF
