  0
SECTION
  2
HEADER
  9
$ACADVER
  1
AC1009
  9
$INSBASE
 10
3274.7247872097718755
 20
171.2700249429985035
 30
0.0
  9
$EXTMIN
 10
3246.9570576981382146
 20
156.297911046622005
 30
-0.0015258207003583
  9
$EXTMAX
 10
3302.3847945504180643
 20
186.2319554569118054
 30
0.0000000349246037
  9
$LIMMIN
 10
0.0
 20
0.0
  9
$LIMMAX
 10
11.6929133858000007
 20
8.2677165353999982
  9
$ORTHOMODE
 70
     0
  9
$REGENMODE
 70
     1
  9
$FILLMODE
 70
     1
  9
$QTEXTMODE
 70
     0
  9
$MIRRTEXT
 70
     0
  9
$DRAGMODE
 70
     2
  9
$LTSCALE
 40
0.6431102362
  9
$OSMODE
 70
  4063
  9
$ATTMODE
 70
     1
  9
$TEXTSIZE
 40
0.2
  9
$TRACEWID
 40
0.05
  9
$TEXTSTYLE
  7
STANDARD
  9
$CLAYER
  8
0
  9
$CELTYPE
  6
BYLAYER
  9
$CECOLOR
 62
   256
  9
$DIMSCALE
 40
1.0
  9
$DIMASZ
 40
0.1875
  9
$DIMEXO
 40
0.0625
  9
$DIMDLI
 40
0.4443307087
  9
$DIMRND
 40
0.0
  9
$DIMDLE
 40
0.0
  9
$DIMEXE
 40
0.125
  9
$DIMTP
 40
0.01
  9
$DIMTM
 40
0.01
  9
$DIMTXT
 40
2.0
  9
$DIMCEN
 40
0.1052362205
  9
$DIMTSZ
 40
0.0
  9
$DIMTOL
 70
     1
  9
$DIMLIM
 70
     0
  9
$DIMTIH
 70
     1
  9
$DIMTOH
 70
     1
  9
$DIMSE1
 70
     0
  9
$DIMSE2
 70
     0
  9
$DIMTAD
 70
     0
  9
$DIMZIN
 70
     0
  9
$DIMBLK
  1

  9
$DIMASO
 70
     1
  9
$DIMSHO
 70
     1
  9
$DIMPOST
  1
\X
  9
$DIMAPOST
  1

  9
$DIMALT
 70
     1
  9
$DIMALTD
 70
     2
  9
$DIMALTF
 40
25.3999999999999986
  9
$DIMLFAC
 40
1.0
  9
$DIMTOFL
 70
     0
  9
$DIMTVP
 40
0.0
  9
$DIMTIX
 70
     0
  9
$DIMSOXD
 70
     0
  9
$DIMSAH
 70
     0
  9
$DIMBLK1
  1

  9
$DIMBLK2
  1

  9
$DIMSTYLE
  2
STANDARD
  9
$DIMCLRD
 70
     0
  9
$DIMCLRE
 70
     0
  9
$DIMCLRT
 70
     0
  9
$DIMTFAC
 40
1.0
  9
$DIMGAP
 40
0.09
  9
$LUNITS
 70
     2
  9
$LUPREC
 70
     4
  9
$SKETCHINC
 40
0.1
  9
$FILLETRAD
 40
0.0
  9
$AUNITS
 70
     0
  9
$AUPREC
 70
     0
  9
$MENU
  1
.
  9
$ELEVATION
 40
0.0
  9
$PELEVATION
 40
0.0
  9
$THICKNESS
 40
0.0
  9
$LIMCHECK
 70
     0
  9
$BLIPMODE
 70
     0
  9
$CHAMFERA
 40
0.0
  9
$CHAMFERB
 40
0.0
  9
$SKPOLY
 70
     0
  9
$TDCREATE
 40
2458060.468368056230247
  9
$TDUPDATE
 40
2459445.9563541668467224
  9
$TDINDWG
 40
0.6511297454
  9
$TDUSRTIMER
 40
0.6511297454
  9
$USRTIMER
 70
     1
  9
$ANGBASE
 50
0.0
  9
$ANGDIR
 70
     0
  9
$PDMODE
 70
     0
  9
$PDSIZE
 40
0.3125
  9
$PLINEWID
 40
0.0
  9
$COORDS
 70
     1
  9
$SPLFRAME
 70
     0
  9
$SPLINETYPE
 70
     6
  9
$SPLINESEGS
 70
     8
  9
$ATTDIA
 70
     1
  9
$ATTREQ
 70
     1
  9
$HANDLING
 70
     1
  9
$HANDSEED
  5
2F94E
  9
$SURFTAB1
 70
     6
  9
$SURFTAB2
 70
     6
  9
$SURFTYPE
 70
     6
  9
$SURFU
 70
     6
  9
$SURFV
 70
     6
  9
$UCSNAME
  2

  9
$UCSORG
 10
0.0
 20
0.0
 30
0.0
  9
$UCSXDIR
 10
1.0
 20
0.0
 30
0.0
  9
$UCSYDIR
 10
0.0
 20
1.0
 30
0.0
  9
$PUCSNAME
  2

  9
$PUCSORG
 10
0.0
 20
0.0
 30
0.0
  9
$PUCSXDIR
 10
1.0
 20
0.0
 30
0.0
  9
$PUCSYDIR
 10
0.0
 20
1.0
 30
0.0
  9
$USERI1
 70
     0
  9
$USERI2
 70
     0
  9
$USERI3
 70
     0
  9
$USERI4
 70
     0
  9
$USERI5
 70
     0
  9
$USERR1
 40
0.0
  9
$USERR2
 40
0.0
  9
$USERR3
 40
0.0
  9
$USERR4
 40
0.0
  9
$USERR5
 40
0.0
  9
$WORLDVIEW
 70
     1
  9
$SHADEDGE
 70
     3
  9
$SHADEDIF
 70
    70
  9
$TILEMODE
 70
     1
  9
$MAXACTVP
 70
    64
  9
$PLIMCHECK
 70
     0
  9
$PEXTMIN
 10
1.0000000000000000E+20
 20
1.0000000000000000E+20
 30
1.0000000000000000E+20
  9
$PEXTMAX
 10
-1.0000000000000000E+20
 20
-1.0000000000000000E+20
 30
-1.0000000000000000E+20
  9
$PLIMMIN
 10
0.0
 20
0.0
  9
$PLIMMAX
 10
12.0
 20
9.0
  9
$UNITMODE
 70
     0
  9
$VISRETAIN
 70
     1
  9
$PLINEGEN
 70
     0
  9
$PSLTSCALE
 70
     1
  0
ENDSEC
  0
SECTION
  2
TABLES
  0
TABLE
  2
VPORT
 70
     1
  0
VPORT
  2
*ACTIVE
 70
     0
 10
0.0
 20
0.0
 11
1.0
 21
1.0
 12
-29.0221891100973117
 22
-23.9965783241208008
 13
0.0
 23
0.0
 14
1.0
 24
1.0
 15
0.0
 25
0.0
 16
0.0
 26
0.0
 36
96.5995694866707311
 17
3303.693115234375
 27
195.2615115758877096
 37
0.0
 40
30.1613915830261803
 41
2.419518377693282
 42
50.0
 43
0.0
 44
0.0
 50
0.0
 51
0.0
 71
     0
 72
   100
 73
     1
 74
     1
 75
     0
 76
     0
 77
     0
 78
     0
  0
ENDTAB
  0
TABLE
  2
LTYPE
 70
     2
  0
LTYPE
  2
CONTINUOUS
 70
     0
  3
Solid line
 72
    65
 73
     0
 40
0.0
  0
LTYPE
  2
PHANTOM2
 70
     0
  3
___ _ _ ___ _ _ ___ _ _ ___ _ _
 72
    65
 73
     6
 40
1.25
 49
0.625
 49
-0.125
 49
0.125
 49
-0.125
 49
0.125
 49
-0.125
  0
ENDTAB
  0
TABLE
  2
LAYER
 70
     2
  0
LAYER
  2
0
 70
     0
 62
   255
  6
CONTINUOUS
  0
LAYER
  2
DEFPOINTS
 70
     0
 62
     7
  6
CONTINUOUS
  0
ENDTAB
  0
TABLE
  2
STYLE
 70
     1
  0
STYLE
  2
STANDARD
 70
     0
 40
0.0
 41
0.8
 50
0.0
 71
     0
 42
0.2
  3
txt
  4

  0
ENDTAB
  0
TABLE
  2
VIEW
 70
     0
  0
ENDTAB
  0
TABLE
  2
UCS
 70
     0
  0
ENDTAB
  0
TABLE
  2
APPID
 70
     9
  0
APPID
  2
ACAD
 70
     0
  0
APPID
  2
ACAD_MLEADERVER
 70
     0
  0
APPID
  2
ACAD_EXEMPT_FROM_CAD_STANDARDS
 70
     0
  0
APPID
  2
ACAD_NAV_VCDISPLAY
 70
     0
  0
APPID
  2
ACAECLAYERSTANDARD
 70
     0
  0
APPID
  2
ACCMTRANSPARENCY
 70
     0
  0
APPID
  2
ACAD_DSTYLE_DIMJAG
 70
     0
  0
APPID
  2
ACAD_DSTYLE_DIMTALN
 70
     0
  0
APPID
  2
ACDBATTR
 70
     0
  0
ENDTAB
  0
TABLE
  2
DIMSTYLE
 70
     1
  0
DIMSTYLE
  2
STANDARD
 70
     0
  3

  4

  5

  6

  7

 40
1.0
 41
0.1875
 42
0.0625
 43
0.38
 44
0.125
 45
0.0
 46
0.0
 47
0.01
 48
0.01
140
0.15625
141
0.09
142
0.0
143
25.3999999999999986
144
1.0
145
0.0
146
1.0
147
0.09
 71
     1
 72
     0
 73
     1
 74
     1
 75
     0
 76
     0
 77
     0
 78
     4
170
     0
171
     2
172
     0
173
     0
174
     0
175
     0
176
     0
177
     0
178
     0
  0
ENDTAB
  0
ENDSEC
  0
SECTION
  2
BLOCKS
  0
BLOCK
  8
0
  2
$MODEL_SPACE
 70
     0
 10
0.0
 20
0.0
 30
0.0
  3
$MODEL_SPACE
  1

  0
ENDBLK
  5
21
  8
0
  0
BLOCK
 67
     1
  8
0
  2
$PAPER_SPACE
 70
     0
 10
0.0
 20
0.0
 30
0.0
  3
$PAPER_SPACE
  1

  0
ENDBLK
  5
1D
 67
     1
  8
0
  0
BLOCK
  8
0
  2
_FILLED
 70
     0
 10
0.0
 20
0.0
 30
0.0
  3
_FILLED
  1

  0
SOLID
  5
2F89A
  8
0
  6
BYBLOCK
 62
     0
 10
0.0
 20
0.0
 30
0.0
 11
-1.0
 21
0.1666666667
 31
0.0
 12
-1.0
 22
-0.1666666667
 32
0.0
 13
-1.0
 23
-0.1666666667
 33
0.0
  0
ENDBLK
  5
2F89B
  8
0
  6
BYBLOCK
 62
     0
  0
ENDSEC
  0
SECTION
  2
ENTITIES
  0
ATTDEF
  5
2EA83
  8
DEFPOINTS
 10
3274.7257822663400475
 20
171.2685388588942885
 30
0.0
 40
0.001
  1
K-1.1824.022.AS
  3

  2
MODELNUMBER
 70
     0
1001
ACDBATTR
1070
     0
1070
     1
  0
ATTDEF
  5
2EA84
  8
DEFPOINTS
 10
3274.7257822663400475
 20
171.2668721922277086
 30
0.0
 40
0.001
  1

  3

  2
TRADENAME
 70
     0
1001
ACDBATTR
1070
     0
1070
     1
  0
ATTDEF
  5
2EA85
  8
DEFPOINTS
 10
3274.7257822663400475
 20
171.2652055255609866
 30
0.0
 40
0.001
  1
SHOWER BASE
  3

  2
PRODUCT
 70
     0
1001
ACDBATTR
1070
     0
1070
     1
  0
LINE
  5
2F8B6
  8
0
 10
3247.1657326876729712
 20
156.6243800150029983
 30
0.0
 11
3247.1657326876729712
 21
185.9156698709940088
 31
0.0
  0
LINE
  5
2F8B7
  8
0
 10
3302.283841731872144
 20
185.9156407892710092
 30
0.0
 11
3302.283841731872144
 21
156.6244090967259979
 31
0.0
  0
LINE
  5
2F8B8
  8
0
 10
3247.480502550024994
 20
186.2304146488773995
 30
0.0
 11
3301.9690881104988875
 21
186.2304146488773995
 31
0.0
  0
LINE
  5
2F8B9
  8
0
 10
3247.4805065286768695
 20
156.3096324268767887
 30
0.0
 11
3301.9690650618758809
 21
156.3096324268767887
 31
0.0
  0
ARC
  5
2F8BA
  8
0
 10
3247.4805433691981307
 20
185.9156039630983059
 30
0.0
 40
0.3148106884254252
 50
90.0074291199497623
 51
179.9880047138593113
  0
LINE
  5
2F8BB
  8
0
 10
3299.5334920918708121
 20
181.0030771355773993
 30
0.0
 11
3299.5334931842721744
 21
161.5369711273766882
 31
0.0
  0
LINE
  5
2F8BC
  8
0
 10
3297.0565073248722001
 20
159.0599753763767126
 30
0.0
 11
3253.5810959341729358
 21
159.0599750005767987
 31
0.0
  0
LINE
  5
2F8BD
  8
0
 10
3249.9095552409721677
 20
161.5131048701767895
 30
0.0
 11
3249.9095452934720925
 21
181.0269456266773886
 31
0.0
  0
LINE
  5
2F8BE
  8
0
 10
3253.5810959261721109
 20
183.4800732165774093
 30
0.0
 11
3297.056507352871904
 21
183.4800729033773905
 31
0.0
  0
ARC
  5
2F8BF
  8
0
 10
3252.2884252106441636
 20
161.4348400229690981
 30
0.0
 40
2.3801570786231872
 50
178.1156479317523065
 51
272.2875708558195242
  0
LINE
  5
2F8C0
  8
0
 10
3252.3834292681722218
 20
159.0565797453768084
 30
0.0
 11
3253.5810959341729358
 21
159.0599750005767987
 31
0.0
  0
ARC
  5
2F8C1
  8
0
 10
3252.2885426019947772
 20
181.1051490433040954
 30
0.0
 40
2.380282329542057
 50
87.7153802783732601
 51
181.882773382555996
  0
LINE
  5
2F8C2
  8
0
 10
3252.3834291552730065
 20
183.4835393624773872
 30
0.0
 11
3253.5810959261721109
 21
183.4800732165774093
 31
0.0
  0
ARC
  5
2F8C3
  8
0
 10
3297.1681006617382081
 20
181.1146809763502006
 30
0.0
 40
2.3680228113404969
 50
357.2986752476642209
 51
92.7010696428430663
  0
ARC
  5
2F8C4
  8
0
 10
3297.1680960072671951
 20
161.4253729990182933
 30
0.0
 40
2.3680282826091239
 50
267.2990486670938139
 51
2.7011801375308182
  0
ARC
  5
2F8C5
  8
0
 10
3247.4805453661338106
 20
156.6244451096729904
 30
0.0
 40
0.3148126851919194
 50
180.0118472033236117
 51
269.992931598689097
  0
ARC
  5
2F8C6
  8
0
 10
3301.9690270467240225
 20
156.6244471120251092
 30
0.0
 40
0.3148146874435731
 50
270.0069186980883273
 51
359.993081275159625
  0
ARC
  5
2F8C7
  8
0
 10
3301.9690290387711684
 20
185.9156019589242987
 30
0.0
 40
0.3148126954952928
 50
0.0070671069535425
 51
89.9892489700431639
  0
CIRCLE
  5
2F8C8
  8
0
 10
3295.7877874464620618
 20
171.2700249429985035
 30
0.0
 40
1.7716535433000009
  0
CIRCLE
  5
2F8C9
  8
0
 10
3295.7877874464620618
 20
171.2700249429985035
 30
0.0
 40
2.234188334799998
  0
ENDSEC
  0
EOF
