  0
SECTION
  2
HEADER
  9
$ACADVER
  1
AC1009
  9
$INSBASE
 10
4059.1062697086949811
 20
165.6917643034574894
 30
0.0
  9
$EXTMIN
 10
4043.8008018743730645
 20
165.6839570006632982
 30
-0.0015258207003583
  9
$EXTMAX
 10
4074.5577474420301769
 20
244.4928883271140876
 30
0.0000000349246037
  9
$LIMMIN
 10
0.0
 20
0.0
  9
$LIMMAX
 10
11.6929133858000007
 20
8.2677165353999982
  9
$ORTHOMODE
 70
     0
  9
$REGENMODE
 70
     1
  9
$FILLMODE
 70
     1
  9
$QTEXTMODE
 70
     0
  9
$MIRRTEXT
 70
     0
  9
$DRAGMODE
 70
     2
  9
$LTSCALE
 40
0.6431102362
  9
$OSMODE
 70
  4095
  9
$ATTMODE
 70
     1
  9
$TEXTSIZE
 40
0.2
  9
$TRACEWID
 40
0.05
  9
$TEXTSTYLE
  7
STANDARD
  9
$CLAYER
  8
0
  9
$CELTYPE
  6
BYLAYER
  9
$CECOLOR
 62
   256
  9
$DIMSCALE
 40
1.0
  9
$DIMASZ
 40
0.1875
  9
$DIMEXO
 40
0.0625
  9
$DIMDLI
 40
0.4443307087
  9
$DIMRND
 40
0.0
  9
$DIMDLE
 40
0.0
  9
$DIMEXE
 40
0.125
  9
$DIMTP
 40
0.01
  9
$DIMTM
 40
0.01
  9
$DIMTXT
 40
2.0
  9
$DIMCEN
 40
0.1052362205
  9
$DIMTSZ
 40
0.0
  9
$DIMTOL
 70
     1
  9
$DIMLIM
 70
     0
  9
$DIMTIH
 70
     1
  9
$DIMTOH
 70
     1
  9
$DIMSE1
 70
     0
  9
$DIMSE2
 70
     0
  9
$DIMTAD
 70
     0
  9
$DIMZIN
 70
     0
  9
$DIMBLK
  1

  9
$DIMASO
 70
     1
  9
$DIMSHO
 70
     1
  9
$DIMPOST
  1
\X
  9
$DIMAPOST
  1

  9
$DIMALT
 70
     1
  9
$DIMALTD
 70
     2
  9
$DIMALTF
 40
25.3999999999999986
  9
$DIMLFAC
 40
1.0
  9
$DIMTOFL
 70
     0
  9
$DIMTVP
 40
0.0
  9
$DIMTIX
 70
     0
  9
$DIMSOXD
 70
     0
  9
$DIMSAH
 70
     0
  9
$DIMBLK1
  1

  9
$DIMBLK2
  1

  9
$DIMSTYLE
  2
STANDARD
  9
$DIMCLRD
 70
     0
  9
$DIMCLRE
 70
     0
  9
$DIMCLRT
 70
     0
  9
$DIMTFAC
 40
1.0
  9
$DIMGAP
 40
0.09
  9
$LUNITS
 70
     2
  9
$LUPREC
 70
     4
  9
$SKETCHINC
 40
0.1
  9
$FILLETRAD
 40
0.0
  9
$AUNITS
 70
     0
  9
$AUPREC
 70
     0
  9
$MENU
  1
.
  9
$ELEVATION
 40
0.0
  9
$PELEVATION
 40
0.0
  9
$THICKNESS
 40
0.0
  9
$LIMCHECK
 70
     0
  9
$BLIPMODE
 70
     0
  9
$CHAMFERA
 40
0.0
  9
$CHAMFERB
 40
0.0
  9
$SKPOLY
 70
     0
  9
$TDCREATE
 40
2458060.468368056230247
  9
$TDUPDATE
 40
2459537.466145833954215
  9
$TDINDWG
 40
0.7458519676000001
  9
$TDUSRTIMER
 40
0.7458519676000001
  9
$USRTIMER
 70
     1
  9
$ANGBASE
 50
0.0
  9
$ANGDIR
 70
     0
  9
$PDMODE
 70
     0
  9
$PDSIZE
 40
0.3125
  9
$PLINEWID
 40
0.0
  9
$COORDS
 70
     1
  9
$SPLFRAME
 70
     0
  9
$SPLINETYPE
 70
     6
  9
$SPLINESEGS
 70
     8
  9
$ATTDIA
 70
     1
  9
$ATTREQ
 70
     1
  9
$HANDLING
 70
     1
  9
$HANDSEED
  5
118F1
  9
$SURFTAB1
 70
     6
  9
$SURFTAB2
 70
     6
  9
$SURFTYPE
 70
     6
  9
$SURFU
 70
     6
  9
$SURFV
 70
     6
  9
$UCSNAME
  2

  9
$UCSORG
 10
0.0
 20
0.0
 30
0.0
  9
$UCSXDIR
 10
1.0
 20
0.0
 30
0.0
  9
$UCSYDIR
 10
0.0
 20
1.0
 30
0.0
  9
$PUCSNAME
  2

  9
$PUCSORG
 10
0.0
 20
0.0
 30
0.0
  9
$PUCSXDIR
 10
1.0
 20
0.0
 30
0.0
  9
$PUCSYDIR
 10
0.0
 20
1.0
 30
0.0
  9
$USERI1
 70
     0
  9
$USERI2
 70
     0
  9
$USERI3
 70
     0
  9
$USERI4
 70
     0
  9
$USERI5
 70
     0
  9
$USERR1
 40
0.0
  9
$USERR2
 40
0.0
  9
$USERR3
 40
0.0
  9
$USERR4
 40
0.0
  9
$USERR5
 40
0.0
  9
$WORLDVIEW
 70
     1
  9
$SHADEDGE
 70
     3
  9
$SHADEDIF
 70
    70
  9
$TILEMODE
 70
     1
  9
$MAXACTVP
 70
    64
  9
$PLIMCHECK
 70
     0
  9
$PEXTMIN
 10
1.0000000000000000E+20
 20
1.0000000000000000E+20
 30
1.0000000000000000E+20
  9
$PEXTMAX
 10
-1.0000000000000000E+20
 20
-1.0000000000000000E+20
 30
-1.0000000000000000E+20
  9
$PLIMMIN
 10
0.0
 20
0.0
  9
$PLIMMAX
 10
12.0
 20
9.0
  9
$UNITMODE
 70
     0
  9
$VISRETAIN
 70
     1
  9
$PLINEGEN
 70
     0
  9
$PSLTSCALE
 70
     1
  0
ENDSEC
  0
SECTION
  2
TABLES
  0
TABLE
  2
VPORT
 70
     1
  0
VPORT
  2
*ACTIVE
 70
     0
 10
0.0
 20
0.0
 11
1.0
 21
1.0
 12
415.1034689941387796
 22
45.1441821640910632
 13
0.0
 23
0.0
 14
1.0
 24
1.0
 15
0.0
 25
0.0
 16
0.0
 26
0.0
 36
26.6346482412083887
 17
3644.0758056640620453
 27
159.9442404997975871
 37
0.0
 40
79.506327678473852
 41
2.6486111111111108
 42
50.0
 43
0.0
 44
0.0
 50
0.0
 51
0.0
 71
     0
 72
   100
 73
     1
 74
     1
 75
     0
 76
     0
 77
     0
 78
     0
  0
ENDTAB
  0
TABLE
  2
LTYPE
 70
     2
  0
LTYPE
  2
CONTINUOUS
 70
     0
  3
Solid line
 72
    65
 73
     0
 40
0.0
  0
LTYPE
  2
PHANTOM2
 70
     0
  3
___ _ _ ___ _ _ ___ _ _ ___ _ _
 72
    65
 73
     6
 40
1.25
 49
0.625
 49
-0.125
 49
0.125
 49
-0.125
 49
0.125
 49
-0.125
  0
ENDTAB
  0
TABLE
  2
LAYER
 70
     2
  0
LAYER
  2
0
 70
     0
 62
   255
  6
CONTINUOUS
  0
LAYER
  2
DEFPOINTS
 70
     0
 62
     7
  6
CONTINUOUS
  0
ENDTAB
  0
TABLE
  2
STYLE
 70
     1
  0
STYLE
  2
STANDARD
 70
     0
 40
0.0
 41
0.8
 50
0.0
 71
     0
 42
0.2
  3
txt
  4

  0
ENDTAB
  0
TABLE
  2
VIEW
 70
     0
  0
ENDTAB
  0
TABLE
  2
UCS
 70
     0
  0
ENDTAB
  0
TABLE
  2
APPID
 70
    10
  0
APPID
  2
ACAD
 70
     0
  0
APPID
  2
ACAD_MLEADERVER
 70
     0
  0
APPID
  2
ACAD_EXEMPT_FROM_CAD_STANDARDS
 70
     0
  0
APPID
  2
ACAD_NAV_VCDISPLAY
 70
     0
  0
APPID
  2
ACAECLAYERSTANDARD
 70
     0
  0
APPID
  2
ACCMTRANSPARENCY
 70
     0
  0
APPID
  2
ACAD_DSTYLE_DIMJAG
 70
     0
  0
APPID
  2
ACAD_DSTYLE_DIMTALN
 70
     0
  0
APPID
  2
ACDBATTR
 70
     0
  0
APPID
  2
ACAD_PSEXT
 70
     0
  0
ENDTAB
  0
TABLE
  2
DIMSTYLE
 70
     1
  0
DIMSTYLE
  2
STANDARD
 70
     0
  3

  4

  5

  6

  7

 40
1.0
 41
0.1875
 42
0.0625
 43
0.38
 44
0.125
 45
0.0
 46
0.0
 47
0.01
 48
0.01
140
0.15625
141
0.09
142
0.0
143
25.3999999999999986
144
1.0
145
0.0
146
1.0
147
0.09
 71
     1
 72
     0
 73
     1
 74
     1
 75
     0
 76
     0
 77
     0
 78
     4
170
     0
171
     2
172
     0
173
     0
174
     0
175
     0
176
     0
177
     0
178
     0
  0
ENDTAB
  0
ENDSEC
  0
SECTION
  2
BLOCKS
  0
BLOCK
  8
0
  2
$MODEL_SPACE
 70
     0
 10
0.0
 20
0.0
 30
0.0
  3
$MODEL_SPACE
  1

  0
ENDBLK
  5
21
  8
0
  0
BLOCK
 67
     1
  8
0
  2
$PAPER_SPACE
 70
     0
 10
0.0
 20
0.0
 30
0.0
  3
$PAPER_SPACE
  1

  0
ENDBLK
  5
1D
 67
     1
  8
0
  0
ENDSEC
  0
SECTION
  2
ENTITIES
  0
ATTDEF
  5
AA11
  8
DEFPOINTS
 10
4059.1043242861310318
 20
165.6966390207371091
 30
0.0
 40
0.001
  1
K-1.1922.007
  3

  2
MODELNUMBER
 70
     0
1001
ACDBATTR
1070
     0
1070
     1
  0
ATTDEF
  5
AA12
  8
DEFPOINTS
 10
4059.1043242861310318
 20
165.6949723540705008
 30
0.0
 40
0.001
  1

  3

  2
TRADENAME
 70
     0
1001
ACDBATTR
1070
     0
1070
     1
  0
ATTDEF
  5
AA13
  8
DEFPOINTS
 10
4059.1043242861310318
 20
165.6933056874038073
 30
0.0
 40
0.001
  1
SHOWER DOOR
  3

  2
PRODUCT
 70
     0
1001
ACDBATTR
1070
     0
1070
     1
  0
LINE
  5
11719
  8
0
 10
4074.4115689629948065
 20
165.6917643034574894
 30
0.0
 11
4043.8009704543951557
 21
165.6917643034574894
 31
0.0
  0
LINE
  5
1171A
  8
0
 10
4045.3757736039951851
 20
166.2941265081574898
 30
0.0
 11
4072.915505970895083
 21
166.2941265081574898
 31
0.0
  0
LINE
  5
1171B
  8
0
 10
4054.3133484071959174
 20
166.3334965868575068
 30
0.0
 11
4054.3566554937951878
 21
166.3334965868575068
 31
0.0
  0
LINE
  5
1171C
  8
0
 10
4054.1125610054950812
 20
166.3418509175575082
 30
0.0
 11
4054.3566577101951225
 21
166.3418509175575082
 31
0.0
  0
LINE
  5
1171D
  8
0
 10
4054.3566554937951878
 20
166.4004257207575108
 30
0.0
 11
4072.915505970895083
 21
166.4004257207575108
 31
0.0
  0
LINE
  5
1171E
  8
0
 10
4072.915505970895083
 20
166.4205910750575015
 30
0.0
 11
4054.5493484071948842
 21
166.4205910750575015
 31
0.0
  0
LINE
  5
1171F
  8
0
 10
4072.915505970895083
 20
166.4599611538575061
 30
0.0
 11
4074.3918839235948326
 21
166.4599611538575061
 31
0.0
  0
LINE
  5
11720
  8
0
 10
4073.4849389583951051
 20
166.7355517049574871
 30
0.0
 11
4073.8408936829941922
 21
166.7355517049574871
 31
0.0
  0
LINE
  5
11721
  8
0
 10
4073.5010431780951876
 20
166.7355517049574871
 30
0.0
 11
4074.2024235916951511
 21
166.7355517049574871
 31
0.0
  0
LINE
  5
11722
  8
0
 10
4074.1688732516959135
 20
166.7355517049574871
 30
0.0
 11
4074.2330094815952179
 21
166.7355517049574871
 31
0.0
  0
LINE
  5
11723
  8
0
 10
4054.5493484071948842
 20
166.7411291328575089
 30
0.0
 11
4073.4849389583951051
 21
166.7411291328575089
 31
0.0
  0
LINE
  5
11724
  8
0
 10
4073.4849389583951051
 20
166.9717721774574954
 30
0.0
 11
4054.5493484071948842
 21
166.9717721774574954
 31
0.0
  0
LINE
  5
11725
  8
0
 10
4059.1871436827950674
 20
177.4638981616575109
 30
0.0
 11
4054.5513169110950003
 21
177.4638981616575109
 31
0.0
  0
LINE
  5
11726
  8
0
 10
4054.3741515567949136
 20
177.4638981616575109
 30
0.0
 11
4049.7383247850948464
 21
177.4638981616575109
 31
0.0
  0
LINE
  5
11727
  8
0
 10
4053.5080098244948204
 20
178.0327957994574888
 30
0.0
 11
4054.3741515567949136
 21
178.0327957994574888
 31
0.0
  0
LINE
  5
11728
  8
0
 10
4054.1673326047948649
 20
178.0347643034575071
 30
0.0
 11
4053.6359780853949815
 21
178.0347643034575071
 31
0.0
  0
LINE
  5
11729
  8
0
 10
4053.5080098244948204
 20
178.0347643034575071
 30
0.0
 11
4053.6359842329948151
 21
178.0347643034575071
 31
0.0
  0
LINE
  5
1172A
  8
0
 10
4054.1672912010949403
 20
178.0347643034575071
 30
0.0
 11
4054.3150964386950363
 21
178.0347643034575071
 31
0.0
  0
LINE
  5
1172B
  8
0
 10
4053.578875966195028
 20
178.0406698152575018
 30
0.0
 11
4053.5080098244948204
 21
178.0406698152575018
 31
0.0
  0
LINE
  5
1172C
  8
0
 10
4053.5867499819942168
 20
178.0741343821574958
 30
0.0
 11
4054.5513169110950003
 21
178.0741343821574958
 31
0.0
  0
LINE
  5
1172D
  8
0
 10
4053.5867499819942168
 20
179.0190162719574971
 30
0.0
 11
4054.5493484071948842
 21
179.0190162719574971
 31
0.0
  0
LINE
  5
1172E
  8
0
 10
4053.5080098244948204
 20
179.0564178467575118
 30
0.0
 11
4053.578875966195028
 21
179.0564178467575118
 31
0.0
  0
LINE
  5
1172F
  8
0
 10
4054.3150964386950363
 20
179.0583863506575142
 30
0.0
 11
4053.6359860018960717
 21
179.0583863506575142
 31
0.0
  0
LINE
  5
11730
  8
0
 10
4053.5080098244948204
 20
179.0583863506575142
 30
0.0
 11
4053.6359860018960717
 21
179.0583863506575142
 31
0.0
  0
LINE
  5
11731
  8
0
 10
4054.3741515567949136
 20
179.0603548545574881
 30
0.0
 11
4053.5080098244948204
 21
179.0603548545574881
 31
0.0
  0
LINE
  5
11732
  8
0
 10
4049.7383247850948464
 20
179.6292524923574945
 30
0.0
 11
4054.3741515567949136
 21
179.6292524923574945
 31
0.0
  0
LINE
  5
11733
  8
0
 10
4054.5513169110950003
 20
179.6292524923574945
 30
0.0
 11
4059.1871436827950674
 21
179.6292524923574945
 31
0.0
  0
LINE
  5
11734
  8
0
 10
4043.8009704543951557
 20
165.6917643034574894
 30
0.0
 11
4043.8009704543951557
 21
244.4914572168574978
 31
0.0
  0
LINE
  5
11735
  8
0
 10
4043.8127814779950313
 20
244.4122367443575001
 30
0.0
 11
4043.8127814779950313
 21
244.4717572168574975
 31
0.0
  0
ARC
  5
11736
  8
0
 10
4043.8324814779948611
 20
244.4717572168574975
 30
0.0
 40
0.0197
 50
90.0
 51
180.0
  0
LINE
  5
11737
  8
0
 10
4045.3757736039951851
 20
244.4717572168574975
 30
0.0
 11
4045.3757736039951851
 21
244.4122367443575001
 31
0.0
  0
LINE
  5
11738
  8
0
 10
4045.3757736039951851
 20
244.4122367443575001
 30
0.0
 11
4045.3757736039951851
 21
165.6917643034574894
 31
0.0
  0
LINE
  5
11739
  8
0
 10
4045.395458643395159
 20
243.8103548545574881
 30
0.0
 11
4045.395458643395159
 21
244.4127170593575045
 31
0.0
  0
LINE
  5
1173A
  8
0
 10
4049.5414743913961502
 20
177.6607485553574861
 30
0.0
 11
4049.5414743913961502
 21
179.4324020986574908
 31
0.0
  0
LINE
  5
1173B
  8
0
 10
4049.5414743913961502
 20
231.5583863506575142
 30
0.0
 11
4049.5414743913961502
 21
233.3300398939574904
 31
0.0
  0
LINE
  5
1173C
  8
0
 10
4050.5135688795949136
 20
244.4127572168575
 30
0.0
 11
4050.5135688795949136
 21
243.8103548545574881
 31
0.0
  0
ARC
  5
1173D
  8
0
 10
4050.4348688795948874
 20
244.4127572168575
 30
0.0
 40
0.0787
 50
0.0
 51
90.0
  0
LINE
  5
1173E
  8
0
 10
4053.5080098244948204
 20
232.9579926498574878
 30
0.0
 11
4053.5080098244948204
 21
231.9304335947574884
 31
0.0
  0
LINE
  5
1173F
  8
0
 10
4053.5080098244948204
 20
178.0603548545574881
 30
0.0
 11
4053.5080098244948204
 21
179.0367328073575095
 31
0.0
  0
LINE
  5
11740
  8
0
 10
4053.5080098244948204
 20
179.0603548545574881
 30
0.0
 11
4053.5080098244948204
 21
178.0327957994574888
 31
0.0
  0
LINE
  5
11741
  8
0
 10
4053.5080098244948204
 20
231.9579926498574878
 30
0.0
 11
4053.5080098244948204
 21
232.9343706026575092
 31
0.0
  0
LINE
  5
11742
  8
0
 10
4053.547379903196088
 20
232.9579926498574878
 30
0.0
 11
4053.547379903196088
 21
232.9560241459575138
 31
0.0
  0
LINE
  5
11743
  8
0
 10
4053.547379903196088
 20
231.9324020986574908
 30
0.0
 11
4053.547379903196088
 21
231.9304335947574884
 31
0.0
  0
LINE
  5
11744
  8
0
 10
4053.547379903196088
 20
179.0603548545574881
 30
0.0
 11
4053.547379903196088
 21
179.0583863506575142
 31
0.0
  0
LINE
  5
11745
  8
0
 10
4053.547379903196088
 20
178.0347643034575071
 30
0.0
 11
4053.547379903196088
 21
178.0327957994574888
 31
0.0
  0
LINE
  5
11746
  8
0
 10
4053.578875966195028
 20
178.0406698152575018
 30
0.0
 11
4053.578875966195028
 21
179.0564178467575118
 31
0.0
  0
LINE
  5
11747
  8
0
 10
4053.578875966195028
 20
231.9383076104575139
 30
0.0
 11
4053.578875966195028
 21
232.9540556419574955
 31
0.0
  0
LINE
  5
11748
  8
0
 10
4053.5867499819942168
 20
178.0741343821574958
 30
0.0
 11
4053.5867499819942168
 21
179.0190162719574971
 31
0.0
  0
LINE
  5
11749
  8
0
 10
4053.5867499819942168
 20
231.9717721774574954
 30
0.0
 11
4053.5867499819942168
 21
232.9166540671575092
 31
0.0
  0
LINE
  5
1174A
  8
0
 10
4053.6064350212950558
 20
232.9442131223574961
 30
0.0
 11
4053.6064350212950558
 21
232.9284650908574861
 31
0.0
  0
LINE
  5
1174B
  8
0
 10
4053.6064350212950558
 20
178.0465753270574965
 30
0.0
 11
4053.6064350212950558
 21
178.0623233585575065
 31
0.0
  0
LINE
  5
1174C
  8
0
 10
4053.6064350212950558
 20
179.0465753270574965
 30
0.0
 11
4053.6064350212950558
 21
179.0308272955574864
 31
0.0
  0
LINE
  5
1174D
  8
0
 10
4053.6064350212950558
 20
231.9442131223574961
 30
0.0
 11
4053.6064350212950558
 21
231.9599611538575061
 31
0.0
  0
LINE
  5
1174E
  8
0
 10
4053.7562542874939027
 20
178.0327957994574888
 30
0.0
 11
4053.7562542874939027
 21
178.0347643034575071
 31
0.0
  0
LINE
  5
1174F
  8
0
 10
4053.7562542874939027
 20
231.9304335947574884
 30
0.0
 11
4053.7562542874939027
 21
231.9324020986574908
 31
0.0
  0
LINE
  5
11750
  8
0
 10
4053.7680653110951425
 20
231.9324020986574908
 30
0.0
 11
4053.7680653110951425
 21
231.9304335947574884
 31
0.0
  0
LINE
  5
11751
  8
0
 10
4053.7680653110951425
 20
178.0347643034575071
 30
0.0
 11
4053.7680653110951425
 21
178.0327957994574888
 31
0.0
  0
LINE
  5
11752
  8
0
 10
4053.7787775803949444
 20
231.9324020986574908
 30
0.0
 11
4053.7787775803949444
 21
231.9304335947574884
 31
0.0
  0
LINE
  5
11753
  8
0
 10
4053.7787775803949444
 20
178.0347643034575071
 30
0.0
 11
4053.7787775803949444
 21
178.0327957994574888
 31
0.0
  0
LINE
  5
11754
  8
0
 10
4053.8048730222949416
 20
179.0583863506575142
 30
0.0
 11
4053.8048730222949416
 21
179.0603548545574881
 31
0.0
  0
LINE
  5
11755
  8
0
 10
4053.8048730222949416
 20
232.9560241459575138
 30
0.0
 11
4053.8048730222949416
 21
232.9579926498574878
 31
0.0
  0
LINE
  5
11756
  8
0
 10
4053.8166840458948172
 20
232.9579926498574878
 30
0.0
 11
4053.8166840458948172
 21
232.9560241459575138
 31
0.0
  0
LINE
  5
11757
  8
0
 10
4053.8166840458948172
 20
179.0603548545574881
 30
0.0
 11
4053.8166840458948172
 21
179.0583863506575142
 31
0.0
  0
LINE
  5
11758
  8
0
 10
4053.8229704543950902
 20
232.9166540671575092
 30
0.0
 11
4053.8229704543950902
 21
231.9717721774574954
 31
0.0
  0
LINE
  5
11759
  8
0
 10
4053.8364227222941736
 20
232.9579926498574878
 30
0.0
 11
4053.8364227222941736
 21
232.9560241459575138
 31
0.0
  0
LINE
  5
1175A
  8
0
 10
4053.8364227222941736
 20
179.0603548545574881
 30
0.0
 11
4053.8364227222941736
 21
179.0583863506575142
 31
0.0
  0
LINE
  5
1175B
  8
0
 10
4071.0833688796510614
 20
199.8261154057574913
 30
0.0
 11
4071.7920298390499738
 21
199.8261154057574913
 31
0.0
  0
LINE
  5
1175C
  8
0
 10
4053.9669985014947997
 20
179.0583863506575142
 30
0.0
 11
4053.9669985014947997
 21
179.0603548545574881
 31
0.0
  0
LINE
  5
1175D
  8
0
 10
4053.9669985014947997
 20
232.9560241459575138
 30
0.0
 11
4053.9669985014947997
 21
232.9579926498574878
 31
0.0
  0
LINE
  5
1175E
  8
0
 10
4053.9867371777959306
 20
232.9579926498574878
 30
0.0
 11
4053.9867371777959306
 21
232.9560241459575138
 31
0.0
  0
LINE
  5
1175F
  8
0
 10
4053.9867371777959306
 20
179.0603548545574881
 30
0.0
 11
4053.9867371777959306
 21
179.0583863506575142
 31
0.0
  0
LINE
  5
11760
  8
0
 10
4053.9985482014949412
 20
232.9579926498574878
 30
0.0
 11
4053.9985482014949412
 21
232.9560241459575138
 31
0.0
  0
LINE
  5
11761
  8
0
 10
4053.9985482014949412
 20
179.0603548545574881
 30
0.0
 11
4053.9985482014949412
 21
179.0583863506575142
 31
0.0
  0
LINE
  5
11762
  8
0
 10
4054.0246436433949384
 20
178.0327957994574888
 30
0.0
 11
4054.0246436433949384
 21
178.0347643034575071
 31
0.0
  0
LINE
  5
11763
  8
0
 10
4054.0246436433949384
 20
231.9304335947574884
 30
0.0
 11
4054.0246436433949384
 21
231.9324020986574908
 31
0.0
  0
LINE
  5
11764
  8
0
 10
4054.035355912695195
 20
231.9324020986574908
 30
0.0
 11
4054.035355912695195
 21
231.9304335947574884
 31
0.0
  0
LINE
  5
11765
  8
0
 10
4054.035355912695195
 20
178.0347643034575071
 30
0.0
 11
4054.035355912695195
 21
178.0327957994574888
 31
0.0
  0
LINE
  5
11766
  8
0
 10
4054.0471669362950706
 20
231.9324020986574908
 30
0.0
 11
4054.0471669362950706
 21
231.9304335947574884
 31
0.0
  0
LINE
  5
11767
  8
0
 10
4054.0471669362950706
 20
178.0347643034575071
 30
0.0
 11
4054.0471669362950706
 21
178.0327957994574888
 31
0.0
  0
LINE
  5
11768
  8
0
 10
4054.1125610055942161
 20
166.3418509175575082
 30
0.0
 11
4054.1125610055942161
 21
177.4638981616575109
 31
0.0
  0
LINE
  5
11769
  8
0
 10
4054.1125610055942161
 20
179.6292524923574945
 30
0.0
 11
4054.1125610055942161
 21
231.3615359569575105
 31
0.0
  0
LINE
  5
1176A
  8
0
 10
4054.1125610055942161
 20
233.5268902876574941
 30
0.0
 11
4054.1125610055942161
 21
244.2552367443574894
 31
0.0
  0
LINE
  5
1176B
  8
0
 10
4054.1969862023947826
 20
232.9442131223574961
 30
0.0
 11
4054.1969862023947826
 21
232.9284650908574861
 31
0.0
  0
LINE
  5
1176C
  8
0
 10
4054.1969862023947826
 20
178.0465753270574965
 30
0.0
 11
4054.1969862023947826
 21
178.0623233585575065
 31
0.0
  0
LINE
  5
1176D
  8
0
 10
4054.1969862023947826
 20
179.0465753270574965
 30
0.0
 11
4054.1969862023947826
 21
179.0308272955574864
 31
0.0
  0
LINE
  5
1176E
  8
0
 10
4054.1969862023947826
 20
231.9442131223574961
 30
0.0
 11
4054.1969862023947826
 21
231.9599611538575061
 31
0.0
  0
LINE
  5
1176F
  8
0
 10
4054.2739783283950601
 20
166.2941265081574898
 30
0.0
 11
4054.2739783283950601
 21
166.3418509175575082
 31
0.0
  0
LINE
  5
11770
  8
0
 10
4054.2899588091950136
 20
179.6292524923574945
 30
0.0
 11
4054.2899585913951341
 21
231.3615359569575105
 31
0.0
  0
LINE
  5
11771
  8
0
 10
4054.2899586188950707
 20
233.5268902876574941
 30
0.0
 11
4054.2899585904951891
 21
244.2552367443574894
 31
0.0
  0
LINE
  5
11772
  8
0
 10
4054.2899585903951447
 20
166.3418509175575082
 30
0.0
 11
4054.2899588061959548
 21
177.4638981616575109
 31
0.0
  0
LINE
  5
11773
  8
0
 10
4054.2910925015949033
 20
178.0347643034575071
 30
0.0
 11
4054.2910925015949033
 21
178.0741343821574958
 31
0.0
  0
LINE
  5
11774
  8
0
 10
4054.2910925015949033
 20
179.0190162719574971
 30
0.0
 11
4054.2910925015949033
 21
179.0583863506575142
 31
0.0
  0
LINE
  5
11775
  8
0
 10
4054.2910925015949033
 20
231.9324020986574908
 30
0.0
 11
4054.2910925015949033
 21
231.9717721774574954
 31
0.0
  0
LINE
  5
11776
  8
0
 10
4054.2910925015949033
 20
232.9166540671575092
 30
0.0
 11
4054.2910925015949033
 21
232.9560241459575138
 31
0.0
  0
LINE
  5
11777
  8
0
 10
4054.3133484071959174
 20
178.0347643034575071
 30
0.0
 11
4054.3133484071959174
 21
178.0741343821574958
 31
0.0
  0
LINE
  5
11778
  8
0
 10
4054.3133484071959174
 20
179.0190162719574971
 30
0.0
 11
4054.3133484071959174
 21
179.0583863506575142
 31
0.0
  0
LINE
  5
11779
  8
0
 10
4054.3133484071959174
 20
166.3418509175575082
 30
0.0
 11
4054.3133484071959174
 21
166.2941265081574898
 31
0.0
  0
LINE
  5
1177A
  8
0
 10
4054.3133484071959174
 20
231.9324020986574908
 30
0.0
 11
4054.3133484071959174
 21
231.9717721774574954
 31
0.0
  0
LINE
  5
1177B
  8
0
 10
4054.3133484071959174
 20
232.9166540671575092
 30
0.0
 11
4054.3133484071959174
 21
232.9560241459575138
 31
0.0
  0
LINE
  5
1177C
  8
0
 10
4054.3150964386950363
 20
232.9560241459575138
 30
0.0
 11
4054.3150964386950363
 21
232.9560241459575138
 31
0.0
  0
LINE
  5
1177D
  8
0
 10
4054.3150964386950363
 20
231.9324020986574908
 30
0.0
 11
4054.3150964386950363
 21
231.9304335947574884
 31
0.0
  0
LINE
  5
1177E
  8
0
 10
4054.3150964386950363
 20
179.0603548545574881
 30
0.0
 11
4054.3150964386950363
 21
179.0583863506575142
 31
0.0
  0
LINE
  5
1177F
  8
0
 10
4054.3150964386950363
 20
178.0347643034575071
 30
0.0
 11
4054.3150964386950363
 21
178.0327957994574888
 31
0.0
  0
LINE
  5
11780
  8
0
 10
4054.3539467773948672
 20
178.0327957994574888
 30
0.0
 11
4054.3539467559949117
 21
178.0741343821574958
 31
0.0
  0
LINE
  5
11781
  8
0
 10
4054.3539469081961215
 20
231.9304335947574884
 30
0.0
 11
4054.3539469080951676
 21
231.9717721774574954
 31
0.0
  0
LINE
  5
11782
  8
0
 10
4054.3539469068950893
 20
232.9166540671575092
 30
0.0
 11
4054.3539469067959544
 21
232.9579926498574878
 31
0.0
  0
LINE
  5
11783
  8
0
 10
4054.3566554937951878
 20
244.2552367443574894
 30
0.0
 11
4054.3566554937951878
 21
233.5268902876574941
 31
0.0
  0
LINE
  5
11784
  8
0
 10
4054.3566554937951878
 20
232.9579926498574878
 30
0.0
 11
4054.3566554937951878
 21
232.9166540671575092
 31
0.0
  0
LINE
  5
11785
  8
0
 10
4054.3566554937951878
 20
231.9717721774574954
 30
0.0
 11
4054.3566554937951878
 21
231.9304335947574884
 31
0.0
  0
LINE
  5
11786
  8
0
 10
4054.3566554937951878
 20
231.3615359569575105
 30
0.0
 11
4054.3566554937951878
 21
179.6292524923574945
 31
0.0
  0
LINE
  5
11787
  8
0
 10
4054.3566554937951878
 20
179.0603548545574881
 30
0.0
 11
4054.3566554937951878
 21
179.0190162719574971
 31
0.0
  0
LINE
  5
11788
  8
0
 10
4054.3566554937951878
 20
178.0741343821574958
 30
0.0
 11
4054.3566554937951878
 21
178.0327957994574888
 31
0.0
  0
LINE
  5
11789
  8
0
 10
4054.3566554937951878
 20
177.4638981616575109
 30
0.0
 11
4054.3566554937951878
 21
166.4004257207575108
 31
0.0
  0
LINE
  5
1178A
  8
0
 10
4054.3566554937951878
 20
166.4004257207575108
 30
0.0
 11
4054.3566554937951878
 21
166.2941265081574898
 31
0.0
  0
LINE
  5
1178B
  8
0
 10
4054.3741515567949136
 20
177.4638981616575109
 30
0.0
 11
4054.3741515567949136
 21
178.0327957994574888
 31
0.0
  0
LINE
  5
1178C
  8
0
 10
4054.3741515567949136
 20
179.0603548545574881
 30
0.0
 11
4054.3741515567949136
 21
179.6292524923574945
 31
0.0
  0
LINE
  5
1178D
  8
0
 10
4054.3741515567949136
 20
231.3615359569575105
 30
0.0
 11
4054.3741515567949136
 21
231.9304335947574884
 31
0.0
  0
LINE
  5
1178E
  8
0
 10
4054.3741515567949136
 20
232.9579926498574878
 30
0.0
 11
4054.3741515567949136
 21
233.5268902876574941
 31
0.0
  0
LINE
  5
1178F
  8
0
 10
4054.5298838401949979
 20
166.4004257207575108
 30
0.0
 11
4054.5298838401949979
 21
178.0741343821574958
 31
0.0
  0
LINE
  5
11790
  8
0
 10
4054.5298838401949979
 20
232.9166540671575092
 30
0.0
 11
4054.5298838401949979
 21
244.2552367443574894
 31
0.0
  0
LINE
  5
11791
  8
0
 10
4054.5493484071948842
 20
231.9717721774574954
 30
0.0
 11
4054.5493484071948842
 21
179.0190162719574971
 31
0.0
  0
LINE
  5
11792
  8
0
 10
4054.5493484071948842
 20
178.0741343821574958
 30
0.0
 11
4054.5493484071948842
 21
166.9717721774574954
 31
0.0
  0
LINE
  5
11793
  8
0
 10
4054.5493484071948842
 20
166.9717721774574954
 30
0.0
 11
4054.5493484071948842
 21
166.4205910750575015
 31
0.0
  0
LINE
  5
11794
  8
0
 10
4054.5513169110950003
 20
178.0741343821574958
 30
0.0
 11
4054.5513169110950003
 21
177.4638981616575109
 31
0.0
  0
LINE
  5
11795
  8
0
 10
4054.5513169110950003
 20
231.3615359569575105
 30
0.0
 11
4054.5513169110950003
 21
231.9717721774574954
 31
0.0
  0
LINE
  5
11796
  8
0
 10
4054.5513169110950003
 20
232.9166540671575092
 30
0.0
 11
4054.5513169110950003
 21
233.5268902876574941
 31
0.0
  0
LINE
  5
11797
  8
0
 10
4054.6479940763952072
 20
166.4004257207575108
 30
0.0
 11
4054.6479940763952072
 21
166.4205910750575015
 31
0.0
  0
LINE
  5
11798
  8
0
 10
4059.383994076495128
 20
233.3300398939574904
 30
0.0
 11
4059.383994076495128
 21
231.5583863506575142
 31
0.0
  0
LINE
  5
11799
  8
0
 10
4059.383994076495128
 20
179.4324020986574908
 30
0.0
 11
4059.383994076495128
 21
177.6607485553574861
 31
0.0
  0
LINE
  5
1179A
  8
0
 10
4071.7920302966499548
 20
211.1646980829575
 30
0.0
 11
4071.0833688796510614
 21
211.1646980829575
 31
0.0
  0
LINE
  5
1179B
  8
0
 10
4071.0439988007501597
 20
199.865485484557496
 30
0.0
 11
4071.0439988007501597
 21
211.1253280041574953
 31
0.0
  0
LINE
  5
1179C
  8
0
 10
4071.8314003755499471
 20
199.865485484557496
 30
0.0
 11
4071.8314003755499471
 21
211.1253280041574953
 31
0.0
  0
LINE
  5
1179D
  8
0
 10
4072.915505970895083
 20
166.4599611538575061
 30
0.0
 11
4072.915505970895083
 21
165.6922446183575062
 31
0.0
  0
LINE
  5
1179E
  8
0
 10
4073.4848897456949999
 20
166.9717721774574954
 30
0.0
 11
4073.4848897456949999
 21
244.2552367443574894
 31
0.0
  0
LINE
  5
1179F
  8
0
 10
4073.4849389583951051
 20
166.7355517049574871
 30
0.0
 11
4073.4849389583951051
 21
166.9717721774574954
 31
0.0
  0
LINE
  5
117A0
  8
0
 10
4073.8408936826949684
 20
244.2552367443574894
 30
0.0
 11
4073.8408936826949684
 21
166.7355517049574871
 31
0.0
  0
LINE
  5
117A1
  8
0
 10
4074.1688732516959135
 20
166.7355517049574871
 30
0.0
 11
4074.1688732516959135
 21
244.2552367443574894
 31
0.0
  0
LINE
  5
117A2
  8
0
 10
4074.2162693631948969
 20
166.4599611538575061
 30
0.0
 11
4074.2162693631948969
 21
166.7001186341574908
 31
0.0
  0
LINE
  5
117A3
  8
0
 10
4074.2279283698958352
 20
244.2552367443574894
 30
0.0
 11
4074.2279283698958352
 21
166.7355517049574871
 31
0.0
  0
LINE
  5
117A4
  8
0
 10
4074.2330094815952179
 20
166.7001186341574908
 30
0.0
 11
4074.2330094815952179
 21
166.7355517049574871
 31
0.0
  0
LINE
  5
117A5
  8
0
 10
4074.3190319128948431
 20
166.4599611538575061
 30
0.0
 11
4074.3190319128948431
 21
244.2547879254574923
 31
0.0
  0
LINE
  5
117A6
  8
0
 10
4074.4115689629948065
 20
166.4402761144575038
 30
0.0
 11
4074.4115689629948065
 21
165.6917643034574894
 31
0.0
  0
LINE
  5
117A7
  8
0
 10
4059.1871436827950674
 20
231.3615359569575105
 30
0.0
 11
4054.5513169110950003
 21
231.3615359569575105
 31
0.0
  0
LINE
  5
117A8
  8
0
 10
4054.3741515567949136
 20
231.3615359569575105
 30
0.0
 11
4049.7383247850948464
 21
231.3615359569575105
 31
0.0
  0
LINE
  5
117A9
  8
0
 10
4053.5080098244948204
 20
231.9304335947574884
 30
0.0
 11
4054.3741515567949136
 21
231.9304335947574884
 31
0.0
  0
LINE
  5
117AA
  8
0
 10
4054.1673326047948649
 20
231.9324020986574908
 30
0.0
 11
4053.6359780853949815
 21
231.9324020986574908
 31
0.0
  0
LINE
  5
117AB
  8
0
 10
4053.5080098244948204
 20
231.9324020986574908
 30
0.0
 11
4053.6359842329948151
 21
231.9324020986574908
 31
0.0
  0
LINE
  5
117AC
  8
0
 10
4054.1672912010949403
 20
231.9324020986574908
 30
0.0
 11
4054.3150964386950363
 21
231.9324020986574908
 31
0.0
  0
LINE
  5
117AD
  8
0
 10
4053.578875966195028
 20
231.9383076104575139
 30
0.0
 11
4053.5080098244948204
 21
231.9383076104575139
 31
0.0
  0
LINE
  5
117AE
  8
0
 10
4053.6064350212950558
 20
231.9442131223574961
 30
0.0
 11
4054.1969862023947826
 21
231.9442131223574961
 31
0.0
  0
LINE
  5
117AF
  8
0
 10
4053.5080098244948204
 20
231.9579926498574878
 30
0.0
 11
4053.578875966195028
 21
231.9579926498574878
 31
0.0
  0
LINE
  5
117B0
  8
0
 10
4054.1969862023947826
 20
231.9599611538575061
 30
0.0
 11
4053.6064350212950558
 21
231.9599611538575061
 31
0.0
  0
LINE
  5
117B1
  8
0
 10
4053.5867499819942168
 20
231.9717721774574954
 30
0.0
 11
4054.5513169110950003
 21
231.9717721774574954
 31
0.0
  0
LINE
  5
117B2
  8
0
 10
4053.5867499819942168
 20
232.9166540671575092
 30
0.0
 11
4054.5513169110950003
 21
232.9166540671575092
 31
0.0
  0
LINE
  5
117B3
  8
0
 10
4053.578875966195028
 20
232.9343706026575092
 30
0.0
 11
4053.5080098244948204
 21
232.9343706026575092
 31
0.0
  0
LINE
  5
117B4
  8
0
 10
4053.5080098244948204
 20
232.9540556419574955
 30
0.0
 11
4053.578875966195028
 21
232.9540556419574955
 31
0.0
  0
LINE
  5
117B5
  8
0
 10
4054.3150964386950363
 20
232.9560241459575138
 30
0.0
 11
4053.6359860018960717
 21
232.9560241459575138
 31
0.0
  0
LINE
  5
117B6
  8
0
 10
4053.5080098244948204
 20
232.9560241459575138
 30
0.0
 11
4053.6359860018960717
 21
232.9560241459575138
 31
0.0
  0
LINE
  5
117B7
  8
0
 10
4054.3741515567949136
 20
232.9579926498574878
 30
0.0
 11
4053.5080098244948204
 21
232.9579926498574878
 31
0.0
  0
LINE
  5
117B8
  8
0
 10
4049.7383247850948464
 20
233.5268902876574941
 30
0.0
 11
4054.3741515567949136
 21
233.5268902876574941
 31
0.0
  0
LINE
  5
117B9
  8
0
 10
4054.5513169110950003
 20
233.5268902876574941
 30
0.0
 11
4059.1871436827950674
 21
233.5268902876574941
 31
0.0
  0
LINE
  5
117BA
  8
0
 10
4050.4348287220950624
 20
243.7316146971575108
 30
0.0
 11
4045.4741988008950102
 21
243.7316146971575108
 31
0.0
  0
LINE
  5
117BB
  8
0
 10
4054.1125610055942161
 20
244.2158666656575008
 30
0.0
 11
4050.5135688795949136
 21
244.2158666656575008
 31
0.0
  0
LINE
  5
117BC
  8
0
 10
4045.395458643395159
 20
244.2158666656575008
 30
0.0
 11
4045.3757736039951851
 21
244.2158666656575008
 31
0.0
  0
LINE
  5
117BD
  8
0
 10
4074.3190319128948431
 20
244.2547879254574923
 30
0.0
 11
4074.2279283698958352
 21
244.2547879254574923
 31
0.0
  0
LINE
  5
117BE
  8
0
 10
4073.4848897456949999
 20
244.2552367443574894
 30
0.0
 11
4054.5493484071948842
 21
244.2552367443574894
 31
0.0
  0
LINE
  5
117BF
  8
0
 10
4054.1125610055942161
 20
244.2552367443574894
 30
0.0
 11
4050.5135688795949136
 21
244.2552367443574894
 31
0.0
  0
LINE
  5
117C0
  8
0
 10
4054.1125610054950812
 20
244.2552367443574894
 30
0.0
 11
4054.5493484071948842
 21
244.2552367443574894
 31
0.0
  0
LINE
  5
117C1
  8
0
 10
4045.395458643395159
 20
244.2552367443574894
 30
0.0
 11
4045.3757736039951851
 21
244.2552367443574894
 31
0.0
  0
LINE
  5
117C2
  8
0
 10
4073.4848897456949999
 20
244.2552367443574894
 30
0.0
 11
4074.2279283698958352
 21
244.2552367443574894
 31
0.0
  0
LINE
  5
117C3
  8
0
 10
4045.3757736039951851
 20
244.4068115475575098
 30
0.0
 11
4045.395458643395159
 21
244.4068115475575098
 31
0.0
  0
LINE
  5
117C4
  8
0
 10
4043.8226091148949308
 20
244.4122367443575001
 30
0.0
 11
4045.3757736039951851
 21
244.4122367443575001
 31
0.0
  0
LINE
  5
117C5
  8
0
 10
4045.3757736039951851
 20
244.4122367443575001
 30
0.0
 11
4043.8009704543951557
 21
244.4122367443575001
 31
0.0
  0
LINE
  5
117C6
  8
0
 10
4043.8009704543951557
 20
244.4127170593575045
 30
0.0
 11
4043.8127814779950313
 21
244.4127170593575045
 31
0.0
  0
LINE
  5
117C7
  8
0
 10
4045.395458643395159
 20
244.4127170593575045
 30
0.0
 11
4045.3757736039951851
 21
244.4127170593575045
 31
0.0
  0
LINE
  5
117C8
  8
0
 10
4043.8009704543951557
 20
244.4914572168574978
 30
0.0
 11
4050.4348688795948874
 21
244.4914572168574978
 31
0.0
  0
ARC
  5
117C9
  8
0
 10
4045.3560736039949006
 20
244.4717572168574975
 30
0.0
 40
0.0197
 50
0.0
 51
90.0
  0
ARC
  5
117CA
  8
0
 10
4049.7383247850948464
 20
179.4324020986574908
 30
0.0
 40
0.1968503937
 50
90.0
 51
180.0
  0
ARC
  5
117CB
  8
0
 10
4049.7383247850948464
 20
177.6607485553574861
 30
0.0
 40
0.1968503937
 50
180.0
 51
270.0
  0
ARC
  5
117CC
  8
0
 10
4054.185175178794907
 20
178.0465753270574965
 30
0.0
 40
0.0118110236
 50
270.0
 51
0.0
  0
ARC
  5
117CD
  8
0
 10
4053.6182460449958853
 20
178.0465753270574965
 30
0.0
 40
0.0118110236
 50
180.0
 51
270.0
  0
ARC
  5
117CE
  8
0
 10
4054.185175178794907
 20
178.0623233585575065
 30
0.0
 40
0.0118110236
 50
0.0
 51
90.0
  0
ARC
  5
117CF
  8
0
 10
4053.6182460449958853
 20
178.0623233585575065
 30
0.0
 40
0.0118110236
 50
90.0
 51
180.0
  0
ARC
  5
117D0
  8
0
 10
4053.6182460449958853
 20
179.0465753270574965
 30
0.0
 40
0.0118110236
 50
90.0
 51
180.0
  0
ARC
  5
117D1
  8
0
 10
4054.185175178794907
 20
179.0465753270574965
 30
0.0
 40
0.0118110236
 50
0.0
 51
90.0
  0
ARC
  5
117D2
  8
0
 10
4053.6182460449958853
 20
179.0308272955574864
 30
0.0
 40
0.0118110236
 50
180.0
 51
270.0
  0
ARC
  5
117D3
  8
0
 10
4054.185175178794907
 20
179.0308272955574864
 30
0.0
 40
0.0118110236
 50
270.0
 51
0.0
  0
ARC
  5
117D4
  8
0
 10
4049.7383247850948464
 20
233.3300398939574904
 30
0.0
 40
0.1968503937
 50
90.0
 51
180.0
  0
ARC
  5
117D5
  8
0
 10
4049.7383247850948464
 20
231.5583863506575142
 30
0.0
 40
0.1968503937
 50
180.0
 51
270.0
  0
ARC
  5
117D6
  8
0
 10
4045.4741988008950102
 20
243.8103548545574881
 30
0.0
 40
0.0787401575
 50
180.0
 51
270.0
  0
ARC
  5
117D7
  8
0
 10
4050.4348287220950624
 20
243.8103548545574881
 30
0.0
 40
0.0787401575
 50
270.0
 51
0.0
  0
ARC
  5
117D8
  8
0
 10
4045.4741988008950102
 20
244.4127170593575045
 30
0.0
 40
0.0787401575
 50
90.0
 51
180.0
  0
ARC
  5
117D9
  8
0
 10
4054.185175178794907
 20
231.9442131223574961
 30
0.0
 40
0.0118110236
 50
270.0
 51
0.0
  0
ARC
  5
117DA
  8
0
 10
4053.6182460449958853
 20
231.9442131223574961
 30
0.0
 40
0.0118110236
 50
180.0
 51
270.0
  0
ARC
  5
117DB
  8
0
 10
4054.185175178794907
 20
231.9599611538575061
 30
0.0
 40
0.0118110236
 50
0.0
 51
90.0
  0
ARC
  5
117DC
  8
0
 10
4053.6182460449958853
 20
231.9599611538575061
 30
0.0
 40
0.0118110236
 50
90.0
 51
180.0
  0
ARC
  5
117DD
  8
0
 10
4053.6182460449958853
 20
232.9442131223574961
 30
0.0
 40
0.0118110236
 50
90.0
 51
180.0
  0
ARC
  5
117DE
  8
0
 10
4054.185175178794907
 20
232.9442131223574961
 30
0.0
 40
0.0118110236
 50
0.0
 51
90.0
  0
ARC
  5
117DF
  8
0
 10
4053.6182460449958853
 20
232.9284650908574861
 30
0.0
 40
0.0118110236
 50
180.0
 51
270.0
  0
ARC
  5
117E0
  8
0
 10
4054.185175178794907
 20
232.9284650908574861
 30
0.0
 40
0.0118110236
 50
270.0
 51
0.0
  0
ARC
  5
117E1
  8
0
 10
4059.1871436827950674
 20
177.6607485553574861
 30
0.0
 40
0.1968503937
 50
270.0
 51
0.0
  0
ARC
  5
117E2
  8
0
 10
4059.1871436827950674
 20
179.4324020986574908
 30
0.0
 40
0.1968503937
 50
0.0
 51
90.0
  0
ARC
  5
117E3
  8
0
 10
4071.7920302967499993
 20
199.865485484557496
 30
0.0
 40
0.0393700787
 50
270.0
 51
0.0
  0
ARC
  5
117E4
  8
0
 10
4071.0833688794500631
 20
199.865485484557496
 30
0.0
 40
0.0393700787
 50
180.0
 51
270.0
  0
ARC
  5
117E5
  8
0
 10
4074.3918839235948326
 20
166.4402761144575038
 30
0.0
 40
0.0196850394
 50
0.0
 51
90.0
  0
ARC
  5
117E6
  8
0
 10
4059.1871436827950674
 20
231.5583863506575142
 30
0.0
 40
0.1968503937
 50
270.0
 51
0.0
  0
ARC
  5
117E7
  8
0
 10
4059.1871436827950674
 20
233.3300398939574904
 30
0.0
 40
0.1968503937
 50
0.0
 51
90.0
  0
ARC
  5
117E8
  8
0
 10
4071.7920302967499993
 20
211.1253280041574953
 30
0.0
 40
0.0393700787
 50
0.0
 51
90.0
  0
ARC
  5
117E9
  8
0
 10
4071.0833688794500631
 20
211.1253280041574953
 30
0.0
 40
0.0393700787
 50
90.0
 51
180.0
  0
ENDSEC
  0
EOF
