  0
SECTION
  2
HEADER
  9
$ACADVER
  1
AC1009
  9
$INSBASE
 10
3989.1330438038207831
 20
171.9019803633470929
 30
0.0
  9
$EXTMIN
 10
3986.7675800642709874
 20
171.9019803633470929
 30
0.0
  9
$EXTMAX
 10
3991.0982887256709546
 20
250.7208890840470872
 30
0.0
  9
$LIMMIN
 10
0.0
 20
0.0
  9
$LIMMAX
 10
11.6929133858000007
 20
8.2677165353999982
  9
$ORTHOMODE
 70
     0
  9
$REGENMODE
 70
     1
  9
$FILLMODE
 70
     1
  9
$QTEXTMODE
 70
     0
  9
$MIRRTEXT
 70
     0
  9
$DRAGMODE
 70
     2
  9
$LTSCALE
 40
0.6431102362
  9
$OSMODE
 70
  4095
  9
$ATTMODE
 70
     1
  9
$TEXTSIZE
 40
0.2
  9
$TRACEWID
 40
0.05
  9
$TEXTSTYLE
  7
STANDARD
  9
$CLAYER
  8
0
  9
$CELTYPE
  6
BYLAYER
  9
$CECOLOR
 62
   256
  9
$DIMSCALE
 40
1.0
  9
$DIMASZ
 40
0.1875
  9
$DIMEXO
 40
0.0625
  9
$DIMDLI
 40
0.4443307087
  9
$DIMRND
 40
0.0
  9
$DIMDLE
 40
0.0
  9
$DIMEXE
 40
0.125
  9
$DIMTP
 40
0.01
  9
$DIMTM
 40
0.01
  9
$DIMTXT
 40
2.0
  9
$DIMCEN
 40
0.1052362205
  9
$DIMTSZ
 40
0.0
  9
$DIMTOL
 70
     1
  9
$DIMLIM
 70
     0
  9
$DIMTIH
 70
     1
  9
$DIMTOH
 70
     1
  9
$DIMSE1
 70
     0
  9
$DIMSE2
 70
     0
  9
$DIMTAD
 70
     0
  9
$DIMZIN
 70
     0
  9
$DIMBLK
  1

  9
$DIMASO
 70
     1
  9
$DIMSHO
 70
     1
  9
$DIMPOST
  1
\X
  9
$DIMAPOST
  1

  9
$DIMALT
 70
     1
  9
$DIMALTD
 70
     2
  9
$DIMALTF
 40
25.3999999999999986
  9
$DIMLFAC
 40
1.0
  9
$DIMTOFL
 70
     0
  9
$DIMTVP
 40
0.0
  9
$DIMTIX
 70
     0
  9
$DIMSOXD
 70
     0
  9
$DIMSAH
 70
     0
  9
$DIMBLK1
  1

  9
$DIMBLK2
  1

  9
$DIMSTYLE
  2
STANDARD
  9
$DIMCLRD
 70
     0
  9
$DIMCLRE
 70
     0
  9
$DIMCLRT
 70
     0
  9
$DIMTFAC
 40
1.0
  9
$DIMGAP
 40
0.09
  9
$LUNITS
 70
     2
  9
$LUPREC
 70
     4
  9
$SKETCHINC
 40
0.1
  9
$FILLETRAD
 40
0.0
  9
$AUNITS
 70
     0
  9
$AUPREC
 70
     0
  9
$MENU
  1
.
  9
$ELEVATION
 40
0.0
  9
$PELEVATION
 40
0.0
  9
$THICKNESS
 40
0.0
  9
$LIMCHECK
 70
     0
  9
$BLIPMODE
 70
     0
  9
$CHAMFERA
 40
0.0
  9
$CHAMFERB
 40
0.0
  9
$SKPOLY
 70
     0
  9
$TDCREATE
 40
2458060.468368056230247
  9
$TDUPDATE
 40
2459510.8376620369963348
  9
$TDINDWG
 40
0.7334908565
  9
$TDUSRTIMER
 40
0.7334908565
  9
$USRTIMER
 70
     1
  9
$ANGBASE
 50
0.0
  9
$ANGDIR
 70
     0
  9
$PDMODE
 70
     0
  9
$PDSIZE
 40
0.3125
  9
$PLINEWID
 40
0.0
  9
$COORDS
 70
     1
  9
$SPLFRAME
 70
     0
  9
$SPLINETYPE
 70
     6
  9
$SPLINESEGS
 70
     8
  9
$ATTDIA
 70
     1
  9
$ATTREQ
 70
     1
  9
$HANDLING
 70
     1
  9
$HANDSEED
  5
111A6
  9
$SURFTAB1
 70
     6
  9
$SURFTAB2
 70
     6
  9
$SURFTYPE
 70
     6
  9
$SURFU
 70
     6
  9
$SURFV
 70
     6
  9
$UCSNAME
  2

  9
$UCSORG
 10
0.0
 20
0.0
 30
0.0
  9
$UCSXDIR
 10
1.0
 20
0.0
 30
0.0
  9
$UCSYDIR
 10
0.0
 20
1.0
 30
0.0
  9
$PUCSNAME
  2

  9
$PUCSORG
 10
0.0
 20
0.0
 30
0.0
  9
$PUCSXDIR
 10
1.0
 20
0.0
 30
0.0
  9
$PUCSYDIR
 10
0.0
 20
1.0
 30
0.0
  9
$USERI1
 70
     0
  9
$USERI2
 70
     0
  9
$USERI3
 70
     0
  9
$USERI4
 70
     0
  9
$USERI5
 70
     0
  9
$USERR1
 40
0.0
  9
$USERR2
 40
0.0
  9
$USERR3
 40
0.0
  9
$USERR4
 40
0.0
  9
$USERR5
 40
0.0
  9
$WORLDVIEW
 70
     1
  9
$SHADEDGE
 70
     3
  9
$SHADEDIF
 70
    70
  9
$TILEMODE
 70
     1
  9
$MAXACTVP
 70
    64
  9
$PLIMCHECK
 70
     0
  9
$PEXTMIN
 10
1.0000000000000000E+20
 20
1.0000000000000000E+20
 30
1.0000000000000000E+20
  9
$PEXTMAX
 10
-1.0000000000000000E+20
 20
-1.0000000000000000E+20
 30
-1.0000000000000000E+20
  9
$PLIMMIN
 10
0.0
 20
0.0
  9
$PLIMMAX
 10
12.0
 20
9.0
  9
$UNITMODE
 70
     0
  9
$VISRETAIN
 70
     1
  9
$PLINEGEN
 70
     0
  9
$PSLTSCALE
 70
     1
  0
ENDSEC
  0
SECTION
  2
TABLES
  0
TABLE
  2
VPORT
 70
     1
  0
VPORT
  2
*ACTIVE
 70
     0
 10
0.0
 20
0.0
 11
1.0
 21
1.0
 12
344.8571287309085278
 22
51.3671942238994816
 13
0.0
 23
0.0
 14
1.0
 24
1.0
 15
0.0
 25
0.0
 16
0.0
 26
0.0
 36
26.6346482412083887
 17
3644.0758056640620453
 27
159.9442404997975871
 37
0.0
 40
79.5465804074701595
 41
2.8393393393393391
 42
50.0
 43
0.0
 44
0.0
 50
0.0
 51
0.0
 71
     0
 72
   100
 73
     1
 74
     1
 75
     0
 76
     0
 77
     0
 78
     0
  0
ENDTAB
  0
TABLE
  2
LTYPE
 70
     2
  0
LTYPE
  2
CONTINUOUS
 70
     0
  3
Solid line
 72
    65
 73
     0
 40
0.0
  0
LTYPE
  2
PHANTOM2
 70
     0
  3
___ _ _ ___ _ _ ___ _ _ ___ _ _
 72
    65
 73
     6
 40
1.25
 49
0.625
 49
-0.125
 49
0.125
 49
-0.125
 49
0.125
 49
-0.125
  0
ENDTAB
  0
TABLE
  2
LAYER
 70
     2
  0
LAYER
  2
0
 70
     0
 62
   255
  6
CONTINUOUS
  0
LAYER
  2
DEFPOINTS
 70
     0
 62
     7
  6
CONTINUOUS
  0
ENDTAB
  0
TABLE
  2
STYLE
 70
     1
  0
STYLE
  2
STANDARD
 70
     0
 40
0.0
 41
0.8
 50
0.0
 71
     0
 42
0.2
  3
txt
  4

  0
ENDTAB
  0
TABLE
  2
VIEW
 70
     0
  0
ENDTAB
  0
TABLE
  2
UCS
 70
     0
  0
ENDTAB
  0
TABLE
  2
APPID
 70
    10
  0
APPID
  2
ACAD
 70
     0
  0
APPID
  2
ACAD_MLEADERVER
 70
     0
  0
APPID
  2
ACAD_EXEMPT_FROM_CAD_STANDARDS
 70
     0
  0
APPID
  2
ACAD_NAV_VCDISPLAY
 70
     0
  0
APPID
  2
ACAECLAYERSTANDARD
 70
     0
  0
APPID
  2
ACCMTRANSPARENCY
 70
     0
  0
APPID
  2
ACAD_DSTYLE_DIMJAG
 70
     0
  0
APPID
  2
ACAD_DSTYLE_DIMTALN
 70
     0
  0
APPID
  2
ACDBATTR
 70
     0
  0
APPID
  2
ACAD_PSEXT
 70
     0
  0
ENDTAB
  0
TABLE
  2
DIMSTYLE
 70
     1
  0
DIMSTYLE
  2
STANDARD
 70
     0
  3

  4

  5

  6

  7

 40
1.0
 41
0.1875
 42
0.0625
 43
0.38
 44
0.125
 45
0.0
 46
0.0
 47
0.01
 48
0.01
140
0.15625
141
0.09
142
0.0
143
25.3999999999999986
144
1.0
145
0.0
146
1.0
147
0.09
 71
     1
 72
     0
 73
     1
 74
     1
 75
     0
 76
     0
 77
     0
 78
     4
170
     0
171
     2
172
     0
173
     0
174
     0
175
     0
176
     0
177
     0
178
     0
  0
ENDTAB
  0
ENDSEC
  0
SECTION
  2
BLOCKS
  0
BLOCK
  8
0
  2
$MODEL_SPACE
 70
     0
 10
0.0
 20
0.0
 30
0.0
  3
$MODEL_SPACE
  1

  0
ENDBLK
  5
21
  8
0
  0
BLOCK
 67
     1
  8
0
  2
$PAPER_SPACE
 70
     0
 10
0.0
 20
0.0
 30
0.0
  3
$PAPER_SPACE
  1

  0
ENDBLK
  5
1D
 67
     1
  8
0
  0
ENDSEC
  0
SECTION
  2
ENTITIES
  0
ATTDEF
  5
AA11
  8
DEFPOINTS
 10
3989.1294365392182044
 20
171.9064788310539882
 30
0.0
 40
0.001
  1
K-1.1922.022
  3

  2
MODELNUMBER
 70
     0
1001
ACDBATTR
1070
     0
1070
     1
  0
ATTDEF
  5
AA12
  8
DEFPOINTS
 10
3989.1294365392182044
 20
171.9048121643874083
 30
0.0
 40
0.001
  1

  3

  2
TRADENAME
 70
     0
1001
ACDBATTR
1070
     0
1070
     1
  0
ATTDEF
  5
AA13
  8
DEFPOINTS
 10
3989.1294365392182044
 20
171.9031454977206863
 30
0.0
 40
0.001
  1
SHOWER DOOR
  3

  2
PRODUCT
 70
     0
1001
ACDBATTR
1070
     0
1070
     1
  0
LINE
  5
10FF0
  8
0
 10
3988.5282345543710107
 20
171.9019803633470929
 30
0.0
 11
3990.3836351821710196
 21
171.9019803633470929
 31
0.0
  0
LINE
  5
10FF1
  8
0
 10
3988.7541391192708033
 20
172.0004055602470885
 30
0.0
 11
3989.108469827971021
 21
172.0004055602470885
 31
0.0
  0
LINE
  5
10FF2
  8
0
 10
3988.9687060482710876
 20
172.0240276074470955
 30
0.0
 11
3988.8939028989711915
 21
172.0240276074470955
 31
0.0
  0
LINE
  5
10FF3
  8
0
 10
3988.7189720061710432
 20
172.2682874499471097
 30
0.0
 11
3989.6242850406711113
 21
172.2682874499471097
 31
0.0
  0
LINE
  5
10FF4
  8
0
 10
3989.6242847714711388
 20
172.5042874499470997
 30
0.0
 11
3989.6513517174707886
 21
172.5042874499470997
 31
0.0
  0
LINE
  5
10FF5
  8
0
 10
3988.5479195937709846
 20
172.5771772137470919
 30
0.0
 11
3988.7147690405709
 21
172.5771772137470919
 31
0.0
  0
LINE
  5
10FF6
  8
0
 10
3988.4408486865709165
 20
250.6224649774470947
 30
0.0
 11
3988.4605294191710527
 21
250.6421489265470939
 31
0.0
  0
LINE
  5
10FF7
  8
0
 10
3986.8069501430709352
 20
205.6739173712470858
 30
0.0
 11
3988.7189737548710582
 21
205.6739173712470858
 31
0.0
  0
LINE
  5
10FF8
  8
0
 10
3990.3836351821710196
 20
205.6739173712470858
 30
0.0
 11
3991.0589186469710512
 21
205.6739173712470858
 31
0.0
  0
LINE
  5
10FF9
  8
0
 10
3987.5106556420710149
 20
206.3825787885471073
 30
0.0
 11
3988.7189737548710582
 21
206.3825787885471073
 31
0.0
  0
LINE
  5
10FFA
  8
0
 10
3986.7675800642709874
 20
205.7132874499471029
 30
0.0
 11
3986.7675800642709874
 21
216.9731299696470899
 31
0.0
  0
LINE
  5
10FFB
  8
0
 10
3987.3934084972711389
 20
205.6739173712470858
 30
0.0
 11
3987.3934084972711389
 21
206.3432087098470902
 31
0.0
  0
LINE
  5
10FFC
  8
0
 10
3987.3934084972711389
 20
216.3432087098470902
 30
0.0
 11
3987.3934084972711389
 21
217.0125000483471922
 31
0.0
  0
LINE
  5
10FFD
  8
0
 10
3987.5549816390707747
 20
206.4219488672470959
 30
0.0
 11
3987.5549816390707747
 21
216.2644685523470969
 31
0.0
  0
LINE
  5
10FFE
  8
0
 10
3987.8824524254710013
 20
249.6303379029471046
 30
0.0
 11
3987.8824524254710013
 21
250.6815190053470985
 31
0.0
  0
LINE
  5
10FFF
  8
0
 10
3987.9611925828708081
 20
249.7012040447471009
 30
0.0
 11
3987.9611925828708081
 21
250.6303379029471046
 31
0.0
  0
LINE
  5
11000
  8
0
 10
3988.0320587246710602
 20
249.6972670368471086
 30
0.0
 11
3988.0320587246710602
 21
250.033882300347102
 31
0.0
  0
LINE
  5
11001
  8
0
 10
3988.0320587246710602
 20
250.2858508042471044
 30
0.0
 11
3988.0320587246710602
 21
250.6131728096470965
 31
0.0
  0
LINE
  5
11002
  8
0
 10
3988.0399327403711141
 20
250.4409789071470982
 30
0.0
 11
3988.0399327403711141
 21
250.2858508042471044
 31
0.0
  0
LINE
  5
11003
  8
0
 10
3988.0399327403711141
 20
250.033882300347102
 30
0.0
 11
3988.0399327403711141
 21
249.7878182179470912
 31
0.0
  0
LINE
  5
11004
  8
0
 10
3988.0548950247712128
 20
250.5830948987471061
 30
0.0
 11
3988.0548950247712128
 21
249.7366382058471004
 31
0.0
  0
LINE
  5
11005
  8
0
 10
3988.133635182271064
 20
250.5043547412471128
 30
0.0
 11
3988.133635182271064
 21
249.6972681270470957
 31
0.0
  0
LINE
  5
11006
  8
0
 10
3988.2615879381710329
 20
249.9138035601471017
 30
0.0
 11
3988.2615879381710329
 21
250.0122287570470974
 31
0.0
  0
LINE
  5
11007
  8
0
 10
3988.2761532128711224
 20
250.0424629772471121
 30
0.0
 11
3988.2761532128711224
 21
250.0608346417471068
 31
0.0
  0
LINE
  5
11008
  8
0
 10
3988.43875329247021
 20
250.0122287570470974
 30
0.0
 11
3988.43875329247021
 21
249.9138035601471017
 31
0.0
  0
LINE
  5
11009
  8
0
 10
3988.527335969671185
 20
249.6972681270470957
 30
0.0
 11
3988.527335969671185
 21
250.5043547412471128
 31
0.0
  0
LINE
  5
1100A
  8
0
 10
3988.5282345543710107
 20
171.9019803633470929
 30
0.0
 11
3988.5282345543710107
 21
172.5574921743470895
 31
0.0
  0
LINE
  5
1100B
  8
0
 10
3988.6060761271710362
 20
249.8153783633470937
 30
0.0
 11
3988.6060761271710362
 21
250.5043547412471128
 31
0.0
  0
LINE
  5
1100C
  8
0
 10
3988.7189737548710582
 20
249.473011859447098
 30
0.0
 11
3988.7189737548710582
 21
172.2682874499471097
 31
0.0
  0
LINE
  5
1100D
  8
0
 10
3988.7344540799708739
 20
172.2682874499471097
 30
0.0
 11
3988.7344540799708739
 21
172.0200905995471032
 31
0.0
  0
LINE
  5
1100E
  8
0
 10
3988.7403595917708117
 20
172.2682874499471097
 30
0.0
 11
3988.7403595917708117
 21
172.006048488147087
 31
0.0
  0
LINE
  5
1100F
  8
0
 10
3988.7754540799701317
 20
249.6972681270470957
 30
0.0
 11
3988.7754540799701317
 21
249.6893930210470955
 31
0.0
  0
LINE
  5
11010
  8
0
 10
3988.7754540799701317
 20
249.6106528636470898
 30
0.0
 11
3988.7754540799701317
 21
249.473011859447098
 31
0.0
  0
LINE
  5
11011
  8
0
 10
3988.8148241586709446
 20
249.6972681270470957
 30
0.0
 11
3988.8148241586709446
 21
249.6893930210470955
 31
0.0
  0
LINE
  5
11012
  8
0
 10
3988.8148241586709446
 20
249.6106528636470898
 30
0.0
 11
3988.8148241586709446
 21
249.473011859447098
 31
0.0
  0
LINE
  5
11013
  8
0
 10
3988.8742178594711731
 20
172.0043425680470932
 30
0.0
 11
3988.8742178594711731
 21
172.0004055602470885
 31
0.0
  0
LINE
  5
11014
  8
0
 10
3988.988391087771106
 20
172.0043425680470932
 30
0.0
 11
3988.988391087771106
 21
172.0004055602470885
 31
0.0
  0
LINE
  5
11015
  8
0
 10
3989.0430840011708824
 20
250.1795515916471118
 30
0.0
 11
3989.0430840011708824
 21
250.2779767885471074
 31
0.0
  0
LINE
  5
11016
  8
0
 10
3989.0510446310709085
 20
249.473011859447098
 30
0.0
 11
3989.0510446310709085
 21
249.6106528636470898
 31
0.0
  0
LINE
  5
11017
  8
0
 10
3989.0510446310709085
 20
249.6893930210470955
 30
0.0
 11
3989.0510446310709085
 21
249.6972681270470957
 31
0.0
  0
LINE
  5
11018
  8
0
 10
3989.0904147098708563
 20
249.473011859447098
 30
0.0
 11
3989.0904147098708563
 21
249.6106528636470898
 31
0.0
  0
LINE
  5
11019
  8
0
 10
3989.0904147098708563
 20
249.6893930210470955
 30
0.0
 11
3989.0904147098708563
 21
249.6972681270470957
 31
0.0
  0
LINE
  5
1101A
  8
0
 10
3989.1222493554710127
 20
172.0060714474471126
 30
0.0
 11
3989.1222493554710127
 21
172.2682874499471097
 31
0.0
  0
LINE
  5
1101B
  8
0
 10
3989.1281548673709949
 20
172.0200905995471032
 30
0.0
 11
3989.1281548673709949
 21
172.2682874499471097
 31
0.0
  0
LINE
  5
1101C
  8
0
 10
3989.220249355470969
 20
250.2779767885471074
 30
0.0
 11
3989.220249355470969
 21
250.1795515916471118
 31
0.0
  0
LINE
  5
1101D
  8
0
 10
3989.4165052781709164
 20
249.473011859447098
 30
0.0
 11
3989.4165052781709164
 21
249.6106528636470898
 31
0.0
  0
LINE
  5
1101E
  8
0
 10
3989.4165052781709164
 20
249.6893930210470955
 30
0.0
 11
3989.4165052781709164
 21
249.6972681270470957
 31
0.0
  0
LINE
  5
1101F
  8
0
 10
3989.4637493726709181
 20
249.6972681270470957
 30
0.0
 11
3989.4637493726709181
 21
249.6893930210470955
 31
0.0
  0
LINE
  5
11020
  8
0
 10
3989.4637493726709181
 20
249.6106528636470898
 30
0.0
 11
3989.4637493726709181
 21
249.473011859447098
 31
0.0
  0
LINE
  5
11021
  8
0
 10
3989.4914065952712008
 20
249.6972681270470957
 30
0.0
 11
3989.4914065952712008
 21
249.6893930210470955
 31
0.0
  0
LINE
  5
11022
  8
0
 10
3989.4914065952712008
 20
249.6106528636470898
 30
0.0
 11
3989.4914065952712008
 21
249.473011859447098
 31
0.0
  0
LINE
  5
11023
  8
0
 10
3989.6242847714711388
 20
249.473011859447098
 30
0.0
 11
3989.6242847714711388
 21
172.2682874499471097
 31
0.0
  0
LINE
  5
11024
  8
0
 10
3989.6495360211711159
 20
249.6893930210470955
 30
0.0
 11
3989.6495360211711159
 21
249.6303379029471046
 31
0.0
  0
LINE
  5
11025
  8
0
 10
3989.6513517174707886
 20
171.9019803633470929
 30
0.0
 11
3989.6513517174707886
 21
249.6972559538471046
 31
0.0
  0
LINE
  5
11026
  8
0
 10
3989.6572572294708152
 20
250.5043547412471128
 30
0.0
 11
3989.6572572294708152
 21
249.8153783633470937
 31
0.0
  0
LINE
  5
11027
  8
0
 10
3989.6613470446709471
 20
171.9019803633470929
 30
0.0
 11
3989.6613470446709471
 21
249.6972559538471046
 31
0.0
  0
LINE
  5
11028
  8
0
 10
3989.7359973869711212
 20
250.5043547412471128
 30
0.0
 11
3989.7359973869711212
 21
249.6972681270470957
 31
0.0
  0
LINE
  5
11029
  8
0
 10
3989.7438714025711306
 20
249.6972559538471046
 30
0.0
 11
3989.7438714025711306
 21
171.9019803633470929
 31
0.0
  0
LINE
  5
1102A
  8
0
 10
3989.8245800641711867
 20
249.9138035601471017
 30
0.0
 11
3989.8245800641711867
 21
250.0122287570470974
 31
0.0
  0
LINE
  5
1102B
  8
0
 10
3989.8875791657710579
 20
250.096984443347111
 30
0.0
 11
3989.8875791657710579
 21
249.8290298726471121
 31
0.0
  0
LINE
  5
1102C
  8
0
 10
3989.8934147096711058
 20
249.8275143388470951
 30
0.0
 11
3989.8934147096711058
 21
250.0985088937470948
 31
0.0
  0
LINE
  5
1102D
  8
0
 10
3989.9327847884710536
 20
250.0985494290470967
 30
0.0
 11
3989.9327847884710536
 21
249.8274930159471126
 31
0.0
  0
LINE
  5
1102E
  8
0
 10
3989.9327847884710536
 20
246.0386262792470973
 30
0.0
 11
3989.9327847884710536
 21
245.7968309239471125
 31
0.0
  0
LINE
  5
1102F
  8
0
 10
3989.9327847884710536
 20
224.385082972147103
 30
0.0
 11
3989.9327847884710536
 21
224.1432876168470898
 31
0.0
  0
LINE
  5
11030
  8
0
 10
3989.9327847884710536
 20
198.400831003647113
 30
0.0
 11
3989.9327847884710536
 21
198.1590356483470998
 31
0.0
  0
LINE
  5
11031
  8
0
 10
3989.9327847884710536
 20
176.7472876965470903
 30
0.0
 11
3989.9327847884710536
 21
176.5054923412471055
 31
0.0
  0
LINE
  5
11032
  8
0
 10
3990.0017454184708185
 20
250.0122287570470974
 30
0.0
 11
3990.0017454184708185
 21
249.9138035601471017
 31
0.0
  0
LINE
  5
11033
  8
0
 10
3990.1296981743707875
 20
249.6972681270470957
 30
0.0
 11
3990.1296981743707875
 21
250.5043547412471128
 31
0.0
  0
LINE
  5
11034
  8
0
 10
3990.2083753396709653
 20
249.7354856739470961
 30
0.0
 11
3990.2083753396709653
 21
249.6972559538471046
 31
0.0
  0
LINE
  5
11035
  8
0
 10
3990.2084383318710934
 20
249.7366382058471004
 30
0.0
 11
3990.2084383318710934
 21
250.5830948987471061
 31
0.0
  0
LINE
  5
11036
  8
0
 10
3990.2104068357712094
 20
250.6303379029471046
 30
0.0
 11
3990.2104068357712094
 21
250.5791678835470861
 31
0.0
  0
LINE
  5
11037
  8
0
 10
3990.2143438436710312
 20
249.7090669775471099
 30
0.0
 11
3990.2143438436710312
 21
250.1053743227471102
 31
0.0
  0
LINE
  5
11038
  8
0
 10
3990.2143438436710312
 20
250.1474053016470975
 30
0.0
 11
3990.2143438436710312
 21
250.6303379029471046
 31
0.0
  0
LINE
  5
11039
  8
0
 10
3990.2911154971711767
 20
171.9019803633470929
 30
0.0
 11
3990.2911154971711767
 21
249.6974208500107011
 31
0.0
  0
LINE
  5
1103A
  8
0
 10
3990.2988627201712006
 20
249.7023483788462954
 30
0.0
 11
3990.2988627201712006
 21
250.6370565016478906
 31
0.0
  0
LINE
  5
1103B
  8
0
 10
3990.3009597996710909
 20
249.7090669775471099
 30
0.0
 11
3990.3009597996710909
 21
250.6303379029471046
 31
0.0
  0
LINE
  5
1103C
  8
0
 10
3990.3639519256707899
 20
250.6815190053470985
 30
0.0
 11
3990.3639519256707899
 21
250.6421489265470939
 31
0.0
  0
LINE
  5
1103D
  8
0
 10
3990.3836351821710196
 20
171.9019803633470929
 30
0.0
 11
3990.3836351821710196
 21
250.6421378436471059
 31
0.0
  0
LINE
  5
1103E
  8
0
 10
3991.0982887256709546
 20
205.7132874499471029
 30
0.0
 11
3991.0982887256709546
 21
216.9731299696470899
 31
0.0
  0
LINE
  5
1103F
  8
0
 10
3989.8880163920712221
 20
249.876732426747111
 30
0.0
 11
3989.8877912812708928
 21
249.8289586281470918
 31
0.0
  0
LINE
  5
11040
  8
0
 10
3988.7189737548710582
 20
216.3038386310471139
 30
0.0
 11
3987.5106556420710149
 21
216.3038386310471139
 31
0.0
  0
LINE
  5
11041
  8
0
 10
3986.8069501430709352
 20
217.0125000483471922
 30
0.0
 11
3988.7189737548710582
 21
217.0125000483471922
 31
0.0
  0
LINE
  5
11042
  8
0
 10
3990.3836351821710196
 20
217.0125000483471922
 30
0.0
 11
3991.0589186469710512
 21
217.0125000483471922
 31
0.0
  0
LINE
  5
11043
  8
0
 10
3988.0030778720711169
 20
250.6421489265470939
 30
0.0
 11
3988.0555091907708629
 21
250.5897261755470993
 31
0.0
  0
LINE
  5
11044
  8
0
 10
3988.2761532128711224
 20
250.0424629771470961
 30
0.0
 11
3988.2659912833710223
 21
250.0397400963470886
 31
0.0
  0
LINE
  5
11045
  8
0
 10
3988.7189720062710876
 20
249.473011859447098
 30
0.0
 11
3989.6242850406711113
 21
249.473011859447098
 31
0.0
  0
LINE
  5
11046
  8
0
 10
3987.9021374647718403
 20
249.6106528636470898
 30
0.0
 11
3989.629850981771142
 21
249.6106528636470898
 31
0.0
  0
LINE
  5
11047
  8
0
 10
3989.6495360211711159
 20
249.6893930210470955
 30
0.0
 11
3987.9730036065711829
 21
249.6893930210470955
 31
0.0
  0
LINE
  5
11048
  8
0
 10
3990.2261548672709068
 20
249.6972559538471046
 30
0.0
 11
3990.16906825317119
 21
249.6972559538471046
 31
0.0
  0
LINE
  5
11049
  8
0
 10
3990.1296981743707875
 20
249.6972559538471046
 30
0.0
 11
3989.6810254204710873
 21
249.6972559538471046
 31
0.0
  0
LINE
  5
1104A
  8
0
 10
3990.2261548672709068
 20
249.6972559539470922
 30
0.0
 11
3990.2891487760712153
 21
249.6972559539470922
 31
0.0
  0
LINE
  5
1104B
  8
0
 10
3988.0942651034711162
 20
249.6972670368471086
 30
0.0
 11
3987.9730036065711829
 21
249.6972670368471086
 31
0.0
  0
LINE
  5
1104C
  8
0
 10
3989.7359973869711212
 20
249.6972681270470957
 30
0.0
 11
3988.0942651034711162
 21
249.6972681270470957
 31
0.0
  0
LINE
  5
1104D
  8
0
 10
3989.7537139222708902
 20
249.6972681270470957
 30
0.0
 11
3990.16906825317119
 21
249.6972681270470957
 31
0.0
  0
LINE
  5
1104E
  8
0
 10
3990.2083753396709653
 20
249.709011859447088
 30
0.0
 11
3990.2143438436710312
 21
249.709011859447088
 31
0.0
  0
LINE
  5
1104F
  8
0
 10
3988.6454462058709396
 20
249.776008284547089
 30
0.0
 11
3989.6178871507709118
 21
249.776008284547089
 31
0.0
  0
LINE
  5
11050
  8
0
 10
3988.0548950247712128
 20
250.0319137963471121
 30
0.0
 11
3988.0399327403711141
 21
250.0319137963471121
 31
0.0
  0
LINE
  5
11051
  8
0
 10
3988.0548950247712128
 20
250.033882300347102
 30
0.0
 11
3987.980877622270782
 21
250.033882300347102
 31
0.0
  0
LINE
  5
11052
  8
0
 10
3988.0548950247712128
 20
250.2858508042471044
 30
0.0
 11
3987.980877622270782
 21
250.2858508042471044
 31
0.0
  0
LINE
  5
11053
  8
0
 10
3988.0548950247712128
 20
250.2878193082470943
 30
0.0
 11
3988.0399327403711141
 21
250.2878193082470943
 31
0.0
  0
LINE
  5
11054
  8
0
 10
3990.0903280956708841
 20
250.543724820047089
 30
0.0
 11
3989.7753674656710245
 21
250.543724820047089
 31
0.0
  0
LINE
  5
11055
  8
0
 10
3989.6178871507709118
 20
250.543724820047089
 30
0.0
 11
3988.6454462058709396
 21
250.543724820047089
 31
0.0
  0
LINE
  5
11056
  8
0
 10
3988.4879658908707825
 20
250.543724820047089
 30
0.0
 11
3988.1730052609709674
 21
250.543724820047089
 31
0.0
  0
LINE
  5
11057
  8
0
 10
3990.209609134771199
 20
250.5712827848471136
 30
0.0
 11
3990.2084383318710934
 21
250.5712827848471136
 31
0.0
  0
LINE
  5
11058
  8
0
 10
3990.16906825317119
 20
250.6224649774470947
 30
0.0
 11
3988.0942651034711162
 21
250.6224649774470947
 31
0.0
  0
LINE
  5
11059
  8
0
 10
3990.3836351821710196
 20
250.6421378436471059
 30
0.0
 11
3990.2988627201712006
 21
250.6421378436471059
 31
0.0
  0
LINE
  5
1105A
  8
0
 10
3990.2891487760712153
 20
250.6421489266471099
 30
0.0
 11
3990.2261548672709068
 21
250.6421489266471099
 31
0.0
  0
LINE
  5
1105B
  8
0
 10
3987.9730036065711829
 20
250.6421489265470939
 30
0.0
 11
3990.3303691149708357
 21
250.6421489265470939
 31
0.0
  0
LINE
  5
1105C
  8
0
 10
3987.9218225041709047
 20
250.7208890840470872
 30
0.0
 11
3990.3245818469708865
 21
250.7208890840470872
 31
0.0
  0
ARC
  5
1105D
  8
0
 10
3986.8069501430709352
 20
205.7132874499471029
 30
0.0
 40
0.0393700787
 50
180.0
 51
270.0
  0
ARC
  5
1105E
  8
0
 10
3987.594351717869813
 20
206.4219488672470959
 30
0.0
 40
0.0393700787
 50
180.0
 51
270.0
  0
ARC
  5
1105F
  8
0
 10
3988.893902898871147
 20
172.0043425680470932
 30
0.0
 40
0.0196850394
 50
90.0
 51
180.0
  0
ARC
  5
11060
  8
0
 10
3988.7541391192708033
 20
172.0200905995471032
 30
0.0
 40
0.0196850394
 50
180.0
 51
270.0
  0
ARC
  5
11061
  8
0
 10
3988.7147690405709
 20
172.5574921743470895
 30
0.0
 40
0.0196850394
 50
77.6435352416104365
 51
90.0
  0
ARC
  5
11062
  8
0
 10
3988.5479195937709846
 20
172.5574921743470895
 30
0.0
 40
0.0196850394
 50
90.0
 51
180.0
  0
ARC
  5
11063
  8
0
 10
3988.3501706153710984
 20
249.9138035601471017
 30
0.0
 40
0.0885826772
 50
179.9999999996987015
 51
359.9999999997003783
  0
ARC
  5
11064
  8
0
 10
3988.3501706153710984
 20
250.0122287570470974
 30
0.0
 40
0.0885826772
 50
0.0000000002996337
 51
180.0000000002995932
  0
CIRCLE
  5
11065
  8
0
 10
3988.8560761271710362
 20
250.0319137963471121
 30
0.0
 40
0.0590551181
  0
CIRCLE
  5
11066
  8
0
 10
3988.8560761271710362
 20
250.0319137963471121
 30
0.0
 40
0.0485059373
  0
ARC
  5
11067
  8
0
 10
3988.6454462058709396
 20
249.8153783633470937
 30
0.0
 40
0.0393700787
 50
179.999999999599396
 51
269.9999999995048938
  0
ARC
  5
11068
  8
0
 10
3988.6454462058709396
 20
250.5043547412471128
 30
0.0
 40
0.0393700787
 50
89.9999999996091731
 51
180.0000000003988987
  0
ARC
  5
11069
  8
0
 10
3988.0942651034711162
 20
250.5830948987471061
 30
0.0
 40
0.0393700787
 50
89.9999999996091731
 51
180.0
  0
ARC
  5
1106A
  8
0
 10
3988.0942651034711162
 20
249.7366382058471004
 30
0.0
 40
0.0393700787
 50
180.0
 51
269.999999999895806
  0
ARC
  5
1106B
  8
0
 10
3988.4879658908707825
 20
250.5043547412471128
 30
0.0
 40
0.0393700787
 50
0.0
 51
90.0000000003908269
  0
ARC
  5
1106C
  8
0
 10
3988.1730052609709674
 20
250.5043547412471128
 30
0.0
 40
0.0393700787
 50
89.9999999996091731
 51
180.0000000002995932
  0
ARC
  5
1106D
  8
0
 10
3988.0793028191710619
 20
249.7878182179470912
 30
0.0
 40
0.0393700787
 50
180.0
 51
231.6840441973041038
  0
ARC
  5
1106E
  8
0
 10
3987.9218225041709047
 20
250.6815190053470985
 30
0.0
 40
0.0393700787
 50
90.0
 51
180.0
  0
ARC
  5
1106F
  8
0
 10
3986.8069501430709352
 20
216.9731299696470899
 30
0.0
 40
0.0393700787
 50
90.0
 51
180.0
  0
ARC
  5
11070
  8
0
 10
3987.594351717869813
 20
216.2644685523470969
 30
0.0
 40
0.0393700787
 50
90.0
 51
180.0
  0
ARC
  5
11071
  8
0
 10
3988.059617779771088
 20
250.4409789071470982
 30
0.0
 40
0.0196850394
 50
103.8851307726884983
 51
180.0
  0
ARC
  5
11072
  8
0
 10
3987.980877622270782
 20
250.3055358436471067
 30
0.0
 40
0.0196850394
 50
180.0
 51
270.0
  0
ARC
  5
11073
  8
0
 10
3987.980877622270782
 20
250.0141972609470997
 30
0.0
 40
0.0196850394
 50
90.0
 51
180.0
  0
ARC
  5
11074
  8
0
 10
3987.9021374647718403
 20
249.6303379029471046
 30
0.0
 40
0.0196850394
 50
180.0000000031998866
 51
270.0000000124022108
  0
ARC
  5
11075
  8
0
 10
3987.9730036065711829
 20
249.7090780604470979
 30
0.0
 40
0.0118110236
 50
191.2713134912974056
 51
269.999999999895806
  0
ARC
  5
11076
  8
0
 10
3987.9730036065711829
 20
250.6303379029471046
 30
0.0
 40
0.0118110236
 50
90.0000000013027659
 51
179.9999999503992001
  0
ARC
  5
11077
  8
0
 10
3987.9730036065711829
 20
249.7012040447471009
 30
0.0
 40
0.0118110236
 50
180.0000000495990946
 51
269.9999999986973194
  0
CIRCLE
  5
11078
  8
0
 10
3990.0174934498709263
 20
198.2799331192470902
 30
0.0
 40
0.1476377953
  0
CIRCLE
  5
11079
  8
0
 10
3990.0174934498709263
 20
176.6263898121470959
 30
0.0
 40
0.1476377953
  0
ARC
  5
1107A
  8
0
 10
3991.0589186469710512
 20
205.7132874499471029
 30
0.0
 40
0.0393700787
 50
270.0
 51
0.0
  0
ARC
  5
1107B
  8
0
 10
3988.9687060484711765
 20
172.0043425680470932
 30
0.0
 40
0.0196850394
 50
0.0
 51
90.0
  0
ARC
  5
1107C
  8
0
 10
3989.108469827971021
 20
172.0200905995471032
 30
0.0
 40
0.0196850394
 50
270.0
 51
0.0
  0
CIRCLE
  5
1107D
  8
0
 10
3990.0174934498709263
 20
224.2641850877471086
 30
0.0
 40
0.1476377953
  0
CIRCLE
  5
1107E
  8
0
 10
3990.0174934498709263
 20
245.9177283948471029
 30
0.0
 40
0.1476377953
  0
ARC
  5
1107F
  8
0
 10
3989.9131627412712078
 20
250.0122287570470974
 30
0.0
 40
0.0885826772
 50
0.0
 51
179.9999999980996108
  0
ARC
  5
11080
  8
0
 10
3989.9131627412712078
 20
249.9138035601471017
 30
0.0
 40
0.0885826772
 50
180.0000000018987976
 51
0.0
  0
ARC
  5
11081
  8
0
 10
3989.1316666782709035
 20
250.2779767885471074
 30
0.0
 40
0.0885826772
 50
0.0
 51
179.9999999981988879
  0
ARC
  5
11082
  8
0
 10
3989.1316666782709035
 20
250.1795515916471118
 30
0.0
 40
0.0885826772
 50
180.0000000018987976
 51
0.0
  0
ARC
  5
11083
  8
0
 10
3989.1316666782709035
 20
250.0909689144471031
 30
0.0
 40
0.0787401575
 50
26.3806213965046084
 51
153.6117562614954863
  0
ARC
  5
11084
  8
0
 10
3989.1316666782709035
 20
250.0909689144471031
 30
0.0
 40
0.0681909767
 50
22.6545605750032806
 51
157.3477006991010967
  0
CIRCLE
  5
11085
  8
0
 10
3989.4072572294708152
 20
250.0319137963471121
 30
0.0
 40
0.0590551181
  0
ARC
  5
11086
  8
0
 10
3989.1316666782709035
 20
250.0909689144471031
 30
0.0
 40
0.0492125984
 50
16.195443430398921
 51
163.8034408276998874
  0
CIRCLE
  5
11087
  8
0
 10
3989.4072572294708152
 20
250.0319137963471121
 30
0.0
 40
0.0485059373
  0
ARC
  5
11088
  8
0
 10
3989.6178871507709118
 20
250.5043547412471128
 30
0.0
 40
0.0393700787
 50
0.0000000014997969
 51
90.0000000003908269
  0
ARC
  5
11089
  8
0
 10
3989.6178871507709118
 20
249.8153783633470937
 30
0.0
 40
0.0393700787
 50
270.0000000004949925
 51
359.9999999985001864
  0
ARC
  5
1108A
  8
0
 10
3989.7753674656710245
 20
250.5043547412471128
 30
0.0
 40
0.0393700787
 50
89.9999999996091731
 51
179.9999999985001864
  0
ARC
  5
1108B
  8
0
 10
3990.0903280956708841
 20
250.5043547412471128
 30
0.0
 40
0.0393700787
 50
0.0000000014997969
 51
90.0000000003908269
  0
ARC
  5
1108C
  8
0
 10
3989.629850981771142
 20
249.6303379029471046
 30
0.0
 40
0.0196850394
 50
270.0000000108909717
 51
359.999999998299927
  0
ARC
  5
1108D
  8
0
 10
3991.0589186469710512
 20
216.9731299696470899
 30
0.0
 40
0.0393700787
 50
0.0
 51
90.0
  0
ARC
  5
1108E
  8
0
 10
3990.16906825317119
 20
249.7366382058471004
 30
0.0
 40
0.0393700787
 50
270.000000000104194
 51
0.0
  0
ARC
  5
1108F
  8
0
 10
3990.16906825317119
 20
250.5830948987471061
 30
0.0
 40
0.0393700787
 50
0.0
 51
90.0000000003908269
  0
ARC
  5
11090
  8
0
 10
3990.1710367570708513
 20
250.5791678835470861
 30
0.0
 40
0.0393700787
 50
341.8506826530997955
 51
0.0
  0
ARC
  5
11091
  8
0
 10
3990.3245818469708865
 20
250.6815190053470985
 30
0.0
 40
0.0393700787
 50
0.0
 51
90.0
  0
ARC
  5
11092
  8
0
 10
3990.2064733157708361
 20
250.1263898121470959
 30
0.0
 40
0.0224409449
 50
290.5314681236018828
 51
69.4685318763980177
  0
ARC
  5
11093
  8
0
 10
3990.2035205598708671
 20
250.1263898121470959
 30
0.0
 40
0.0196850394
 50
284.2813994863925018
 51
75.5309314589974008
  0
ARC
  5
11094
  8
0
 10
3990.1966273082712178
 20
250.443331119247091
 30
0.0
 40
0.0177165354
 50
0.0
 51
48.1705111426936767
  0
ARC
  5
11095
  8
0
 10
3990.1966273082712178
 20
250.242543717647095
 30
0.0
 40
0.0177165354
 50
311.8294868034926139
 51
0.0
  0
ARC
  5
11096
  8
0
 10
3990.1966273082712178
 20
250.1568744263470876
 30
0.0
 40
0.0177165354
 50
0.0
 51
48.1705111447091809
  0
ARC
  5
11097
  8
0
 10
3990.2261548672709068
 20
249.7090669775471099
 30
0.0
 40
0.0118110236
 50
180.0
 51
270.0
  0
ARC
  5
11098
  8
0
 10
3990.2891487760712153
 20
249.7090669775471099
 30
0.0
 40
0.0118110236
 50
270.0
 51
0.0
  0
ARC
  5
11099
  8
0
 10
3990.2891487760712153
 20
250.6303379029471046
 30
0.0
 40
0.0118110236
 50
0.0
 51
90.0
  0
ARC
  5
1109A
  8
0
 10
3990.2261548672709068
 20
250.6303379029471046
 30
0.0
 40
0.0118110236
 50
90.0
 51
180.0
  0
ARC
  5
1109B
  8
0
 10
3990.2025328200711556
 20
250.5515977454471113
 30
0.0
 40
0.0118110236
 50
300.0013737529060904
 51
0.0
  0
ARC
  5
1109C
  8
0
 10
3990.1985958121699696
 20
250.6303379029471046
 30
0.0
 40
0.0118110236
 50
0.0
 51
89.9999999992965058
  0
ARC
  5
1109D
  8
0
 10
3987.5198434086269117
 20
206.1609463276967062
 30
0.0
 40
0.2218228183864043
 50
92.3738355013229153
 51
124.7489384055934067
  0
ARC
  5
1109E
  8
0
 10
3987.5045955966152178
 20
216.4800619259592054
 30
0.0
 40
0.1763274619014657
 50
230.9076892457480881
 51
271.9695367594964068
  0
ENDSEC
  0
EOF
