  0
SECTION
  2
HEADER
  9
$ACADVER
  1
AC1009
  9
$INSBASE
 10
127.6101372975401063
 20
27.7891021071508284
 30
0.0
  9
$EXTMIN
 10
122.2318296990790998
 20
19.1014376454804697
 30
-0.0000000349181948
  9
$EXTMAX
 10
132.9872077549360085
 20
29.1654620557904316
 30
0.0000000814935746
  9
$LIMMIN
 10
0.0
 20
0.0
  9
$LIMMAX
 10
46.8110236219999933
 20
33.1102362204999991
  9
$ORTHOMODE
 70
     0
  9
$REGENMODE
 70
     1
  9
$FILLMODE
 70
     1
  9
$QTEXTMODE
 70
     0
  9
$MIRRTEXT
 70
     0
  9
$DRAGMODE
 70
     2
  9
$LTSCALE
 40
2.5746062992000001
  9
$OSMODE
 70
  4095
  9
$ATTMODE
 70
     1
  9
$TEXTSIZE
 40
0.001
  9
$TRACEWID
 40
0.05
  9
$TEXTSTYLE
  7
STANDARD
  9
$CLAYER
  8
0
  9
$CELTYPE
  6
BYLAYER
  9
$CECOLOR
 62
   256
  9
$DIMSCALE
 40
1.0
  9
$DIMASZ
 40
0.1875
  9
$DIMEXO
 40
0.0625
  9
$DIMDLI
 40
1.778818897599999
  9
$DIMRND
 40
0.0
  9
$DIMDLE
 40
0.0
  9
$DIMEXE
 40
0.125
  9
$DIMTP
 40
0.0
  9
$DIMTM
 40
0.0
  9
$DIMTXT
 40
0.15625
  9
$DIMCEN
 40
0.4212992126
  9
$DIMTSZ
 40
0.0
  9
$DIMTOL
 70
     0
  9
$DIMLIM
 70
     0
  9
$DIMTIH
 70
     1
  9
$DIMTOH
 70
     1
  9
$DIMSE1
 70
     0
  9
$DIMSE2
 70
     0
  9
$DIMTAD
 70
     0
  9
$DIMZIN
 70
     0
  9
$DIMBLK
  1
CLOSED
  9
$DIMASO
 70
     1
  9
$DIMSHO
 70
     1
  9
$DIMPOST
  1

  9
$DIMAPOST
  1

  9
$DIMALT
 70
     0
  9
$DIMALTD
 70
     2
  9
$DIMALTF
 40
25.3999999999999986
  9
$DIMLFAC
 40
1.0
  9
$DIMTOFL
 70
     0
  9
$DIMTVP
 40
0.0
  9
$DIMTIX
 70
     0
  9
$DIMSOXD
 70
     0
  9
$DIMSAH
 70
     0
  9
$DIMBLK1
  1

  9
$DIMBLK2
  1

  9
$DIMSTYLE
  2
STANDARD
  9
$DIMCLRD
 70
     0
  9
$DIMCLRE
 70
     0
  9
$DIMCLRT
 70
     0
  9
$DIMTFAC
 40
1.0
  9
$DIMGAP
 40
0.09
  9
$LUNITS
 70
     2
  9
$LUPREC
 70
     4
  9
$SKETCHINC
 40
0.1
  9
$FILLETRAD
 40
0.0
  9
$AUNITS
 70
     0
  9
$AUPREC
 70
     0
  9
$MENU
  1
.
  9
$ELEVATION
 40
0.0
  9
$PELEVATION
 40
0.0
  9
$THICKNESS
 40
0.0
  9
$LIMCHECK
 70
     0
  9
$BLIPMODE
 70
     0
  9
$CHAMFERA
 40
0.0
  9
$CHAMFERB
 40
0.0
  9
$SKPOLY
 70
     0
  9
$TDCREATE
 40
2457200.4849421298131347
  9
$TDUPDATE
 40
2459870.9537847219035029
  9
$TDINDWG
 40
0.219958912
  9
$TDUSRTIMER
 40
0.219958912
  9
$USRTIMER
 70
     1
  9
$ANGBASE
 50
0.0
  9
$ANGDIR
 70
     0
  9
$PDMODE
 70
     0
  9
$PDSIZE
 40
0.3125
  9
$PLINEWID
 40
0.0
  9
$COORDS
 70
     1
  9
$SPLFRAME
 70
     0
  9
$SPLINETYPE
 70
     6
  9
$SPLINESEGS
 70
     8
  9
$ATTDIA
 70
     1
  9
$ATTREQ
 70
     1
  9
$HANDLING
 70
     1
  9
$HANDSEED
  5
3E6A
  9
$SURFTAB1
 70
     6
  9
$SURFTAB2
 70
     6
  9
$SURFTYPE
 70
     6
  9
$SURFU
 70
     6
  9
$SURFV
 70
     6
  9
$UCSNAME
  2

  9
$UCSORG
 10
0.0
 20
0.0
 30
0.0
  9
$UCSXDIR
 10
1.0
 20
0.0
 30
0.0
  9
$UCSYDIR
 10
0.0
 20
1.0
 30
0.0
  9
$PUCSNAME
  2

  9
$PUCSORG
 10
0.0
 20
0.0
 30
0.0
  9
$PUCSXDIR
 10
1.0
 20
0.0
 30
0.0
  9
$PUCSYDIR
 10
0.0
 20
1.0
 30
0.0
  9
$USERI1
 70
     0
  9
$USERI2
 70
     0
  9
$USERI3
 70
     0
  9
$USERI4
 70
     0
  9
$USERI5
 70
     0
  9
$USERR1
 40
0.0
  9
$USERR2
 40
0.0
  9
$USERR3
 40
0.0
  9
$USERR4
 40
0.0
  9
$USERR5
 40
0.0
  9
$WORLDVIEW
 70
     1
  9
$SHADEDGE
 70
     3
  9
$SHADEDIF
 70
    70
  9
$TILEMODE
 70
     1
  9
$MAXACTVP
 70
    64
  9
$PLIMCHECK
 70
     0
  9
$PEXTMIN
 10
1.0000000000000000E+20
 20
1.0000000000000000E+20
 30
1.0000000000000000E+20
  9
$PEXTMAX
 10
-1.0000000000000000E+20
 20
-1.0000000000000000E+20
 30
-1.0000000000000000E+20
  9
$PLIMMIN
 10
0.0
 20
0.0
  9
$PLIMMAX
 10
12.0
 20
9.0
  9
$UNITMODE
 70
     0
  9
$VISRETAIN
 70
     1
  9
$PLINEGEN
 70
     0
  9
$PSLTSCALE
 70
     1
  0
ENDSEC
  0
SECTION
  2
TABLES
  0
TABLE
  2
VPORT
 70
     1
  0
VPORT
  2
*ACTIVE
 70
     0
 10
0.0
 20
0.0
 11
1.0
 21
1.0
 12
127.6095187270075968
 22
24.1334498506354507
 13
0.0
 23
0.0
 14
1.0
 24
1.0
 15
0.0
 25
0.0
 16
0.0
 26
0.0
 36
1.0
 17
0.0
 27
0.0
 37
0.0
 40
10.1425473575945606
 41
2.095052083333333
 42
50.0
 43
0.0
 44
0.0
 50
0.0
 51
0.0
 71
     0
 72
   100
 73
     1
 74
     1
 75
     0
 76
     0
 77
     0
 78
     0
  0
ENDTAB
  0
TABLE
  2
LTYPE
 70
     1
  0
LTYPE
  2
CONTINUOUS
 70
     0
  3
Solid line
 72
    65
 73
     0
 40
0.0
  0
ENDTAB
  0
TABLE
  2
LAYER
 70
     2
  0
LAYER
  2
0
 70
     0
 62
     7
  6
CONTINUOUS
  0
LAYER
  2
DEFPOINTS
 70
     0
 62
     7
  6
CONTINUOUS
  0
ENDTAB
  0
TABLE
  2
STYLE
 70
     1
  0
STYLE
  2
STANDARD
 70
     0
 40
0.0
 41
0.8
 50
0.0
 71
     0
 42
0.001
  3
txt
  4

  0
ENDTAB
  0
TABLE
  2
VIEW
 70
     0
  0
ENDTAB
  0
TABLE
  2
UCS
 70
     0
  0
ENDTAB
  0
TABLE
  2
APPID
 70
     6
  0
APPID
  2
ACAD
 70
     0
  0
APPID
  2
ACAD_MLEADERVER
 70
     0
  0
APPID
  2
ACAD_NAV_VCDISPLAY
 70
     0
  0
APPID
  2
ACAD_EXEMPT_FROM_CAD_STANDARDS
 70
     0
  0
APPID
  2
ACAD_DSTYLE_DIMRADIAL_EXTENSION
 70
     0
  0
APPID
  2
ACDBATTR
 70
     0
  0
ENDTAB
  0
TABLE
  2
DIMSTYLE
 70
     1
  0
DIMSTYLE
  2
STANDARD
 70
     0
  3

  4

  5
CLOSED
  6
CLOSED
  7
CLOSED
 40
1.0
 41
0.1875
 42
0.0625
 43
0.38
 44
0.125
 45
0.0
 46
0.0
 47
1.5
 48
1.5
140
0.15625
141
0.09
142
0.0
143
25.3999999999999986
144
1.0
145
0.0
146
1.0
147
0.09
 71
     0
 72
     0
 73
     1
 74
     1
 75
     0
 76
     0
 77
     0
 78
     4
170
     0
171
     2
172
     0
173
     0
174
     0
175
     0
176
     0
177
     0
178
     0
  0
ENDTAB
  0
ENDSEC
  0
SECTION
  2
BLOCKS
  0
BLOCK
  8
0
  2
$MODEL_SPACE
 70
     2
 10
0.0
 20
0.0
 30
0.0
  3
$MODEL_SPACE
  1

  0
ENDBLK
  5
21
  8
0
  0
BLOCK
 67
     1
  8
0
  2
$PAPER_SPACE
 70
     0
 10
0.0
 20
0.0
 30
0.0
  3
$PAPER_SPACE
  1

  0
ENDBLK
  5
1D
 67
     1
  8
0
  0
BLOCK
  8
0
  2
_CLOSED
 70
     0
 10
0.0
 20
0.0
 30
0.0
  3
_CLOSED
  1

  0
LINE
  5
233
  8
0
  6
BYBLOCK
 62
     0
 10
0.0
 20
0.0
 30
0.0
 11
-1.0
 21
0.1666666667
 31
0.0
  0
LINE
  5
234
  8
0
  6
BYBLOCK
 62
     0
 10
-1.0
 20
0.1666666667
 30
0.0
 11
-1.0
 21
-0.1666666667
 31
0.0
  0
LINE
  5
235
  8
0
  6
BYBLOCK
 62
     0
 10
-1.0
 20
-0.1666666667
 30
0.0
 11
0.0
 21
0.0
 31
0.0
  0
LINE
  5
236
  8
0
  6
BYBLOCK
 62
     0
 10
-1.0
 20
0.0
 30
0.0
 11
0.0
 21
0.0
 31
0.0
  0
ENDBLK
  5
237
  8
0
  6
BYBLOCK
 62
     0
  0
ENDSEC
  0
SECTION
  2
ENTITIES
  0
ATTDEF
  5
A78
  8
DEFPOINTS
 10
127.6048251940469953
 20
27.7883406993238893
 30
0.0
 40
0.001
  1
K-10059T-9
  3

  2
MODELNUMBER
 70
     0
1001
ACDBATTR
1070
     0
1070
     1
  0
ATTDEF
  5
A79
  8
DEFPOINTS
 10
127.6048251940469953
 20
27.7866740326572206
 30
0.0
 40
0.001
  1
OBLO
  3

  2
TRADENAME
 70
     0
1001
ACDBATTR
1070
     0
1070
     1
  0
ATTDEF
  5
A7A
  8
DEFPOINTS
 10
127.6048251940469953
 20
27.7850073659905483
 30
0.0
 40
0.001
  1
BATH FAUCET
  3

  2
PRODUCT
 70
     0
1001
ACDBATTR
1070
     0
1070
     1
  0
LINE
  5
3D3D
  8
0
 10
126.9016372975401055
 20
19.7005204799527114
 30
0.0
 11
126.9016372975401055
 21
28.1646021071508414
 31
0.0
  0
LINE
  5
3D3E
  8
0
 10
128.3186372975401071
 20
19.7005203274322511
 30
0.0
 11
128.3186372975401071
 21
28.1646021071508414
 31
0.0
  0
LINE
  5
3D3F
  8
0
 10
122.7951373033400984
 20
28.2041994200190516
 30
0.0
 11
122.7951373033400984
 21
27.3740048656929389
 31
0.0
  0
CIRCLE
  5
3D40
  8
0
 10
123.6101372974900983
 20
27.7891021071508284
 30
0.0
 40
1.3750000000000011
  0
LINE
  5
3D41
  8
0
 10
124.4251372916400982
 20
28.2042001952443115
 30
0.0
 11
124.4251372916400982
 21
27.3740039603734715
 31
0.0
  0
ARC
  5
3D42
  8
0
 10
123.6101372975365962
 20
28.2041021071446707
 30
0.0
 40
0.8150000000061606
 50
0.0068957474148476
 51
179.9931587521382994
  0
ARC
  5
3D43
  8
0
 10
123.6101372975442985
 20
27.3741021071562685
 30
0.0
 40
0.815000000005434
 50
180.0068362275526113
 51
359.9931001270666115
  0
CIRCLE
  5
3D44
  8
0
 10
123.6101372975401063
 20
27.7891021071508284
 30
0.0
 40
0.0492125984000005
  0
ARC
  5
3D45
  8
0
 10
127.6101372975401063
 20
27.7891021071508284
 30
0.0
 40
1.3750000000000011
 50
301.0156861981399743
 51
238.9843138018599973
  0
ARC
  5
3D46
  8
0
 10
127.6101372975401063
 20
28.1646021071508414
 30
0.0
 40
0.7084999999999991
 50
359.9999999999996021
 51
180.000000000000199
  0
ARC
  5
3D47
  8
0
 10
127.6101352964981999
 20
28.2641156745785409
 30
0.0
 40
0.6199864325755193
 50
73.2198315249835048
 51
106.7801684555261943
  0
ARC
  5
3D48
  8
0
 10
127.7847927259105063
 20
28.8433334721151695
 30
0.0
 40
0.0150083547643556
 50
15.4486268641612199
 51
73.2198315249775646
  0
ARC
  5
3D49
  8
0
 10
127.4354754067035032
 20
28.8433414563564696
 30
0.0
 40
0.0150000001828089
 50
106.7799745283253969
 51
164.3031896295946126
  0
ARC
  5
3D4A
  8
0
 10
127.6134961862753983
 20
19.8968327354609293
 30
0.0
 40
0.7953573283984888
 50
222.9265501515644985
 51
269.7580323791971182
  0
ARC
  5
3D4B
  8
0
 10
127.4383291792710935
 20
19.7047631060985111
 30
0.0
 40
0.5367086507525337
 50
180.4529219038354881
 51
220.647888440592908
  0
ARC
  5
3D4C
  8
0
 10
127.6072729177381007
 20
19.8957039523844799
 30
0.0
 40
0.7942266180091911
 50
270.206637785278474
 51
317.1087795962570226
  0
ARC
  5
3D4D
  8
0
 10
127.7819454170147964
 20
19.7047631060985111
 30
0.0
 40
0.53670865075254
 50
319.352111559407092
 51
359.5470618135032055
  0
LINE
  5
3D4E
  8
0
 10
132.4251372917401
 20
28.2041994200190516
 30
0.0
 11
132.4251372917401
 21
27.3740048656929389
 31
0.0
  0
CIRCLE
  5
3D4F
  8
0
 10
131.6101372975900858
 20
27.7891021071508284
 30
0.0
 40
1.3750000000000011
  0
LINE
  5
3D50
  8
0
 10
130.7951373034401001
 20
28.2042001952443115
 30
0.0
 11
130.7951373034401001
 21
27.3740039603734715
 31
0.0
  0
ARC
  5
3D51
  8
0
 10
131.6101372975435879
 20
28.2041021071446707
 30
0.0
 40
0.8150000000061606
 50
0.0068412478617191
 51
179.9931042525849136
  0
ARC
  5
3D52
  8
0
 10
131.6101372975358004
 20
27.3741021071562685
 30
0.0
 40
0.815000000005434
 50
180.0068998729331895
 51
359.9931637724474172
  0
CIRCLE
  5
3D53
  8
0
 10
131.610137297540092
 20
27.7891021071508284
 30
0.0
 40
0.0492125984000005
  0
ENDSEC
  0
EOF
