  0
SECTION
  2
HEADER
  9
$ACADVER
  1
AC1009
  9
$INSBASE
 10
7848.3187563220280936
 20
1812.6051944709899999
 30
0.0
  9
$EXTMIN
 10
7845.5481646790431114
 20
1812.599603983562929
 30
0.0
  9
$EXTMAX
 10
7851.0893479650139852
 20
1820.4815168878199074
 30
0.0
  9
$LIMMIN
 10
0.0
 20
0.0
  9
$LIMMAX
 10
11.6929133858000007
 20
8.2677165353999982
  9
$ORTHOMODE
 70
     0
  9
$REGENMODE
 70
     1
  9
$FILLMODE
 70
     1
  9
$QTEXTMODE
 70
     0
  9
$MIRRTEXT
 70
     0
  9
$DRAGMODE
 70
     2
  9
$LTSCALE
 40
0.6431102362
  9
$OSMODE
 70
  4095
  9
$ATTMODE
 70
     1
  9
$TEXTSIZE
 40
0.2
  9
$TRACEWID
 40
0.05
  9
$TEXTSTYLE
  7
STANDARD
  9
$CLAYER
  8
0
  9
$CELTYPE
  6
BYLAYER
  9
$CECOLOR
 62
   256
  9
$DIMSCALE
 40
1.0
  9
$DIMASZ
 40
0.1875
  9
$DIMEXO
 40
0.0625
  9
$DIMDLI
 40
0.4443307087
  9
$DIMRND
 40
0.0
  9
$DIMDLE
 40
0.0
  9
$DIMEXE
 40
0.125
  9
$DIMTP
 40
0.01
  9
$DIMTM
 40
0.01
  9
$DIMTXT
 40
2.0
  9
$DIMCEN
 40
0.1052362205
  9
$DIMTSZ
 40
0.0
  9
$DIMTOL
 70
     1
  9
$DIMLIM
 70
     0
  9
$DIMTIH
 70
     1
  9
$DIMTOH
 70
     1
  9
$DIMSE1
 70
     0
  9
$DIMSE2
 70
     0
  9
$DIMTAD
 70
     0
  9
$DIMZIN
 70
     0
  9
$DIMBLK
  1

  9
$DIMASO
 70
     1
  9
$DIMSHO
 70
     1
  9
$DIMPOST
  1
\X
  9
$DIMAPOST
  1

  9
$DIMALT
 70
     1
  9
$DIMALTD
 70
     2
  9
$DIMALTF
 40
25.3999999999999986
  9
$DIMLFAC
 40
1.0
  9
$DIMTOFL
 70
     0
  9
$DIMTVP
 40
0.0
  9
$DIMTIX
 70
     0
  9
$DIMSOXD
 70
     0
  9
$DIMSAH
 70
     0
  9
$DIMBLK1
  1

  9
$DIMBLK2
  1

  9
$DIMSTYLE
  2
STANDARD
  9
$DIMCLRD
 70
     0
  9
$DIMCLRE
 70
     0
  9
$DIMCLRT
 70
     0
  9
$DIMTFAC
 40
1.0
  9
$DIMGAP
 40
0.09
  9
$LUNITS
 70
     2
  9
$LUPREC
 70
     4
  9
$SKETCHINC
 40
0.1
  9
$FILLETRAD
 40
0.0
  9
$AUNITS
 70
     0
  9
$AUPREC
 70
     0
  9
$MENU
  1
.
  9
$ELEVATION
 40
0.0
  9
$PELEVATION
 40
0.0
  9
$THICKNESS
 40
0.0
  9
$LIMCHECK
 70
     0
  9
$BLIPMODE
 70
     0
  9
$CHAMFERA
 40
0.0
  9
$CHAMFERB
 40
0.0
  9
$SKPOLY
 70
     0
  9
$TDCREATE
 40
2458060.468368056230247
  9
$TDUPDATE
 40
2459870.9616435188800097
  9
$TDINDWG
 40
0.410921412
  9
$TDUSRTIMER
 40
0.410921412
  9
$USRTIMER
 70
     1
  9
$ANGBASE
 50
0.0
  9
$ANGDIR
 70
     0
  9
$PDMODE
 70
     0
  9
$PDSIZE
 40
0.3125
  9
$PLINEWID
 40
0.0
  9
$COORDS
 70
     1
  9
$SPLFRAME
 70
     0
  9
$SPLINETYPE
 70
     6
  9
$SPLINESEGS
 70
     8
  9
$ATTDIA
 70
     1
  9
$ATTREQ
 70
     1
  9
$HANDLING
 70
     1
  9
$HANDSEED
  5
1005D
  9
$SURFTAB1
 70
     6
  9
$SURFTAB2
 70
     6
  9
$SURFTYPE
 70
     6
  9
$SURFU
 70
     6
  9
$SURFV
 70
     6
  9
$UCSNAME
  2

  9
$UCSORG
 10
0.0
 20
0.0
 30
0.0
  9
$UCSXDIR
 10
1.0
 20
0.0
 30
0.0
  9
$UCSYDIR
 10
0.0
 20
1.0
 30
0.0
  9
$PUCSNAME
  2

  9
$PUCSORG
 10
0.0
 20
0.0
 30
0.0
  9
$PUCSXDIR
 10
1.0
 20
0.0
 30
0.0
  9
$PUCSYDIR
 10
0.0
 20
1.0
 30
0.0
  9
$USERI1
 70
     0
  9
$USERI2
 70
     0
  9
$USERI3
 70
     0
  9
$USERI4
 70
     0
  9
$USERI5
 70
     0
  9
$USERR1
 40
0.0
  9
$USERR2
 40
0.0
  9
$USERR3
 40
0.0
  9
$USERR4
 40
0.0
  9
$USERR5
 40
0.0
  9
$WORLDVIEW
 70
     1
  9
$SHADEDGE
 70
     3
  9
$SHADEDIF
 70
    70
  9
$TILEMODE
 70
     1
  9
$MAXACTVP
 70
    64
  9
$PLIMCHECK
 70
     0
  9
$PEXTMIN
 10
1.0000000000000000E+20
 20
1.0000000000000000E+20
 30
1.0000000000000000E+20
  9
$PEXTMAX
 10
-1.0000000000000000E+20
 20
-1.0000000000000000E+20
 30
-1.0000000000000000E+20
  9
$PLIMMIN
 10
0.0
 20
0.0
  9
$PLIMMAX
 10
12.0
 20
9.0
  9
$UNITMODE
 70
     0
  9
$VISRETAIN
 70
     1
  9
$PLINEGEN
 70
     0
  9
$PSLTSCALE
 70
     1
  0
ENDSEC
  0
SECTION
  2
TABLES
  0
TABLE
  2
VPORT
 70
     1
  0
VPORT
  2
*ACTIVE
 70
     0
 10
0.0
 20
0.0
 11
1.0
 21
1.0
 12
3033.0204164782780936
 22
1568.7319361681129521
 13
0.0
 23
0.0
 14
1.0
 24
1.0
 15
0.0
 25
0.0
 16
0.0
 26
0.0
 36
9.5192988075487186
 17
4815.2983398437490905
 27
247.8086242675780966
 37
0.0
 40
7.9434102741208781
 41
2.095052083333333
 42
50.0
 43
0.0
 44
0.0
 50
0.0
 51
0.0
 71
     0
 72
   100
 73
     1
 74
     1
 75
     0
 76
     0
 77
     0
 78
     0
  0
ENDTAB
  0
TABLE
  2
LTYPE
 70
     2
  0
LTYPE
  2
CONTINUOUS
 70
     0
  3
Solid line
 72
    65
 73
     0
 40
0.0
  0
LTYPE
  2
PHANTOM2
 70
     0
  3
___ _ _ ___ _ _ ___ _ _ ___ _ _
 72
    65
 73
     6
 40
1.25
 49
0.625
 49
-0.125
 49
0.125
 49
-0.125
 49
0.125
 49
-0.125
  0
ENDTAB
  0
TABLE
  2
LAYER
 70
     2
  0
LAYER
  2
0
 70
     0
 62
   255
  6
CONTINUOUS
  0
LAYER
  2
DEFPOINTS
 70
     0
 62
     7
  6
CONTINUOUS
  0
ENDTAB
  0
TABLE
  2
STYLE
 70
     1
  0
STYLE
  2
STANDARD
 70
     0
 40
0.0
 41
0.8
 50
0.0
 71
     0
 42
0.2
  3
txt
  4

  0
ENDTAB
  0
TABLE
  2
VIEW
 70
     0
  0
ENDTAB
  0
TABLE
  2
UCS
 70
     0
  0
ENDTAB
  0
TABLE
  2
APPID
 70
    10
  0
APPID
  2
ACAD
 70
     0
  0
APPID
  2
ACAD_MLEADERVER
 70
     0
  0
APPID
  2
ACAD_EXEMPT_FROM_CAD_STANDARDS
 70
     0
  0
APPID
  2
ACAD_NAV_VCDISPLAY
 70
     0
  0
APPID
  2
ACAECLAYERSTANDARD
 70
     0
  0
APPID
  2
ACCMTRANSPARENCY
 70
     0
  0
APPID
  2
ACAD_DSTYLE_DIMJAG
 70
     0
  0
APPID
  2
ACAD_DSTYLE_DIMTALN
 70
     0
  0
APPID
  2
ACDBATTR
 70
     0
  0
APPID
  2
ACADANNOTATIVE
 70
     0
  0
ENDTAB
  0
TABLE
  2
DIMSTYLE
 70
     2
  0
DIMSTYLE
  2
STANDARD
 70
     0
  3

  4

  5

  6

  7

 40
1.0
 41
0.1875
 42
0.0625
 43
0.38
 44
0.125
 45
0.0
 46
0.0
 47
0.01
 48
0.01
140
0.15625
141
0.09
142
0.0
143
25.3999999999999986
144
1.0
145
0.0
146
1.0
147
0.09
 71
     1
 72
     0
 73
     1
 74
     1
 75
     0
 76
     0
 77
     0
 78
     4
170
     0
171
     2
172
     0
173
     0
174
     0
175
     0
176
     0
177
     0
178
     0
  0
ENDTAB
  0
ENDSEC
  0
SECTION
  2
BLOCKS
  0
BLOCK
  8
0
  2
$MODEL_SPACE
 70
     0
 10
0.0
 20
0.0
 30
0.0
  3
$MODEL_SPACE
  1

  0
ENDBLK
  5
21
  8
0
  0
BLOCK
 67
     1
  8
0
  2
$PAPER_SPACE
 70
     0
 10
0.0
 20
0.0
 30
0.0
  3
$PAPER_SPACE
  1

  0
ENDBLK
  5
1D
 67
     1
  8
0
  0
ENDSEC
  0
SECTION
  2
ENTITIES
  0
ATTDEF
  5
3930
  8
DEFPOINTS
 10
7848.3139254208481361
 20
1812.6029373168969414
 30
0.0
 40
0.001
  1
K-10085X-9
  3

  2
MODELNUMBER
 70
     0
1001
ACDBATTR
1070
     0
1070
     1
  0
ATTDEF
  5
3931
  8
DEFPOINTS
 10
7848.3139254208481361
 20
1812.6012706502310721
 30
0.0
 40
0.001
  1
OBLO
  3

  2
TRADENAME
 70
     0
1001
ACDBATTR
1070
     0
1070
     1
  0
ATTDEF
  5
3932
  8
DEFPOINTS
 10
7848.3139254208481361
 20
1812.5996039835640659
 30
0.0
 40
0.001
  1
BATHROOM SINK FAUCET
  3

  2
PRODUCT
 70
     0
1001
ACDBATTR
1070
     0
1070
     1
  0
ARC
  5
FBD2
  8
0
 10
7845.6168856691656401
 20
1815.6221518790900973
 30
0.0
 40
0.0688176915357678
 50
140.3260516421927093
 51
176.9622302227053012
  0
ARC
  5
FBD3
  8
0
 10
7845.61014013653039
 20
1815.6271452360629155
 30
0.0
 40
0.0619900811775479
 50
181.2445534840034043
 51
223.8845513143018877
  0
ARC
  5
FBD4
  8
0
 10
7854.224399635944792
 20
1807.6351258021879858
 30
0.0
 40
11.81102365339847
 50
132.8400997975357996
 51
137.1599002024545939
  0
ARC
  5
FBD5
  8
0
 10
7846.2335939143686119
 20
1816.2523056409199853
 30
0.0
 40
0.0590551181698474
 50
44.9999951273443415
 51
132.8400997592154908
  0
LINE
  5
FBD6
  8
0
 10
7846.4921591226438977
 20
1814.6574756493901077
 30
0.0
 11
7845.5654615264438689
 21
1815.584173245591046
 31
0.0
  0
LINE
  5
FBD7
  8
0
 10
7847.2020497887442616
 20
1815.3673663154900169
 30
0.0
 11
7846.2753521924441884
 21
1816.294063911891044
 31
0.0
  0
LINE
  5
FBD8
  8
0
 10
7845.8379837383427002
 20
1815.9519445756900495
 30
0.0
 11
7845.8296320834233484
 21
1815.9602962305700657
 31
0.0
  0
LINE
  5
FBD9
  8
0
 10
7845.8296320834233484
 20
1815.9602962305700657
 30
0.0
 11
7845.8992292075636215
 21
1816.0298933547101115
 31
0.0
  0
LINE
  5
FBDA
  8
0
 10
7845.8992292075636215
 20
1816.0298933547101115
 30
0.0
 11
7845.9075807231984072
 21
1816.0214720217099966
 31
0.0
  0
ARC
  5
FBDB
  8
0
 10
7845.9009691355022369
 20
1815.9585563026530508
 30
0.0
 40
0.0713582675336928
 50
91.3971808976113493
 51
178.6028191026364027
  0
LINE
  5
FBDC
  8
0
 10
7846.4921591226438977
 20
1814.6574756493901077
 30
0.0
 11
7847.2020497887442616
 21
1815.3673663154900169
 31
0.0
  0
LINE
  5
FBDD
  8
0
 10
7846.5343110979438279
 20
1814.6161110756900143
 30
0.0
 11
7847.2442017640432823
 21
1815.3260017417899235
 31
0.0
  0
LINE
  5
FBDE
  8
0
 10
7847.2062256162425911
 20
1815.2880255939899143
 30
0.0
 11
7847.164467341780437
 21
1815.3297838684538874
 31
0.0
  0
LINE
  5
FBDF
  8
0
 10
7846.5714998441435455
 20
1814.6532998218899593
 30
0.0
 11
7846.5297415696441021
 21
1814.6950580963909943
 31
0.0
  0
LINE
  5
FBE0
  8
0
 10
7847.3078644121433172
 20
1813.8425577613900259
 30
0.0
 11
7846.5343110978938057
 21
1814.6161110756399921
 31
0.0
  0
LINE
  5
FBE1
  8
0
 10
7847.3023675394433667
 20
1815.2678359663900665
 30
0.0
 11
7847.2442017640432823
 21
1815.3260017417899235
 31
0.0
  0
ARC
  5
FBE2
  8
0
 10
7847.4897956692766456
 20
1815.4701704073049768
 30
0.0
 40
0.2758052389509102
 50
227.1901863885636033
 51
348.0107741829755241
  0
ARC
  5
FBE3
  8
0
 10
7843.6084608381797807
 20
1816.1576934852489558
 30
0.0
 40
4.2174138108929453
 50
349.8279394940249176
 51
358.1253994232852165
  0
ARC
  5
FBE4
  8
0
 10
7846.9755333472885468
 20
1813.6060988680540049
 30
0.0
 40
0.4078685387538056
 50
5.1607974036447644
 51
35.4324622925022865
  0
LINE
  5
FBE5
  8
0
 10
7847.3817484479259292
 20
1812.6051944709899999
 30
0.0
 11
7847.3817484594301277
 21
1813.6427871164898988
 31
0.0
  0
LINE
  5
FBE6
  8
0
 10
7847.3817484479259292
 20
1812.6051944709899999
 30
0.0
 11
7849.2557641961293484
 21
1812.6051944709899999
 31
0.0
  0
ARC
  5
FBE7
  8
0
 10
7848.0199970058547478
 20
1818.1938318429658921
 30
0.0
 40
0.1969167492544368
 50
125.2828249596204984
 51
175.7664686753350907
  0
ARC
  5
FBE8
  8
0
 10
7848.3155090393611317
 20
1817.7849205556969991
 30
0.0
 40
0.7014251034308283
 50
89.4572433418805133
 51
125.6942912895387963
  0
ARC
  5
FBE9
  8
0
 10
7848.0413680514611769
 20
1818.0142574553628947
 30
0.0
 40
0.2191752260399119
 50
186.5364752548067884
 51
239.7084824078559109
  0
ARC
  5
FBEA
  8
0
 10
7848.3161030080937053
 20
1818.437799912446053
 30
0.0
 40
0.7238523061135111
 50
237.8408520205780974
 51
251.906341514026991
  0
ARC
  5
FBEB
  8
0
 10
7848.3170840358734495
 20
1818.3919598632739962
 30
0.0
 40
0.6272221333755585
 50
237.3994089593240915
 51
270.1527609555520257
  0
ARC
  5
FBEC
  8
0
 10
7848.0235854639868194
 20
1817.9960587500320344
 30
0.0
 40
0.125159631853684
 50
140.1623485231318966
 51
206.7007318641574898
  0
ARC
  5
FBED
  8
0
 10
7848.1654579228379589
 20
1817.8770760446620898
 30
0.0
 40
0.3103206079031836
 50
116.9591616724409988
 51
140.0743078423332122
  0
ARC
  5
FBEE
  8
0
 10
7848.3210147297450021
 20
1817.4927124808909866
 30
0.0
 40
0.725948706446146
 50
90.1782459810382164
 51
110.9173314183351948
  0
ARC
  5
FBEF
  8
0
 10
7848.2377772002791971
 20
1817.7418284532839152
 30
0.0
 40
0.4636678233363182
 50
112.299930621322801
 51
117.3478094669149954
  0
ARC
  5
FBF0
  8
0
 10
7848.1011870153652126
 20
1818.0392733809630954
 30
0.0
 40
0.2139364938193943
 50
207.7018095262205009
 51
235.2192627588570133
  0
LINE
  5
FBF1
  8
0
 10
7847.9415789947306621
 20
1818.0919646326310612
 30
0.0
 11
7847.9756738816431607
 21
1818.0887788382899544
 31
0.0
  0
LINE
  5
FBF2
  8
0
 10
7847.9833576589999211
 20
1818.0938420934990063
 30
0.0
 11
7847.9834282746442113
 21
1818.1214419990069473
 31
0.0
  0
LINE
  5
FBF3
  8
0
 10
7847.9834282746442113
 20
1818.1214419990069473
 30
0.0
 11
7847.9751771648952854
 21
1818.1222129713910363
 31
0.0
  0
ARC
  5
FBF4
  8
0
 10
7847.9767817278943767
 20
1818.0954595305649946
 30
0.0
 40
0.0067719253231481
 50
260.584434062817877
 51
346.1816485916901911
  0
ARC
  5
FBF5
  8
0
 10
7848.0755449361213323
 20
1818.0624188123670137
 30
0.0
 40
0.0973956706428709
 50
161.177628425990207
 51
198.9507051953679024
  0
ARC
  5
FBF6
  8
0
 10
7847.9752710426009799
 20
1818.0315718039980766
 30
0.0
 40
0.0081946934837909
 50
272.8177116364207109
 51
354.5192996387639823
  0
ARC
  5
FBF7
  8
0
 10
7847.9174037771017538
 20
1818.0248692206860142
 30
0.0
 40
0.0069109964411235
 50
202.3659011161780086
 51
279.0029144737529805
  0
LINE
  5
FBF8
  8
0
 10
7847.9184852424441488
 20
1818.018043365090989
 30
0.0
 11
7847.9756738815822246
 21
1818.0233870179849873
 31
0.0
  0
LINE
  5
FBF9
  8
0
 10
7847.911012676543578
 20
1818.0222394477900707
 30
0.0
 11
7847.9063501565360639
 21
1818.0398858664389081
 31
0.0
  0
LINE
  5
FBFA
  8
0
 10
7847.9834282734436783
 20
1818.0307891250899957
 30
0.0
 11
7847.9834282734436783
 21
1818.057499301389953
 31
0.0
  0
LINE
  5
FBFB
  8
0
 10
7847.9805149484427602
 20
1817.9614290549909583
 30
0.0
 11
7848.0409838494433643
 21
1817.9838662500899318
 31
0.0
  0
ARC
  5
FBFC
  8
0
 10
7848.1325253623454046
 20
1818.1147308498739221
 30
0.0
 40
0.1597040765316468
 50
200.9995104364354006
 51
235.0267038730216029
  0
ARC
  5
FBFD
  8
0
 10
7848.1119385150923335
 20
1818.1409080412120147
 30
0.0
 40
0.222451928212783
 50
213.3092022356264863
 51
233.7865304226723993
  0
ARC
  5
FBFE
  8
0
 10
7848.2373779464751351
 20
1818.2254186096820376
 30
0.0
 40
0.3435979311317951
 50
233.8179288193792047
 51
250.3421147352507035
  0
ARC
  5
FBFF
  8
0
 10
7848.0305363572606439
 20
1817.9577563515269958
 30
0.0
 40
0.010464722937714
 50
292.4573375616238877
 51
356.7115933543240089
  0
ARC
  5
FC00
  8
0
 10
7848.1121874378450229
 20
1817.9122002626329504
 30
0.0
 40
0.0141217989487848
 50
312.8450796412510044
 51
358.9511344127909069
  0
ARC
  5
FC01
  8
0
 10
7847.9850269464332086
 20
1817.9345143468719925
 30
0.0
 40
0.0045166313951477
 50
177.4045204149570054
 51
295.4094965233692847
  0
LINE
  5
FC02
  8
0
 10
7847.9805149484427602
 20
1817.9347188787949108
 30
0.0
 11
7847.9805149484427602
 21
1817.9614290549909583
 31
0.0
  0
LINE
  5
FC03
  8
0
 10
7847.9869649645443133
 20
1817.9304346354899735
 30
0.0
 11
7848.0345338333427208
 21
1817.9480852289900668
 31
0.0
  0
LINE
  5
FC04
  8
0
 10
7848.0409838494433643
 20
1817.9571560738900189
 30
0.0
 11
7848.0409838494433643
 21
1817.9838662500899318
 31
0.0
  0
ARC
  5
FC05
  8
0
 10
7848.2393313305519769
 20
1818.2283407849579362
 30
0.0
 40
0.3359804618999121
 50
233.8178517533528975
 51
250.3421917329648068
  0
ARC
  5
FC06
  8
0
 10
7848.2205631897268177
 20
1818.2543615154979761
 30
0.0
 40
0.4017261136365149
 50
233.6631649855634123
 51
250.3908725663073938
  0
ARC
  5
FC07
  8
0
 10
7848.0864547280289116
 20
1817.8788445003799552
 30
0.0
 40
0.0029962890919947
 50
256.2636868036830151
 51
312.589511797690875
  0
LINE
  5
FC08
  8
0
 10
7848.088482440345615
 20
1817.876638569493025
 30
0.0
 11
7848.1217905207404328
 21
1817.9018462293870471
 31
0.0
  0
LINE
  5
FC09
  8
0
 10
7848.1263068706439299
 20
1817.9119417611900644
 30
0.0
 11
7848.1263068706439299
 21
1817.9386519374900217
 31
0.0
  0
LINE
  5
FC0A
  8
0
 10
7848.265258322743648
 20
1817.8814419527900554
 30
0.0
 11
7848.265258322743648
 21
1817.9081521289899683
 31
0.0
  0
LINE
  5
FC0B
  8
0
 10
7848.2524398056439168
 20
1817.8696283642909748
 30
0.0
 11
7848.265258322743648
 21
1817.9081521289899683
 31
0.0
  0
LINE
  5
FC0C
  8
0
 10
7848.2538071141443652
 20
1817.8403498454899818
 30
0.0
 11
7848.2638909137758674
 21
1817.8706541260739868
 31
0.0
  0
ARC
  5
FC0D
  8
0
 10
7848.3143256174407725
 20
1818.5600660092020462
 30
0.0
 40
0.6932055937548613
 50
253.2429387304468094
 51
264.8781100025785804
  0
ARC
  5
FC0E
  8
0
 10
7848.3129424076842042
 20
1818.4571603309300372
 30
0.0
 40
0.551075110809701
 50
250.2038123240425023
 51
265.0360347608776124
  0
LINE
  5
FC0F
  8
0
 10
7848.2524398056439168
 20
1817.8696283642909748
 30
0.0
 11
7848.2524398056439168
 21
1817.842918187990108
 31
0.0
  0
ARC
  5
FC10
  8
0
 10
7848.2530957311882958
 20
1817.8393924802430774
 30
0.0
 40
0.0002060107799818
 50
218.2978592794623012
 51
317.0843329632330097
  0
ARC
  5
FC11
  8
0
 10
7848.2678750452769236
 20
1817.8425864083440047
 30
0.0
 40
0.0154388050146805
 50
178.7686199233619959
 51
190.1059855790998938
  0
ARC
  5
FC12
  8
0
 10
7848.2542065559209732
 20
1817.8401620687570812
 30
0.0
 40
0.0015570302237563
 50
190.5357328158495989
 51
215.1883409826108107
  0
ARC
  5
FC13
  8
0
 10
7848.2508875826833901
 20
1817.8411487673699867
 30
0.0
 40
0.0030268696910809
 50
321.2020368300072164
 51
344.6958288939679278
  0
ARC
  5
FC14
  8
0
 10
7848.222289488806382
 20
1817.8814078831469487
 30
0.0
 40
0.0429688474456163
 50
345.5065876819489858
 51
0.0454293540985173
  0
ARC
  5
FC15
  8
0
 10
7848.3255501405992618
 20
1818.61813442845596
 30
0.0
 40
0.7823110036639735
 50
264.6852757177226181
 51
269.5024203647896002
  0
ARC
  5
FC16
  8
0
 10
7848.3255908096425628
 20
1818.5346240172918897
 30
0.0
 40
0.6668304834020651
 50
264.6909934866192771
 51
269.4127530738588234
  0
ARC
  5
FC17
  8
0
 10
7848.1503395116769752
 20
1818.1718259633039452
 30
0.0
 40
0.1800747873924249
 50
202.0434443856111102
 51
246.7440289840631067
  0
ARC
  5
FC18
  8
0
 10
7848.091308286135245
 20
1818.085434183758025
 30
0.0
 40
0.1137306462889102
 50
156.3632797800640049
 51
161.5422006925197138
  0
ARC
  5
FC19
  8
0
 10
7848.2193214532971979
 20
1818.116907326754017
 30
0.0
 40
0.1846295817980232
 50
166.142013959277989
 51
187.3807065592191918
  0
ARC
  5
FC1A
  8
0
 10
7848.1531796974113604
 20
1818.0826364588610886
 30
0.0
 40
0.1174347147905934
 50
123.8441887998418025
 51
174.840890560467102
  0
ARC
  5
FC1B
  8
0
 10
7848.1536665555640866
 20
1818.0973269920630173
 30
0.0
 40
0.1175177887789024
 50
182.0176485254883119
 51
230.7036653384533906
  0
ARC
  5
FC1C
  8
0
 10
7848.3155629619395768
 20
1818.3156418094429227
 30
0.0
 40
0.3892178891676547
 50
232.6143473980787917
 51
270.4700917234798112
  0
ARC
  5
FC1D
  8
0
 10
7848.3217915213626839
 20
1818.3684792407129862
 30
0.0
 40
0.4144408627395635
 50
263.295670630838913
 51
268.9526251055009993
  0
ARC
  5
FC1E
  8
0
 10
7848.3153025426317981
 20
1818.3805279741579852
 30
0.0
 40
0.4257220472197476
 50
255.8199881747586062
 51
263.0263522195227779
  0
ARC
  5
FC1F
  8
0
 10
7848.3153025426317981
 20
1818.3805279741579852
 30
0.0
 40
0.4257220472197476
 50
264.3506045131501878
 51
264.3523899106493786
  0
ARC
  5
FC20
  8
0
 10
7848.2992684044520502
 20
1818.3210755818261077
 30
0.0
 40
0.3641317986175931
 50
252.1684103161400969
 51
253.8033928948538005
  0
ARC
  5
FC21
  8
0
 10
7848.2751737003691233
 20
1818.2561821062220133
 30
0.0
 40
0.2949195897667893
 50
241.5646439155640905
 51
250.7588871256600953
  0
ARC
  5
FC22
  8
0
 10
7848.2267051746866855
 20
1818.170525796253969
 30
0.0
 40
0.1964406654821602
 50
229.5895336686135124
 51
239.1689813104833888
  0
ARC
  5
FC23
  8
0
 10
7848.1805481700794189
 20
1818.1191513820720047
 30
0.0
 40
0.1273096956172681
 50
213.7883284383771922
 51
226.5784079791957026
  0
ARC
  5
FC24
  8
0
 10
7847.9939496184606469
 20
1818.0132844458748878
 30
0.0
 40
0.0873568172247343
 50
28.3843021938756515
 51
30.1702142123923984
  0
ARC
  5
FC25
  8
0
 10
7848.1604021996763549
 20
1818.0707281521890764
 30
0.0
 40
0.0950955821028123
 50
131.6551712807269041
 51
173.045623786656904
  0
ARC
  5
FC26
  8
0
 10
7848.2545161819471105
 20
1817.9686134327619129
 30
0.0
 40
0.2339567424197476
 50
106.5698536304601021
 51
132.254675096847393
  0
ARC
  5
FC27
  8
0
 10
7848.3221027412437252
 20
1817.7732425415269972
 30
0.0
 40
0.4405822609170857
 50
90.4351912415935146
 51
107.7485664026757064
  0
ARC
  5
FC28
  8
0
 10
7848.1454994341102065
 20
1818.0814461044469681
 30
0.0
 40
0.0798031401019959
 50
182.4955841797950029
 51
204.9093247671034987
  0
ARC
  5
FC29
  8
0
 10
7848.1405061838086112
 20
1818.0759896162469431
 30
0.0
 40
0.0747618597994275
 50
175.2025391314122089
 51
204.4920644947262076
  0
ARC
  5
FC2A
  8
0
 10
7848.1995130374016298
 20
1818.1102134504769765
 30
0.0
 40
0.1428036964019132
 50
207.1740085925196126
 51
240.8364604415901056
  0
ARC
  5
FC2B
  8
0
 10
7848.3237914127439581
 20
1818.3482502843630755
 30
0.0
 40
0.4112944044855358
 50
241.8774707553565975
 51
269.2985641168356779
  0
ARC
  5
FC2C
  8
0
 10
7848.1799781952868216
 20
1818.0992281808930784
 30
0.0
 40
0.1185749237646921
 50
205.6853846377742059
 51
234.1670599432412985
  0
ARC
  5
FC2D
  8
0
 10
7848.2755436328170617
 20
1818.2288445091969606
 30
0.0
 40
0.2796092797557628
 50
233.8398058368078978
 51
256.9248637987985262
  0
ARC
  5
FC2E
  8
0
 10
7848.3412504249263293
 20
1818.4947834440529277
 30
0.0
 40
0.5535316224458408
 50
256.5273537419694776
 51
267.6710054182955787
  0
LINE
  5
FC2F
  8
0
 10
7848.2064963214443196
 20
1818.1666815310900347
 30
0.0
 11
7848.2064963214443196
 21
1818.1790006901899233
 31
0.0
  0
LINE
  5
FC30
  8
0
 10
7848.2163388411436244
 20
1818.1666815310900347
 30
0.0
 11
7848.2163388411436244
 21
1818.1790006901899233
 31
0.0
  0
ARC
  5
FC31
  8
0
 10
7848.2132800336430591
 20
1818.1675881524161014
 30
0.0
 40
0.0068440275731964
 50
187.6122883987505077
 51
254.2090587875646861
  0
ARC
  5
FC32
  8
0
 10
7848.2095626522823295
 20
1818.1675816330109683
 30
0.0
 40
0.0068357091038768
 50
285.7451327697324928
 51
352.4335211962991252
  0
LINE
  5
FC33
  8
0
 10
7848.2230784593439239
 20
1818.1810626697908901
 30
0.0
 11
7848.2399608884434201
 21
1818.1758975069899407
 31
0.0
  0
LINE
  5
FC34
  8
0
 10
7848.2399608884434201
 20
1818.1758975069899407
 30
0.0
 11
7848.2568433174428719
 21
1818.1810626697908901
 31
0.0
  0
LINE
  5
FC35
  8
0
 10
7848.2114175813430847
 20
1818.1600294412899075
 30
0.0
 11
7848.2370798934425693
 21
1818.1521804636900015
 31
0.0
  0
LINE
  5
FC36
  8
0
 10
7848.2428416334423673
 20
1818.1521796372899189
 30
0.0
 11
7848.2685041955437555
 21
1818.1600294412899075
 31
0.0
  0
LINE
  5
FC37
  8
0
 10
7848.2685041955437555
 20
1818.1600294412899075
 30
0.0
 11
7848.2685041956356145
 21
1818.1610024114179396
 31
0.0
  0
ARC
  5
FC38
  8
0
 10
7848.2383725168219826
 20
1818.1570037460819549
 30
0.0
 40
0.0049934885835253
 50
254.9974646601885979
 51
288.5473687573069128
  0
ARC
  5
FC39
  8
0
 10
7848.2415510875744076
 20
1818.1570215440929132
 30
0.0
 40
0.0050109450331139
 50
251.4975531067181009
 51
284.9244648778225724
  0
LINE
  5
FC3A
  8
0
 10
7848.2399608884434201
 20
1818.1522696142899349
 30
0.0
 11
7848.2399608884434201
 21
1818.1758975069899407
 31
0.0
  0
LINE
  5
FC3B
  8
0
 10
7848.2635829356431714
 20
1818.1666815310900347
 30
0.0
 11
7848.2635829356431714
 21
1818.1790006901899233
 31
0.0
  0
LINE
  5
FC3C
  8
0
 10
7848.2734254553433857
 20
1818.1666815310900347
 30
0.0
 11
7848.2734254553433857
 21
1818.1790006901899233
 31
0.0
  0
ARC
  5
FC3D
  8
0
 10
7848.2703666478419109
 20
1818.1675881524161014
 30
0.0
 40
0.0068440275731964
 50
187.6122883987505077
 51
254.2090587875646861
  0
ARC
  5
FC3E
  8
0
 10
7848.2666492664820908
 20
1818.1675816330109683
 30
0.0
 40
0.0068357091038768
 50
285.7451327697324928
 51
352.4335211962991252
  0
LINE
  5
FC3F
  8
0
 10
7848.2064963214443196
 20
1818.1142847484909453
 30
0.0
 11
7848.2064963214443196
 21
1818.1266039075899243
 31
0.0
  0
LINE
  5
FC40
  8
0
 10
7848.2163388411436244
 20
1818.1142847484909453
 30
0.0
 11
7848.2163388411436244
 21
1818.1266039075899243
 31
0.0
  0
ARC
  5
FC41
  8
0
 10
7848.2132800336430591
 20
1818.1151913698161025
 30
0.0
 40
0.0068440275731964
 50
187.6122883987505077
 51
254.2090587875646861
  0
ARC
  5
FC42
  8
0
 10
7848.2095626522823295
 20
1818.1151848504109694
 30
0.0
 40
0.0068357091038768
 50
285.7451327697324928
 51
352.4335211962991252
  0
LINE
  5
FC43
  8
0
 10
7848.2114136338441313
 20
1818.1076338328909969
 30
0.0
 11
7848.2114175813430847
 21
1818.1086056287899737
 31
0.0
  0
LINE
  5
FC44
  8
0
 10
7848.2230784593439239
 20
1818.1286658871899817
 30
0.0
 11
7848.2399608884434201
 21
1818.1235007243899418
 31
0.0
  0
LINE
  5
FC45
  8
0
 10
7848.2399608884434201
 20
1818.1235007243899418
 30
0.0
 11
7848.2568433174428719
 21
1818.1286658871899817
 31
0.0
  0
LINE
  5
FC46
  8
0
 10
7848.2114136338441313
 20
1818.1076338328909969
 30
0.0
 11
7848.2370798934425693
 21
1818.0997836810900026
 31
0.0
  0
LINE
  5
FC47
  8
0
 10
7848.2428416334423673
 20
1818.09978285468992
 30
0.0
 11
7848.2685041955437555
 21
1818.1076326586910454
 31
0.0
  0
LINE
  5
FC48
  8
0
 10
7848.2685041955437555
 20
1818.1076326586910454
 30
0.0
 11
7848.2685041956356145
 21
1818.1086056288179407
 31
0.0
  0
ARC
  5
FC49
  8
0
 10
7848.2383725168219826
 20
1818.1046069634830928
 30
0.0
 40
0.0049934885835253
 50
254.9974646601885979
 51
288.5473687573069128
  0
ARC
  5
FC4A
  8
0
 10
7848.2415510875744076
 20
1818.1046247614929143
 30
0.0
 40
0.0050109450331139
 50
251.4975531067181009
 51
284.9244648778225724
  0
LINE
  5
FC4B
  8
0
 10
7848.2399608884434201
 20
1818.099872831689936
 30
0.0
 11
7848.2399608884434201
 21
1818.1235007243899418
 31
0.0
  0
LINE
  5
FC4C
  8
0
 10
7848.2635829356431714
 20
1818.1142847484909453
 30
0.0
 11
7848.2635829356431714
 21
1818.1266039075899243
 31
0.0
  0
LINE
  5
FC4D
  8
0
 10
7848.2734254553433857
 20
1818.1142847484909453
 30
0.0
 11
7848.2734254553433857
 21
1818.1266039075899243
 31
0.0
  0
ARC
  5
FC4E
  8
0
 10
7848.2703666478419109
 20
1818.1151913698161025
 30
0.0
 40
0.0068440275731964
 50
187.6122883987505077
 51
254.2090587875646861
  0
ARC
  5
FC4F
  8
0
 10
7848.2666492664820908
 20
1818.1151848504109694
 30
0.0
 40
0.0068357091038768
 50
285.7451327697324928
 51
352.4335211962991252
  0
LINE
  5
FC50
  8
0
 10
7848.2064963214443196
 20
1818.0618879657909019
 30
0.0
 11
7848.2064963214443196
 21
1818.0742071248901084
 31
0.0
  0
LINE
  5
FC51
  8
0
 10
7848.2163388411436244
 20
1818.0618879657909019
 30
0.0
 11
7848.2163388411436244
 21
1818.0742071248901084
 31
0.0
  0
ARC
  5
FC52
  8
0
 10
7848.2132800336430591
 20
1818.0627945871160591
 30
0.0
 40
0.0068440275731964
 50
187.6122883987505077
 51
254.2090587875646861
  0
ARC
  5
FC53
  8
0
 10
7848.2095626522823295
 20
1818.062788067710926
 30
0.0
 40
0.0068357091038768
 50
285.7451327697324928
 51
352.4335211962991252
  0
LINE
  5
FC54
  8
0
 10
7848.2114136338441313
 20
1818.0552370501909536
 30
0.0
 11
7848.2114175813430847
 21
1818.0562088460899304
 31
0.0
  0
LINE
  5
FC55
  8
0
 10
7848.2230784593439239
 20
1818.0762691044899384
 30
0.0
 11
7848.2399608884434201
 21
1818.0711039416898984
 31
0.0
  0
LINE
  5
FC56
  8
0
 10
7848.2399608884434201
 20
1818.0711039416898984
 30
0.0
 11
7848.2568433174428719
 21
1818.0762691044899384
 31
0.0
  0
LINE
  5
FC57
  8
0
 10
7848.2114136338441313
 20
1818.0552370501909536
 30
0.0
 11
7848.2370798934425693
 21
1818.0473868983899592
 31
0.0
  0
LINE
  5
FC58
  8
0
 10
7848.2428416334423673
 20
1818.0473860719910135
 30
0.0
 11
7848.2685041955437555
 21
1818.0552358759910021
 31
0.0
  0
LINE
  5
FC59
  8
0
 10
7848.2685041955437555
 20
1818.0552358759910021
 30
0.0
 11
7848.2685041956356145
 21
1818.0562088461190342
 31
0.0
  0
ARC
  5
FC5A
  8
0
 10
7848.2383725168219826
 20
1818.0522101807819126
 30
0.0
 40
0.0049934885835253
 50
254.9974646601885979
 51
288.5473687573069128
  0
ARC
  5
FC5B
  8
0
 10
7848.2415510875744076
 20
1818.0522279787930984
 30
0.0
 40
0.0050109450331139
 50
251.4975531067181009
 51
284.9244648778225724
  0
LINE
  5
FC5C
  8
0
 10
7848.2399608884434201
 20
1818.0474760489910295
 30
0.0
 11
7848.2399608884434201
 21
1818.0711039416898984
 31
0.0
  0
LINE
  5
FC5D
  8
0
 10
7848.2635829356431714
 20
1818.0618879657909019
 30
0.0
 11
7848.2635829356431714
 21
1818.0742071248901084
 31
0.0
  0
LINE
  5
FC5E
  8
0
 10
7848.2734254553433857
 20
1818.0618879657909019
 30
0.0
 11
7848.2734254553433857
 21
1818.0742071248901084
 31
0.0
  0
ARC
  5
FC5F
  8
0
 10
7848.2703666478419109
 20
1818.0627945871160591
 30
0.0
 40
0.0068440275731964
 50
187.6122883987505077
 51
254.2090587875646861
  0
ARC
  5
FC60
  8
0
 10
7848.2666492664820908
 20
1818.062788067710926
 30
0.0
 40
0.0068357091038768
 50
285.7451327697324928
 51
352.4335211962991252
  0
LINE
  5
FC61
  8
0
 10
7848.2064963214443196
 20
1818.0094911830899491
 30
0.0
 11
7848.2064963214443196
 21
1818.0218103421900651
 31
0.0
  0
LINE
  5
FC62
  8
0
 10
7848.2163388411436244
 20
1818.0094911830899491
 30
0.0
 11
7848.2163388411436244
 21
1818.0218103421900651
 31
0.0
  0
ARC
  5
FC63
  8
0
 10
7848.2132800336430591
 20
1818.0103978044160158
 30
0.0
 40
0.0068440275731964
 50
187.6122883987505077
 51
254.2090587875646861
  0
ARC
  5
FC64
  8
0
 10
7848.2095626522823295
 20
1818.0103912850111101
 30
0.0
 40
0.0068357091038768
 50
285.7451327697324928
 51
352.4335211962991252
  0
LINE
  5
FC65
  8
0
 10
7848.2114136338441313
 20
1818.0028402674900008
 30
0.0
 11
7848.2114175813430847
 21
1818.003812063389887
 31
0.0
  0
LINE
  5
FC66
  8
0
 10
7848.2230784593439239
 20
1818.0238723217910319
 30
0.0
 11
7848.2399608884434201
 21
1818.0187071589900825
 31
0.0
  0
LINE
  5
FC67
  8
0
 10
7848.2399608884434201
 20
1818.0187071589900825
 30
0.0
 11
7848.2568433174428719
 21
1818.0238723217910319
 31
0.0
  0
LINE
  5
FC68
  8
0
 10
7848.2114136338441313
 20
1818.0028402674900008
 30
0.0
 11
7848.2370798934425693
 21
1817.9949901156899159
 31
0.0
  0
LINE
  5
FC69
  8
0
 10
7848.2428416334423673
 20
1817.9949892892909702
 30
0.0
 11
7848.2685041955437555
 21
1818.0028390932900493
 31
0.0
  0
LINE
  5
FC6A
  8
0
 10
7848.2685041955437555
 20
1818.0028390932900493
 30
0.0
 11
7848.2685041956356145
 21
1818.0038120634189909
 31
0.0
  0
ARC
  5
FC6B
  8
0
 10
7848.2383725168219826
 20
1817.9998133980830062
 30
0.0
 40
0.0049934885835253
 50
254.9974646601885979
 51
288.5473687573069128
  0
ARC
  5
FC6C
  8
0
 10
7848.2415510875744076
 20
1817.999831196093055
 30
0.0
 40
0.0050109450331139
 50
251.4975531067181009
 51
284.9244648778225724
  0
LINE
  5
FC6D
  8
0
 10
7848.2399608884434201
 20
1817.9950792662900767
 30
0.0
 11
7848.2399608884434201
 21
1818.0187071589900825
 31
0.0
  0
LINE
  5
FC6E
  8
0
 10
7848.2635829356431714
 20
1818.0094911830899491
 30
0.0
 11
7848.2635829356431714
 21
1818.0218103421900651
 31
0.0
  0
LINE
  5
FC6F
  8
0
 10
7848.2734254553433857
 20
1818.0094911830899491
 30
0.0
 11
7848.2734254553433857
 21
1818.0218103421900651
 31
0.0
  0
ARC
  5
FC70
  8
0
 10
7848.2703666478419109
 20
1818.0103978044160158
 30
0.0
 40
0.0068440275731964
 50
187.6122883987505077
 51
254.2090587875646861
  0
ARC
  5
FC71
  8
0
 10
7848.2666492664820908
 20
1818.0103912850111101
 30
0.0
 40
0.0068357091038768
 50
285.7451327697324928
 51
352.4335211962991252
  0
LINE
  5
FC72
  8
0
 10
7848.1779530143439843
 20
1818.0880863570901056
 30
0.0
 11
7848.1779530143439843
 21
1818.1004055161899942
 31
0.0
  0
LINE
  5
FC73
  8
0
 10
7848.1877955340441986
 20
1818.0880863570901056
 30
0.0
 11
7848.1877955340441986
 21
1818.1004055161899942
 31
0.0
  0
ARC
  5
FC74
  8
0
 10
7848.1847367265427238
 20
1818.0889929784159449
 30
0.0
 40
0.0068440275731964
 50
187.6122883987505077
 51
254.2090587875646861
  0
ARC
  5
FC75
  8
0
 10
7848.1810193451819941
 20
1818.0889864590110392
 30
0.0
 40
0.0068357091038768
 50
285.7451327697324928
 51
352.4335211962991252
  0
LINE
  5
FC76
  8
0
 10
7848.1945351522435885
 20
1818.102467495790961
 30
0.0
 11
7848.2114175813430847
 21
1818.0973023329900116
 31
0.0
  0
LINE
  5
FC77
  8
0
 10
7848.2114175813430847
 20
1818.0973023329900116
 30
0.0
 11
7848.2283000103443555
 21
1818.102467495790961
 31
0.0
  0
LINE
  5
FC78
  8
0
 10
7848.1828742742427494
 20
1818.0814342672899784
 30
0.0
 11
7848.2085365863440529
 21
1818.0735852896900724
 31
0.0
  0
LINE
  5
FC79
  8
0
 10
7848.2142983263438509
 20
1818.0735844632899898
 30
0.0
 11
7848.2399608884434201
 21
1818.0814342672899784
 31
0.0
  0
LINE
  5
FC7A
  8
0
 10
7848.2399608884434201
 20
1818.0814342672899784
 30
0.0
 11
7848.2399608885361886
 21
1818.0824072374180105
 31
0.0
  0
ARC
  5
FC7B
  8
0
 10
7848.2098292097225567
 20
1818.0784085720820258
 30
0.0
 40
0.0049934885835253
 50
254.9974646601885979
 51
288.5473687573069128
  0
ARC
  5
FC7C
  8
0
 10
7848.2130077804758912
 20
1818.0784263700929841
 30
0.0
 40
0.0050109450331139
 50
251.4975531067181009
 51
284.9244648778225724
  0
LINE
  5
FC7D
  8
0
 10
7848.2114175813430847
 20
1818.0736744402900058
 30
0.0
 11
7848.2114175813430847
 21
1818.0973023329900116
 31
0.0
  0
LINE
  5
FC7E
  8
0
 10
7848.2350396285437455
 20
1818.0880863570901056
 30
0.0
 11
7848.2350396285437455
 21
1818.1004055161899942
 31
0.0
  0
LINE
  5
FC7F
  8
0
 10
7848.2448821482430503
 20
1818.0880863570901056
 30
0.0
 11
7848.2448821482430503
 21
1818.1004055161899942
 31
0.0
  0
ARC
  5
FC80
  8
0
 10
7848.2418233407415755
 20
1818.0889929784159449
 30
0.0
 40
0.0068440275731964
 50
187.6122883987505077
 51
254.2090587875646861
  0
ARC
  5
FC81
  8
0
 10
7848.2381059593808459
 20
1818.0889864590110392
 30
0.0
 40
0.0068357091038768
 50
285.7451327697324928
 51
352.4335211962991252
  0
LINE
  5
FC82
  8
0
 10
7848.1779530143439843
 20
1818.0356895744910162
 30
0.0
 11
7848.1779530143439843
 21
1818.0480087335899952
 31
0.0
  0
LINE
  5
FC83
  8
0
 10
7848.1877955340441986
 20
1818.0356895744910162
 30
0.0
 11
7848.1877955340441986
 21
1818.0480087335899952
 31
0.0
  0
ARC
  5
FC84
  8
0
 10
7848.1847367265427238
 20
1818.036596195815946
 30
0.0
 40
0.0068440275731964
 50
187.6122883987505077
 51
254.2090587875646861
  0
ARC
  5
FC85
  8
0
 10
7848.1810193451819941
 20
1818.0365896764110403
 30
0.0
 40
0.0068357091038768
 50
285.7451327697324928
 51
352.4335211962991252
  0
LINE
  5
FC86
  8
0
 10
7848.1828703267437959
 20
1818.029038658889931
 30
0.0
 11
7848.1828742742427494
 21
1818.0300104547909541
 31
0.0
  0
LINE
  5
FC87
  8
0
 10
7848.1945351522435885
 20
1818.0500707131900526
 30
0.0
 11
7848.2114175813430847
 21
1818.0449055503900126
 31
0.0
  0
LINE
  5
FC88
  8
0
 10
7848.2114175813430847
 20
1818.0449055503900126
 30
0.0
 11
7848.2283000103443555
 21
1818.0500707131900526
 31
0.0
  0
LINE
  5
FC89
  8
0
 10
7848.1828703267437959
 20
1818.029038658889931
 30
0.0
 11
7848.2085365863440529
 21
1818.0211885070900735
 31
0.0
  0
LINE
  5
FC8A
  8
0
 10
7848.2142983263438509
 20
1818.0211876806899909
 30
0.0
 11
7848.2399608884434201
 21
1818.0290374846899795
 31
0.0
  0
LINE
  5
FC8B
  8
0
 10
7848.2399608884434201
 20
1818.0290374846899795
 30
0.0
 11
7848.2399608885361886
 21
1818.0300104548180116
 31
0.0
  0
ARC
  5
FC8C
  8
0
 10
7848.2098292097225567
 20
1818.0260117894829364
 30
0.0
 40
0.0049934885835253
 50
254.9974646601885979
 51
288.5473687573069128
  0
ARC
  5
FC8D
  8
0
 10
7848.2130077804758912
 20
1818.0260295874929852
 30
0.0
 40
0.0050109450331139
 50
251.4975531067181009
 51
284.9244648778225724
  0
LINE
  5
FC8E
  8
0
 10
7848.2114175813430847
 20
1818.0212776576900069
 30
0.0
 11
7848.2114175813430847
 21
1818.0449055503900126
 31
0.0
  0
LINE
  5
FC8F
  8
0
 10
7848.2350396285437455
 20
1818.0356895744910162
 30
0.0
 11
7848.2350396285437455
 21
1818.0480087335899952
 31
0.0
  0
LINE
  5
FC90
  8
0
 10
7848.2448821482430503
 20
1818.0356895744910162
 30
0.0
 11
7848.2448821482430503
 21
1818.0480087335899952
 31
0.0
  0
ARC
  5
FC91
  8
0
 10
7848.2418233407415755
 20
1818.036596195815946
 30
0.0
 40
0.0068440275731964
 50
187.6122883987505077
 51
254.2090587875646861
  0
ARC
  5
FC92
  8
0
 10
7848.2381059593808459
 20
1818.0365896764110403
 30
0.0
 40
0.0068357091038768
 50
285.7451327697324928
 51
352.4335211962991252
  0
LINE
  5
FC93
  8
0
 10
7848.1779530143439843
 20
1818.1404831397899216
 30
0.0
 11
7848.1779530143439843
 21
1818.152802298890947
 31
0.0
  0
LINE
  5
FC94
  8
0
 10
7848.1877955340441986
 20
1818.1404831397899216
 30
0.0
 11
7848.1877955340441986
 21
1818.152802298890947
 31
0.0
  0
ARC
  5
FC95
  8
0
 10
7848.1847367265427238
 20
1818.1413897611159882
 30
0.0
 40
0.0068440275731964
 50
187.6122883987505077
 51
254.2090587875646861
  0
ARC
  5
FC96
  8
0
 10
7848.1810193451819941
 20
1818.1413832417110825
 30
0.0
 40
0.0068357091038768
 50
285.7451327697324928
 51
352.4335211962991252
  0
LINE
  5
FC97
  8
0
 10
7848.1945351522435885
 20
1818.1548642784910044
 30
0.0
 11
7848.2114175813430847
 21
1818.1496991156900549
 31
0.0
  0
LINE
  5
FC98
  8
0
 10
7848.2114175813430847
 20
1818.1496991156900549
 30
0.0
 11
7848.2283000103443555
 21
1818.1548642784910044
 31
0.0
  0
LINE
  5
FC99
  8
0
 10
7848.1828742742427494
 20
1818.1338310499909312
 30
0.0
 11
7848.2085365863440529
 21
1818.1259820723898883
 31
0.0
  0
LINE
  5
FC9A
  8
0
 10
7848.2142983263438509
 20
1818.1259812459900331
 30
0.0
 11
7848.2399608884434201
 21
1818.1338310499909312
 31
0.0
  0
LINE
  5
FC9B
  8
0
 10
7848.2399608884434201
 20
1818.1338310499909312
 30
0.0
 11
7848.2399608885361886
 21
1818.1348040201180538
 31
0.0
  0
ARC
  5
FC9C
  8
0
 10
7848.2098292097225567
 20
1818.1308053547829786
 30
0.0
 40
0.0049934885835253
 50
254.9974646601885979
 51
288.5473687573069128
  0
ARC
  5
FC9D
  8
0
 10
7848.2130077804758912
 20
1818.1308231527930275
 30
0.0
 40
0.0050109450331139
 50
251.4975531067181009
 51
284.9244648778225724
  0
LINE
  5
FC9E
  8
0
 10
7848.2114175813430847
 20
1818.1260712229909586
 30
0.0
 11
7848.2114175813430847
 21
1818.1496991156900549
 31
0.0
  0
LINE
  5
FC9F
  8
0
 10
7848.2350396285437455
 20
1818.1404831397899216
 30
0.0
 11
7848.2350396285437455
 21
1818.152802298890947
 31
0.0
  0
LINE
  5
FCA0
  8
0
 10
7848.2448821482430503
 20
1818.1404831397899216
 30
0.0
 11
7848.2448821482430503
 21
1818.152802298890947
 31
0.0
  0
ARC
  5
FCA1
  8
0
 10
7848.2418233407415755
 20
1818.1413897611159882
 30
0.0
 40
0.0068440275731964
 50
187.6122883987505077
 51
254.2090587875646861
  0
ARC
  5
FCA2
  8
0
 10
7848.2381059593808459
 20
1818.1413832417110825
 30
0.0
 40
0.0068357091038768
 50
285.7451327697324928
 51
352.4335211962991252
  0
LINE
  5
FCA3
  8
0
 10
7848.2350396285437455
 20
1818.1928799224899649
 30
0.0
 11
7848.2350396285437455
 21
1818.2046988344500278
 31
0.0
  0
LINE
  5
FCA4
  8
0
 10
7848.2448821482430503
 20
1818.1928799224899649
 30
0.0
 11
7848.2448821482430503
 21
1818.2051990815909903
 31
0.0
  0
ARC
  5
FCA5
  8
0
 10
7848.2418233407415755
 20
1818.1937865438160316
 30
0.0
 40
0.0068440275731964
 50
187.6122883987505077
 51
254.2090587875646861
  0
ARC
  5
FCA6
  8
0
 10
7848.2381059593808459
 20
1818.1937800244108985
 30
0.0
 40
0.0068357091038768
 50
285.7451327697324928
 51
352.4335211962991252
  0
LINE
  5
FCA7
  8
0
 10
7848.2399569409426476
 20
1818.1862290068900165
 30
0.0
 11
7848.2399608884434201
 21
1818.1872008027899028
 31
0.0
  0
LINE
  5
FCA8
  8
0
 10
7848.2516217664433498
 20
1818.2072610611910477
 30
0.0
 11
7848.2685041955437555
 21
1818.2020958983900982
 31
0.0
  0
LINE
  5
FCA9
  8
0
 10
7848.2685041955437555
 20
1818.2020958983900982
 30
0.0
 11
7848.2853866245432073
 21
1818.2072610611910477
 31
0.0
  0
LINE
  5
FCAA
  8
0
 10
7848.2399569409426476
 20
1818.1862290068900165
 30
0.0
 11
7848.2656232005438142
 21
1818.1783788550899317
 31
0.0
  0
LINE
  5
FCAB
  8
0
 10
7848.2713849405436122
 20
1818.1783780286900765
 30
0.0
 11
7848.2970475026440909
 21
1818.1862278326909745
 31
0.0
  0
LINE
  5
FCAC
  8
0
 10
7848.2970475026440909
 20
1818.1862278326909745
 30
0.0
 11
7848.2970475027359498
 21
1818.1872008028180971
 31
0.0
  0
ARC
  5
FCAD
  8
0
 10
7848.2669158239223179
 20
1818.1832021374830219
 30
0.0
 40
0.0049934885835253
 50
254.9974646601885979
 51
288.5473687573069128
  0
ARC
  5
FCAE
  8
0
 10
7848.2700943946747429
 20
1818.1832199354930708
 30
0.0
 40
0.0050109450331139
 50
251.4975531067181009
 51
284.9244648778225724
  0
LINE
  5
FCAF
  8
0
 10
7848.2685041955437555
 20
1818.1784680056900925
 30
0.0
 11
7848.2685041955437555
 21
1818.2020958983900982
 31
0.0
  0
LINE
  5
FCB0
  8
0
 10
7848.2921262427444162
 20
1818.1928799224899649
 30
0.0
 11
7848.2921262427444162
 21
1818.2051990815909903
 31
0.0
  0
LINE
  5
FCB1
  8
0
 10
7848.3019687624428116
 20
1818.1928799224899649
 30
0.0
 11
7848.3019687624428116
 21
1818.2051990815909903
 31
0.0
  0
ARC
  5
FCB2
  8
0
 10
7848.2989099549431558
 20
1818.1937865438160316
 30
0.0
 40
0.0068440275731964
 50
187.6122883987505077
 51
254.2090587875646861
  0
ARC
  5
FCB3
  8
0
 10
7848.2951925735833356
 20
1818.1937800244108985
 30
0.0
 40
0.0068357091038768
 50
285.7451327697324928
 51
352.4335211962991252
  0
LINE
  5
FCB4
  8
0
 10
7848.0923230930447971
 20
1818.1142847484909453
 30
0.0
 11
7848.0923230930447971
 21
1818.1266039075899243
 31
0.0
  0
LINE
  5
FCB5
  8
0
 10
7848.1021656127431925
 20
1818.1142847484909453
 30
0.0
 11
7848.1021656127431925
 21
1818.1266039075899243
 31
0.0
  0
ARC
  5
FCB6
  8
0
 10
7848.0991068052426272
 20
1818.1151913698161025
 30
0.0
 40
0.0068440275731964
 50
187.6122883987505077
 51
254.2090587875646861
  0
ARC
  5
FCB7
  8
0
 10
7848.0953894238818975
 20
1818.1151848504109694
 30
0.0
 40
0.0068357091038768
 50
285.7451327697324928
 51
352.4335211962991252
  0
LINE
  5
FCB8
  8
0
 10
7848.0972404054436993
 20
1818.1076338328909969
 30
0.0
 11
7848.0972443529435623
 21
1818.1086056287899737
 31
0.0
  0
LINE
  5
FCB9
  8
0
 10
7848.1089052309444014
 20
1818.1286658871899817
 30
0.0
 11
7848.1257876600438976
 21
1818.1235007243899418
 31
0.0
  0
LINE
  5
FCBA
  8
0
 10
7848.1257876600438976
 20
1818.1235007243899418
 30
0.0
 11
7848.1426700890433494
 21
1818.1286658871899817
 31
0.0
  0
LINE
  5
FCBB
  8
0
 10
7848.0972404054436993
 20
1818.1076338328909969
 30
0.0
 11
7848.1229066650439563
 21
1818.0997836810900026
 31
0.0
  0
LINE
  5
FCBC
  8
0
 10
7848.1286684050446638
 20
1818.09978285468992
 30
0.0
 11
7848.154330967144233
 21
1818.1076326586910454
 31
0.0
  0
LINE
  5
FCBD
  8
0
 10
7848.154330967144233
 20
1818.1076326586910454
 30
0.0
 11
7848.1543309672351825
 21
1818.1086056288179407
 31
0.0
  0
ARC
  5
FCBE
  8
0
 10
7848.1241992884215506
 20
1818.1046069634830928
 30
0.0
 40
0.0049934885835253
 50
254.9974646601885979
 51
288.5473687573069128
  0
ARC
  5
FCBF
  8
0
 10
7848.1273778591748851
 20
1818.1046247614929143
 30
0.0
 40
0.0050109450331139
 50
251.4975531067181009
 51
284.9244648778225724
  0
LINE
  5
FCC0
  8
0
 10
7848.1257876600438976
 20
1818.099872831689936
 30
0.0
 11
7848.1257876600438976
 21
1818.1235007243899418
 31
0.0
  0
LINE
  5
FCC1
  8
0
 10
7848.1494097072436489
 20
1818.1142847484909453
 30
0.0
 11
7848.1494097072436489
 21
1818.1266039075899243
 31
0.0
  0
LINE
  5
FCC2
  8
0
 10
7848.1592522269438632
 20
1818.1142847484909453
 30
0.0
 11
7848.1592522269438632
 21
1818.1266039075899243
 31
0.0
  0
ARC
  5
FCC3
  8
0
 10
7848.1561934194432979
 20
1818.1151913698161025
 30
0.0
 40
0.0068440275731964
 50
187.6122883987505077
 51
254.2090587875646861
  0
ARC
  5
FCC4
  8
0
 10
7848.1524760380816588
 20
1818.1151848504109694
 30
0.0
 40
0.0068357091038768
 50
285.7451327697324928
 51
352.4335211962991252
  0
LINE
  5
FCC5
  8
0
 10
7848.0923230930447971
 20
1818.0618879657909019
 30
0.0
 11
7848.0923230930447971
 21
1818.0742071248901084
 31
0.0
  0
LINE
  5
FCC6
  8
0
 10
7848.1021656127431925
 20
1818.0618879657909019
 30
0.0
 11
7848.1021656127431925
 21
1818.0742071248901084
 31
0.0
  0
ARC
  5
FCC7
  8
0
 10
7848.0991068052426272
 20
1818.0627945871160591
 30
0.0
 40
0.0068440275731964
 50
187.6122883987505077
 51
254.2090587875646861
  0
ARC
  5
FCC8
  8
0
 10
7848.0953894238818975
 20
1818.062788067710926
 30
0.0
 40
0.0068357091038768
 50
285.7451327697324928
 51
352.4335211962991252
  0
LINE
  5
FCC9
  8
0
 10
7848.0972404054436993
 20
1818.0552370501909536
 30
0.0
 11
7848.0972443529435623
 21
1818.0562088460899304
 31
0.0
  0
LINE
  5
FCCA
  8
0
 10
7848.1089052309444014
 20
1818.0762691044899384
 30
0.0
 11
7848.1257876600438976
 21
1818.0711039416898984
 31
0.0
  0
LINE
  5
FCCB
  8
0
 10
7848.1257876600438976
 20
1818.0711039416898984
 30
0.0
 11
7848.1426700890433494
 21
1818.0762691044899384
 31
0.0
  0
LINE
  5
FCCC
  8
0
 10
7848.0972404054436993
 20
1818.0552370501909536
 30
0.0
 11
7848.1229066650439563
 21
1818.0473868983899592
 31
0.0
  0
LINE
  5
FCCD
  8
0
 10
7848.1286684050446638
 20
1818.0473860719910135
 30
0.0
 11
7848.154330967144233
 21
1818.0552358759910021
 31
0.0
  0
LINE
  5
FCCE
  8
0
 10
7848.154330967144233
 20
1818.0552358759910021
 30
0.0
 11
7848.1543309672351825
 21
1818.0562088461190342
 31
0.0
  0
ARC
  5
FCCF
  8
0
 10
7848.1241992884215506
 20
1818.0522101807819126
 30
0.0
 40
0.0049934885835253
 50
254.9974646601885979
 51
288.5473687573069128
  0
ARC
  5
FCD0
  8
0
 10
7848.1273778591748851
 20
1818.0522279787930984
 30
0.0
 40
0.0050109450331139
 50
251.4975531067181009
 51
284.9244648778225724
  0
LINE
  5
FCD1
  8
0
 10
7848.1257876600438976
 20
1818.0474760489910295
 30
0.0
 11
7848.1257876600438976
 21
1818.0711039416898984
 31
0.0
  0
LINE
  5
FCD2
  8
0
 10
7848.1494097072436489
 20
1818.0618879657909019
 30
0.0
 11
7848.1494097072436489
 21
1818.0742071248901084
 31
0.0
  0
LINE
  5
FCD3
  8
0
 10
7848.1592522269438632
 20
1818.0618879657909019
 30
0.0
 11
7848.1592522269438632
 21
1818.0742071248901084
 31
0.0
  0
ARC
  5
FCD4
  8
0
 10
7848.1561934194432979
 20
1818.0627945871160591
 30
0.0
 40
0.0068440275731964
 50
187.6122883987505077
 51
254.2090587875646861
  0
ARC
  5
FCD5
  8
0
 10
7848.1524760380816588
 20
1818.062788067710926
 30
0.0
 40
0.0068357091038768
 50
285.7451327697324928
 51
352.4335211962991252
  0
LINE
  5
FCD6
  8
0
 10
7848.2350396285437455
 20
1817.9832927917900633
 30
0.0
 11
7848.2350396285437455
 21
1817.9956119508899519
 31
0.0
  0
LINE
  5
FCD7
  8
0
 10
7848.2448821482430503
 20
1817.9832927917900633
 30
0.0
 11
7848.2448821482430503
 21
1817.9956119508899519
 31
0.0
  0
ARC
  5
FCD8
  8
0
 10
7848.2418233407415755
 20
1817.9841994131159026
 30
0.0
 40
0.0068440275731964
 50
187.6122883987505077
 51
254.2090587875646861
  0
ARC
  5
FCD9
  8
0
 10
7848.2381059593808459
 20
1817.9841928937109969
 30
0.0
 40
0.0068357091038768
 50
285.7451327697324928
 51
352.4335211962991252
  0
LINE
  5
FCDA
  8
0
 10
7848.2399569409426476
 20
1817.9766418761910245
 30
0.0
 11
7848.2399608884434201
 21
1817.9776136720900013
 31
0.0
  0
LINE
  5
FCDB
  8
0
 10
7848.2516217664433498
 20
1817.9976739304900093
 30
0.0
 11
7848.2685041955437555
 21
1817.9925087676899693
 31
0.0
  0
LINE
  5
FCDC
  8
0
 10
7848.2685041955437555
 20
1817.9925087676899693
 30
0.0
 11
7848.2853866245432073
 21
1817.9976739304900093
 31
0.0
  0
LINE
  5
FCDD
  8
0
 10
7848.2399569409426476
 20
1817.9766418761910245
 30
0.0
 11
7848.2656232005438142
 21
1817.9687917243909396
 31
0.0
  0
LINE
  5
FCDE
  8
0
 10
7848.2713849405436122
 20
1817.9687908979899476
 30
0.0
 11
7848.2970475026440909
 21
1817.9766407019899361
 31
0.0
  0
LINE
  5
FCDF
  8
0
 10
7848.2970475026440909
 20
1817.9766407019899361
 30
0.0
 11
7848.2970475027359498
 21
1817.9776136721191051
 31
0.0
  0
ARC
  5
FCE0
  8
0
 10
7848.2669158239223179
 20
1817.973615006782893
 30
0.0
 40
0.0049934885835253
 50
254.9974646601885979
 51
288.5473687573069128
  0
ARC
  5
FCE1
  8
0
 10
7848.2700943946747429
 20
1817.9736328047929419
 30
0.0
 40
0.0050109450331139
 50
251.4975531067181009
 51
284.9244648778225724
  0
LINE
  5
FCE2
  8
0
 10
7848.2685041955437555
 20
1817.9688808749899636
 30
0.0
 11
7848.2685041955437555
 21
1817.9925087676899693
 31
0.0
  0
LINE
  5
FCE3
  8
0
 10
7848.2921262427444162
 20
1817.9832927917900633
 30
0.0
 11
7848.2921262427444162
 21
1817.9956119508899519
 31
0.0
  0
LINE
  5
FCE4
  8
0
 10
7848.3019687624428116
 20
1817.9832927917900633
 30
0.0
 11
7848.3019687624428116
 21
1817.9956119508899519
 31
0.0
  0
ARC
  5
FCE5
  8
0
 10
7848.2989099549431558
 20
1817.9841994131159026
 30
0.0
 40
0.0068440275731964
 50
187.6122883987505077
 51
254.2090587875646861
  0
ARC
  5
FCE6
  8
0
 10
7848.2951925735833356
 20
1817.9841928937109969
 30
0.0
 40
0.0068357091038768
 50
285.7451327697324928
 51
352.4335211962991252
  0
LINE
  5
FCE7
  8
0
 10
7848.2801650734436407
 20
1818.1810626697908901
 30
0.0
 11
7848.2970475025440464
 21
1818.1758975069899407
 31
0.0
  0
LINE
  5
FCE8
  8
0
 10
7848.2970475025440464
 20
1818.1758975069899407
 30
0.0
 11
7848.3113382285846455
 21
1818.1802697407808864
 31
0.0
  0
ARC
  5
FCE9
  8
0
 10
7848.2986377016759434
 20
1818.1570215440929132
 30
0.0
 40
0.0050109450331139
 50
251.4975531067181009
 51
284.9244648778225724
  0
LINE
  5
FCEA
  8
0
 10
7848.2970475025440464
 20
1818.1522696142899349
 30
0.0
 11
7848.2970475025440464
 21
1818.1758975069899407
 31
0.0
  0
LINE
  5
FCEB
  8
0
 10
7848.2516217664433498
 20
1818.1548642784910044
 30
0.0
 11
7848.2685041955437555
 21
1818.1496991156900549
 31
0.0
  0
LINE
  5
FCEC
  8
0
 10
7848.2685041955437555
 20
1818.1496991156900549
 30
0.0
 11
7848.2853866245432073
 21
1818.1548642784910044
 31
0.0
  0
LINE
  5
FCED
  8
0
 10
7848.2713849405436122
 20
1818.1259812459900331
 30
0.0
 11
7848.2970475026440909
 21
1818.1338310499909312
 31
0.0
  0
LINE
  5
FCEE
  8
0
 10
7848.2970475026440909
 20
1818.1338310499909312
 30
0.0
 11
7848.2970475027359498
 21
1818.1348040201180538
 31
0.0
  0
ARC
  5
FCEF
  8
0
 10
7848.2700943946747429
 20
1818.1308231527930275
 30
0.0
 40
0.0050109450331139
 50
251.4975531067181009
 51
284.9244648778225724
  0
LINE
  5
FCF0
  8
0
 10
7848.2685041955437555
 20
1818.1260712229909586
 30
0.0
 11
7848.2685041955437555
 21
1818.1496991156900549
 31
0.0
  0
LINE
  5
FCF1
  8
0
 10
7848.2921262427444162
 20
1818.1404831397899216
 30
0.0
 11
7848.2921262427444162
 21
1818.152802298890947
 31
0.0
  0
LINE
  5
FCF2
  8
0
 10
7848.3019687624428116
 20
1818.1404831397899216
 30
0.0
 11
7848.3019687624428116
 21
1818.152802298890947
 31
0.0
  0
ARC
  5
FCF3
  8
0
 10
7848.2989099549431558
 20
1818.1413897611159882
 30
0.0
 40
0.0068440275731964
 50
187.6122883987505077
 51
254.2090587875646861
  0
ARC
  5
FCF4
  8
0
 10
7848.2951925735833356
 20
1818.1413832417110825
 30
0.0
 40
0.0068357091038768
 50
285.7451327697324928
 51
352.4335211962991252
  0
LINE
  5
FCF5
  8
0
 10
7848.2516217664433498
 20
1818.102467495790961
 30
0.0
 11
7848.2685041955437555
 21
1818.0973023329900116
 31
0.0
  0
LINE
  5
FCF6
  8
0
 10
7848.2685041955437555
 20
1818.0973023329900116
 30
0.0
 11
7848.2853866245432073
 21
1818.102467495790961
 31
0.0
  0
LINE
  5
FCF7
  8
0
 10
7848.2713849405436122
 20
1818.0735844632899898
 30
0.0
 11
7848.2970475026440909
 21
1818.0814342672899784
 31
0.0
  0
LINE
  5
FCF8
  8
0
 10
7848.2970475026440909
 20
1818.0814342672899784
 30
0.0
 11
7848.2970475027359498
 21
1818.0824072374180105
 31
0.0
  0
ARC
  5
FCF9
  8
0
 10
7848.2700943946747429
 20
1818.0784263700929841
 30
0.0
 40
0.0050109450331139
 50
251.4975531067181009
 51
284.9244648778225724
  0
LINE
  5
FCFA
  8
0
 10
7848.2685041955437555
 20
1818.0736744402900058
 30
0.0
 11
7848.2685041955437555
 21
1818.0973023329900116
 31
0.0
  0
LINE
  5
FCFB
  8
0
 10
7848.2921262427444162
 20
1818.0880863570901056
 30
0.0
 11
7848.2921262427444162
 21
1818.1004055161899942
 31
0.0
  0
ARC
  5
FCFC
  8
0
 10
7848.2989099549431558
 20
1818.0889929784159449
 30
0.0
 40
0.0068440275731964
 50
187.6122883987505077
 51
254.2090587875646861
  0
LINE
  5
FCFD
  8
0
 10
7848.2801650734436407
 20
1818.1286658871899817
 30
0.0
 11
7848.2970475025440464
 21
1818.1235007243899418
 31
0.0
  0
LINE
  5
FCFE
  8
0
 10
7848.2970475025440464
 20
1818.1235007243899418
 30
0.0
 11
7848.3113382284473118
 21
1818.1278729581379139
 31
0.0
  0
LINE
  5
FCFF
  8
0
 10
7848.2999282475448126
 20
1818.09978285468992
 30
0.0
 11
7848.3187563220290031
 21
1818.1075763648209431
 31
0.0
  0
ARC
  5
FD00
  8
0
 10
7848.2986377016759434
 20
1818.1046247614929143
 30
0.0
 40
0.0050109450331139
 50
251.4975531067181009
 51
284.9244648778225724
  0
LINE
  5
FD01
  8
0
 10
7848.2970475025440464
 20
1818.099872831689936
 30
0.0
 11
7848.2970475025440464
 21
1818.1235007243899418
 31
0.0
  0
LINE
  5
FD02
  8
0
 10
7848.2801650734436407
 20
1818.0762691044899384
 30
0.0
 11
7848.2970475025440464
 21
1818.0711039416898984
 31
0.0
  0
LINE
  5
FD03
  8
0
 10
7848.2970475025440464
 20
1818.0711039416898984
 30
0.0
 11
7848.3113382284473118
 21
1818.0754761754380979
 31
0.0
  0
ARC
  5
FD04
  8
0
 10
7848.2986377016759434
 20
1818.0522279787930984
 30
0.0
 40
0.0050109450331139
 50
251.4975531067181009
 51
284.9244648778225724
  0
LINE
  5
FD05
  8
0
 10
7848.2970475025440464
 20
1818.0474760489910295
 30
0.0
 11
7848.2970475025440464
 21
1818.0711039416898984
 31
0.0
  0
LINE
  5
FD06
  8
0
 10
7848.2516217664433498
 20
1818.0500707131900526
 30
0.0
 11
7848.2685041955437555
 21
1818.0449055503900126
 31
0.0
  0
LINE
  5
FD07
  8
0
 10
7848.2685041955437555
 20
1818.0449055503900126
 30
0.0
 11
7848.2853866245432073
 21
1818.0500707131900526
 31
0.0
  0
LINE
  5
FD08
  8
0
 10
7848.2713849405436122
 20
1818.0211876806899909
 30
0.0
 11
7848.2970475026440909
 21
1818.0290374846899795
 31
0.0
  0
LINE
  5
FD09
  8
0
 10
7848.2970475026440909
 20
1818.0290374846899795
 30
0.0
 11
7848.2970475027359498
 21
1818.0300104548180116
 31
0.0
  0
ARC
  5
FD0A
  8
0
 10
7848.2700943946747429
 20
1818.0260295874929852
 30
0.0
 40
0.0050109450331139
 50
251.4975531067181009
 51
284.9244648778225724
  0
LINE
  5
FD0B
  8
0
 10
7848.2685041955437555
 20
1818.0212776576900069
 30
0.0
 11
7848.2685041955437555
 21
1818.0449055503900126
 31
0.0
  0
LINE
  5
FD0C
  8
0
 10
7848.2921262427444162
 20
1818.0356895744910162
 30
0.0
 11
7848.2921262427444162
 21
1818.0480087335899952
 31
0.0
  0
LINE
  5
FD0D
  8
0
 10
7848.3019687624428116
 20
1818.0356895744910162
 30
0.0
 11
7848.3019687624428116
 21
1818.0482248792829978
 31
0.0
  0
ARC
  5
FD0E
  8
0
 10
7848.2989099549431558
 20
1818.036596195815946
 30
0.0
 40
0.0068440275731964
 50
187.6122883987505077
 51
254.2090587875646861
  0
ARC
  5
FD0F
  8
0
 10
7848.2951925735833356
 20
1818.0365896764110403
 30
0.0
 40
0.0068357091038768
 50
285.7451327697324928
 51
352.4335211962991252
  0
LINE
  5
FD10
  8
0
 10
7848.2801650734436407
 20
1818.0238723217910319
 30
0.0
 11
7848.2970475025440464
 21
1818.0187071589900825
 31
0.0
  0
LINE
  5
FD11
  8
0
 10
7848.2970475025440464
 20
1818.0187071589900825
 30
0.0
 11
7848.3126197341316583
 21
1818.0234714681610058
 31
0.0
  0
LINE
  5
FD12
  8
0
 10
7848.2999282475448126
 20
1817.9949892892909702
 30
0.0
 11
7848.3187563220280936
 21
1818.0007485230660222
 31
0.0
  0
ARC
  5
FD13
  8
0
 10
7848.2986377016759434
 20
1817.999831196093055
 30
0.0
 40
0.0050109450331139
 50
251.4975531067181009
 51
284.9244648778225724
  0
LINE
  5
FD14
  8
0
 10
7848.2970475025440464
 20
1817.9950792662900767
 30
0.0
 11
7848.2970475025440464
 21
1818.0187071589900825
 31
0.0
  0
LINE
  5
FD15
  8
0
 10
7848.0803619238449755
 20
1818.102467495790961
 30
0.0
 11
7848.0972443529435623
 21
1818.0973023329900116
 31
0.0
  0
LINE
  5
FD16
  8
0
 10
7848.0972443529435623
 20
1818.0973023329900116
 30
0.0
 11
7848.1141267819430141
 21
1818.102467495790961
 31
0.0
  0
LINE
  5
FD17
  8
0
 10
7848.0660062472097707
 20
1818.0822422258900133
 30
0.0
 11
7848.0943633579436209
 21
1818.0735852896900724
 31
0.0
  0
LINE
  5
FD18
  8
0
 10
7848.100125097943419
 20
1818.0735844632899898
 30
0.0
 11
7848.1257876600438976
 21
1818.0814342672899784
 31
0.0
  0
ARC
  5
FD19
  8
0
 10
7848.0956559813221247
 20
1818.0784085720820258
 30
0.0
 40
0.0049934885835253
 50
254.9974646601885979
 51
288.5473687573069128
  0
ARC
  5
FD1A
  8
0
 10
7848.0988345520736402
 20
1818.0784263700929841
 30
0.0
 40
0.0050109450331139
 50
251.4975531067181009
 51
284.9244648778225724
  0
LINE
  5
FD1B
  8
0
 10
7848.0972443529435623
 20
1818.0736744402900058
 30
0.0
 11
7848.0972443529435623
 21
1818.0973023329900116
 31
0.0
  0
LINE
  5
FD1C
  8
0
 10
7848.1208664001433135
 20
1818.1404831397899216
 30
0.0
 11
7848.1208664001433135
 21
1818.152802298890947
 31
0.0
  0
LINE
  5
FD1D
  8
0
 10
7848.1307089198426183
 20
1818.1404831397899216
 30
0.0
 11
7848.1307089198426183
 21
1818.152802298890947
 31
0.0
  0
ARC
  5
FD1E
  8
0
 10
7848.127650112342053
 20
1818.1413897611159882
 30
0.0
 40
0.0068440275731964
 50
187.6122883987505077
 51
254.2090587875646861
  0
ARC
  5
FD1F
  8
0
 10
7848.1239327309822329
 20
1818.1413832417110825
 30
0.0
 40
0.0068357091038768
 50
285.7451327697324928
 51
352.4335211962991252
  0
LINE
  5
FD20
  8
0
 10
7848.1257837125440346
 20
1818.1338322241899732
 30
0.0
 11
7848.1257876600438976
 21
1818.1348040200900869
 31
0.0
  0
LINE
  5
FD21
  8
0
 10
7848.1374485380438273
 20
1818.1548642784910044
 30
0.0
 11
7848.154330967144233
 21
1818.1496991156900549
 31
0.0
  0
LINE
  5
FD22
  8
0
 10
7848.154330967144233
 20
1818.1496991156900549
 30
0.0
 11
7848.1712133961436848
 21
1818.1548642784910044
 31
0.0
  0
LINE
  5
FD23
  8
0
 10
7848.1257837125440346
 20
1818.1338322241899732
 30
0.0
 11
7848.1514499721442917
 21
1818.1259820723898883
 31
0.0
  0
LINE
  5
FD24
  8
0
 10
7848.1572117121431802
 20
1818.1259812459900331
 30
0.0
 11
7848.1828742742427494
 21
1818.1338310499909312
 31
0.0
  0
LINE
  5
FD25
  8
0
 10
7848.1828742742427494
 20
1818.1338310499909312
 30
0.0
 11
7848.1828742743364273
 21
1818.1348040201180538
 31
0.0
  0
ARC
  5
FD26
  8
0
 10
7848.152742595521886
 20
1818.1308053547829786
 30
0.0
 40
0.0049934885835253
 50
254.9974646601885979
 51
288.5473687573069128
  0
ARC
  5
FD27
  8
0
 10
7848.155921166274311
 20
1818.1308231527930275
 30
0.0
 40
0.0050109450331139
 50
251.4975531067181009
 51
284.9244648778225724
  0
LINE
  5
FD28
  8
0
 10
7848.154330967144233
 20
1818.1260712229909586
 30
0.0
 11
7848.154330967144233
 21
1818.1496991156900549
 31
0.0
  0
LINE
  5
FD29
  8
0
 10
7848.1208664001433135
 20
1818.0880863570901056
 30
0.0
 11
7848.1208664001433135
 21
1818.1004055161899942
 31
0.0
  0
LINE
  5
FD2A
  8
0
 10
7848.1307089198426183
 20
1818.0880863570901056
 30
0.0
 11
7848.1307089198426183
 21
1818.1004055161899942
 31
0.0
  0
ARC
  5
FD2B
  8
0
 10
7848.127650112342053
 20
1818.0889929784159449
 30
0.0
 40
0.0068440275731964
 50
187.6122883987505077
 51
254.2090587875646861
  0
ARC
  5
FD2C
  8
0
 10
7848.1239327309822329
 20
1818.0889864590110392
 30
0.0
 40
0.0068357091038768
 50
285.7451327697324928
 51
352.4335211962991252
  0
LINE
  5
FD2D
  8
0
 10
7848.1257837125440346
 20
1818.0814354414899299
 30
0.0
 11
7848.1257876600438976
 21
1818.0824072373900435
 31
0.0
  0
LINE
  5
FD2E
  8
0
 10
7848.1374485380438273
 20
1818.102467495790961
 30
0.0
 11
7848.154330967144233
 21
1818.0973023329900116
 31
0.0
  0
LINE
  5
FD2F
  8
0
 10
7848.154330967144233
 20
1818.0973023329900116
 30
0.0
 11
7848.1712133961436848
 21
1818.102467495790961
 31
0.0
  0
LINE
  5
FD30
  8
0
 10
7848.1257837125440346
 20
1818.0814354414899299
 30
0.0
 11
7848.1514499721442917
 21
1818.0735852896900724
 31
0.0
  0
LINE
  5
FD31
  8
0
 10
7848.1572117121431802
 20
1818.0735844632899898
 30
0.0
 11
7848.1828742742427494
 21
1818.0814342672899784
 31
0.0
  0
LINE
  5
FD32
  8
0
 10
7848.1828742742427494
 20
1818.0814342672899784
 30
0.0
 11
7848.1828742743364273
 21
1818.0824072374180105
 31
0.0
  0
ARC
  5
FD33
  8
0
 10
7848.152742595521886
 20
1818.0784085720820258
 30
0.0
 40
0.0049934885835253
 50
254.9974646601885979
 51
288.5473687573069128
  0
ARC
  5
FD34
  8
0
 10
7848.155921166274311
 20
1818.0784263700929841
 30
0.0
 40
0.0050109450331139
 50
251.4975531067181009
 51
284.9244648778225724
  0
LINE
  5
FD35
  8
0
 10
7848.154330967144233
 20
1818.0736744402900058
 30
0.0
 11
7848.154330967144233
 21
1818.0973023329900116
 31
0.0
  0
LINE
  5
FD36
  8
0
 10
7848.1208664001433135
 20
1818.0356895744910162
 30
0.0
 11
7848.1208664001433135
 21
1818.0480087335899952
 31
0.0
  0
LINE
  5
FD37
  8
0
 10
7848.1307089198426183
 20
1818.0356895744910162
 30
0.0
 11
7848.1307089198426183
 21
1818.0480087335899952
 31
0.0
  0
ARC
  5
FD38
  8
0
 10
7848.127650112342053
 20
1818.036596195815946
 30
0.0
 40
0.0068440275731964
 50
187.6122883987505077
 51
254.2090587875646861
  0
ARC
  5
FD39
  8
0
 10
7848.1239327309822329
 20
1818.0365896764110403
 30
0.0
 40
0.0068357091038768
 50
285.7451327697324928
 51
352.4335211962991252
  0
LINE
  5
FD3A
  8
0
 10
7848.1257837125440346
 20
1818.029038658889931
 30
0.0
 11
7848.1257876600438976
 21
1818.0300104547909541
 31
0.0
  0
LINE
  5
FD3B
  8
0
 10
7848.1374485380438273
 20
1818.0500707131900526
 30
0.0
 11
7848.154330967144233
 21
1818.0449055503900126
 31
0.0
  0
LINE
  5
FD3C
  8
0
 10
7848.154330967144233
 20
1818.0449055503900126
 30
0.0
 11
7848.1712133961436848
 21
1818.0500707131900526
 31
0.0
  0
LINE
  5
FD3D
  8
0
 10
7848.1257837125440346
 20
1818.029038658889931
 30
0.0
 11
7848.1514499721442917
 21
1818.0211885070900735
 31
0.0
  0
LINE
  5
FD3E
  8
0
 10
7848.1572117121431802
 20
1818.0211876806899909
 30
0.0
 11
7848.1828703267437959
 21
1818.029038658889931
 31
0.0
  0
ARC
  5
FD3F
  8
0
 10
7848.152742595521886
 20
1818.0260117894829364
 30
0.0
 40
0.0049934885835253
 50
254.9974646601885979
 51
288.5473687573069128
  0
ARC
  5
FD40
  8
0
 10
7848.155921166274311
 20
1818.0260295874929852
 30
0.0
 40
0.0050109450331139
 50
251.4975531067181009
 51
284.9244648778225724
  0
LINE
  5
FD41
  8
0
 10
7848.154330967144233
 20
1818.0212776576900069
 30
0.0
 11
7848.154330967144233
 21
1818.0449055503900126
 31
0.0
  0
LINE
  5
FD42
  8
0
 10
7848.1494097072436489
 20
1818.0094911830899491
 30
0.0
 11
7848.1494097072436489
 21
1818.0218103421900651
 31
0.0
  0
LINE
  5
FD43
  8
0
 10
7848.1592522269438632
 20
1818.0094911830899491
 30
0.0
 11
7848.1592522269438632
 21
1818.0218103421900651
 31
0.0
  0
ARC
  5
FD44
  8
0
 10
7848.1561934194432979
 20
1818.0103978044160158
 30
0.0
 40
0.0068440275731964
 50
187.6122883987505077
 51
254.2090587875646861
  0
ARC
  5
FD45
  8
0
 10
7848.1524760380816588
 20
1818.0103912850111101
 30
0.0
 40
0.0068357091038768
 50
285.7451327697324928
 51
352.4335211962991252
  0
LINE
  5
FD46
  8
0
 10
7848.15432701964437
 20
1818.0028402674900008
 30
0.0
 11
7848.154330967144233
 21
1818.003812063389887
 31
0.0
  0
LINE
  5
FD47
  8
0
 10
7848.1659918451423437
 20
1818.0238723217910319
 30
0.0
 11
7848.1828742742427494
 21
1818.0187071589900825
 31
0.0
  0
LINE
  5
FD48
  8
0
 10
7848.1828742742427494
 20
1818.0187071589900825
 30
0.0
 11
7848.1997567032440202
 21
1818.0238723217910319
 31
0.0
  0
LINE
  5
FD49
  8
0
 10
7848.15432701964437
 20
1818.0028402674900008
 30
0.0
 11
7848.1799932792437176
 21
1817.9949901156899159
 31
0.0
  0
LINE
  5
FD4A
  8
0
 10
7848.1857550192426061
 20
1817.9949892892909702
 30
0.0
 11
7848.2114136338441313
 21
1818.0028402674900008
 31
0.0
  0
ARC
  5
FD4B
  8
0
 10
7848.1812859026222213
 20
1817.9998133980830062
 30
0.0
 40
0.0049934885835253
 50
254.9974646601885979
 51
288.5473687573069128
  0
ARC
  5
FD4C
  8
0
 10
7848.1844644733755558
 20
1817.999831196093055
 30
0.0
 40
0.0050109450331139
 50
251.4975531067181009
 51
284.9244648778225724
  0
LINE
  5
FD4D
  8
0
 10
7848.1828742742427494
 20
1817.9950792662900767
 30
0.0
 11
7848.1828742742427494
 21
1818.0187071589900825
 31
0.0
  0
LINE
  5
FD4E
  8
0
 10
7848.1494097072436489
 20
1818.1666815310900347
 30
0.0
 11
7848.1494097072436489
 21
1818.177631102586929
 31
0.0
  0
LINE
  5
FD4F
  8
0
 10
7848.1592522269438632
 20
1818.1666815310900347
 30
0.0
 11
7848.1592522269438632
 21
1818.1790006901899233
 31
0.0
  0
ARC
  5
FD50
  8
0
 10
7848.1561934194432979
 20
1818.1675881524161014
 30
0.0
 40
0.0068440275731964
 50
187.6122883987505077
 51
254.2090587875646861
  0
ARC
  5
FD51
  8
0
 10
7848.1524760380816588
 20
1818.1675816330109683
 30
0.0
 40
0.0068357091038768
 50
285.7451327697324928
 51
352.4335211962991252
  0
LINE
  5
FD52
  8
0
 10
7848.15432701964437
 20
1818.1600306154900863
 30
0.0
 11
7848.154330967144233
 21
1818.1610024113899726
 31
0.0
  0
LINE
  5
FD53
  8
0
 10
7848.1659918451423437
 20
1818.1810626697908901
 30
0.0
 11
7848.1828742742427494
 21
1818.1758975069899407
 31
0.0
  0
LINE
  5
FD54
  8
0
 10
7848.1828742742427494
 20
1818.1758975069899407
 30
0.0
 11
7848.1997567032440202
 21
1818.1810626697908901
 31
0.0
  0
LINE
  5
FD55
  8
0
 10
7848.15432701964437
 20
1818.1600306154900863
 30
0.0
 11
7848.1799932792437176
 21
1818.1521804636900015
 31
0.0
  0
LINE
  5
FD56
  8
0
 10
7848.1857550192426061
 20
1818.1521796372899189
 30
0.0
 11
7848.2114175813430847
 21
1818.1600294412899075
 31
0.0
  0
LINE
  5
FD57
  8
0
 10
7848.2114175813430847
 20
1818.1600294412899075
 30
0.0
 11
7848.2114175814349437
 21
1818.1610024114179396
 31
0.0
  0
ARC
  5
FD58
  8
0
 10
7848.1812859026222213
 20
1818.1570037460819549
 30
0.0
 40
0.0049934885835253
 50
254.9974646601885979
 51
288.5473687573069128
  0
ARC
  5
FD59
  8
0
 10
7848.1844644733755558
 20
1818.1570215440929132
 30
0.0
 40
0.0050109450331139
 50
251.4975531067181009
 51
284.9244648778225724
  0
LINE
  5
FD5A
  8
0
 10
7848.1828742742427494
 20
1818.1522696142899349
 30
0.0
 11
7848.1828742742427494
 21
1818.1758975069899407
 31
0.0
  0
LINE
  5
FD5B
  8
0
 10
7848.1659918451423437
 20
1818.1286658871899817
 30
0.0
 11
7848.1828742742427494
 21
1818.1235007243899418
 31
0.0
  0
LINE
  5
FD5C
  8
0
 10
7848.1828742742427494
 20
1818.1235007243899418
 30
0.0
 11
7848.1997567032440202
 21
1818.1286658871899817
 31
0.0
  0
LINE
  5
FD5D
  8
0
 10
7848.154330967144233
 20
1818.1076326586910454
 30
0.0
 11
7848.1799932792437176
 21
1818.0997836810900026
 31
0.0
  0
LINE
  5
FD5E
  8
0
 10
7848.1857550192426061
 20
1818.09978285468992
 30
0.0
 11
7848.2114136338441313
 21
1818.1076338328909969
 31
0.0
  0
ARC
  5
FD5F
  8
0
 10
7848.1812859026222213
 20
1818.1046069634830928
 30
0.0
 40
0.0049934885835253
 50
254.9974646601885979
 51
288.5473687573069128
  0
ARC
  5
FD60
  8
0
 10
7848.1844644733755558
 20
1818.1046247614929143
 30
0.0
 40
0.0050109450331139
 50
251.4975531067181009
 51
284.9244648778225724
  0
LINE
  5
FD61
  8
0
 10
7848.1828742742427494
 20
1818.099872831689936
 30
0.0
 11
7848.1828742742427494
 21
1818.1235007243899418
 31
0.0
  0
LINE
  5
FD62
  8
0
 10
7848.1659918451423437
 20
1818.0762691044899384
 30
0.0
 11
7848.1828742742427494
 21
1818.0711039416898984
 31
0.0
  0
LINE
  5
FD63
  8
0
 10
7848.1828742742427494
 20
1818.0711039416898984
 30
0.0
 11
7848.1997567032440202
 21
1818.0762691044899384
 31
0.0
  0
LINE
  5
FD64
  8
0
 10
7848.15432701964437
 20
1818.0552370501909536
 30
0.0
 11
7848.1799932792437176
 21
1818.0473868983899592
 31
0.0
  0
LINE
  5
FD65
  8
0
 10
7848.1857550192426061
 20
1818.0473860719910135
 30
0.0
 11
7848.2114136338441313
 21
1818.0552370501909536
 31
0.0
  0
ARC
  5
FD66
  8
0
 10
7848.1812859026222213
 20
1818.0522101807819126
 30
0.0
 40
0.0049934885835253
 50
254.9974646601885979
 51
288.5473687573069128
  0
ARC
  5
FD67
  8
0
 10
7848.1844644733755558
 20
1818.0522279787930984
 30
0.0
 40
0.0050109450331139
 50
251.4975531067181009
 51
284.9244648778225724
  0
LINE
  5
FD68
  8
0
 10
7848.1828742742427494
 20
1818.0474760489910295
 30
0.0
 11
7848.1828742742427494
 21
1818.0711039416898984
 31
0.0
  0
LINE
  5
FD69
  8
0
 10
7848.1151259528169248
 20
1818.0257747702410143
 30
0.0
 11
7848.1260064888156194
 21
1818.018774109413016
 31
0.0
  0
LINE
  5
FD6A
  8
0
 10
7848.1260064888156194
 20
1818.018774109413016
 30
0.0
 11
7848.1426700891433939
 21
1818.0238723217910319
 31
0.0
  0
ARC
  5
FD6B
  8
0
 10
7848.102542510890089
 20
1818.0276621566090398
 30
0.0
 40
0.0095300479536082
 50
182.9508570969065033
 51
225.5645746146539921
  0
ARC
  5
FD6C
  8
0
 10
7848.0972036228822617
 20
1818.0221036724310579
 30
0.0
 40
0.0018250117742713
 50
223.0728387908347941
 51
268.6591387268105109
  0
LINE
  5
FD6D
  8
0
 10
7848.0930250992196306
 20
1818.0271715553828926
 30
0.0
 11
7848.093025099152328
 21
1818.043614673762022
 31
0.0
  0
LINE
  5
FD6E
  8
0
 10
7848.093025099152328
 20
1818.043614673762022
 30
0.0
 11
7848.0853200553374336
 21
1818.0515880683531122
 31
0.0
  0
LINE
  5
FD6F
  8
0
 10
7848.093025099152328
 20
1818.043614673762022
 30
0.0
 11
7848.1141267820212306
 21
1818.050070713183004
 31
0.0
  0
LINE
  5
FD70
  8
0
 10
7848.0731115454937026
 20
1818.0478524331399512
 30
0.0
 11
7848.0972404054427898
 21
1818.0552370499281096
 31
0.0
  0
LINE
  5
FD71
  8
0
 10
7848.0708040300705761
 20
1818.0553042293211092
 30
0.0
 11
7848.0923230930447971
 21
1818.0618879657929483
 31
0.0
  0
LINE
  5
FD72
  8
0
 10
7848.0708042987107547
 20
1818.0548124080110028
 30
0.0
 11
7848.0707950500900552
 21
1818.0717446002740871
 31
0.0
  0
LINE
  5
FD73
  8
0
 10
7848.0707950500900552
 20
1818.0717446002740871
 30
0.0
 11
7848.0659619143279997
 21
1818.0816894029298965
 31
0.0
  0
LINE
  5
FD74
  8
0
 10
7848.0707950500900552
 20
1818.0717446002740871
 30
0.0
 11
7848.0855834749290807
 21
1818.076269104486073
 31
0.0
  0
LINE
  5
FD75
  8
0
 10
7848.126027799028634
 20
1818.0018456222990153
 30
0.0
 11
7848.1260064887437693
 21
1818.0187741093900513
 31
0.0
  0
ARC
  5
FD76
  8
0
 10
7848.1330023616483231
 20
1818.0027999751030165
 30
0.0
 40
0.0070395534159625
 50
187.791577862559393
 51
258.7867158627061031
  0
LINE
  5
FD77
  8
0
 10
7848.1316334375433144
 20
1817.9958948060909734
 30
0.0
 11
7848.15432701964437
 21
1818.0028402674900008
 31
0.0
  0
LINE
  5
FD78
  8
0
 10
7848.0971609170437659
 20
1818.0202791603899186
 30
0.0
 11
7848.1257837125431251
 21
1818.0290386586279965
 31
0.0
  0
LINE
  5
FD79
  8
0
 10
7848.0696675522367514
 20
1818.0991955631939163
 30
0.0
 11
7848.0972404054427898
 21
1818.1076338326279256
 31
0.0
  0
ARC
  5
FD7A
  8
0
 10
7848.1847367265427238
 20
1818.1937865437159871
 30
0.0
 40
0.0068440275731462
 50
213.1026388788008035
 51
254.2090587877293046
  0
ARC
  5
FD7B
  8
0
 10
7848.1810193451819941
 20
1818.1937800243110814
 30
0.0
 40
0.0068357091038787
 50
285.7451327697324928
 51
352.2106265112352048
  0
LINE
  5
FD7C
  8
0
 10
7848.1828703267437959
 20
1818.1862265859078889
 30
0.0
 11
7848.1828742742427494
 21
1818.1872008026909953
 31
0.0
  0
LINE
  5
FD7D
  8
0
 10
7848.1828703267437959
 20
1818.1862265859078889
 30
0.0
 11
7848.2085365863440529
 21
1818.1783788549910241
 31
0.0
  0
LINE
  5
FD7E
  8
0
 10
7848.2142983263438509
 20
1818.178378028590032
 30
0.0
 11
7848.2399569409426476
 21
1818.1862290068900165
 31
0.0
  0
ARC
  5
FD7F
  8
0
 10
7848.2098292097225567
 20
1818.1832021373829775
 30
0.0
 40
0.0049934885835253
 50
254.9974646601885979
 51
288.5473687573069128
  0
ARC
  5
FD80
  8
0
 10
7848.2130077804758912
 20
1818.1832199353930264
 30
0.0
 40
0.0050109450331139
 50
251.4975531067181009
 51
284.9244648778225724
  0
LINE
  5
FD81
  8
0
 10
7848.2114175813430847
 20
1818.1784680055900481
 30
0.0
 11
7848.2114175813430847
 21
1818.1996947944380736
 31
0.0
  0
LINE
  5
FD82
  8
0
 10
7848.1572105207433196
 20
1818.1783760321900445
 30
0.0
 11
7848.1828703267437959
 21
1818.1862265859078889
 31
0.0
  0
ARC
  5
FD83
  8
0
 10
7848.1559245380658467
 20
1818.1832370895440363
 30
0.0
 40
0.0050282830117359
 50
251.5231488282680061
 51
284.8180224252370181
  0
ARC
  5
FD84
  8
0
 10
7848.1527426975417256
 20
1818.183198840509931
 30
0.0
 40
0.0049903305866063
 50
250.9849859417429911
 51
288.5582987431861852
  0
LINE
  5
FD85
  8
0
 10
7848.154330967144233
 20
1818.1784680055900481
 30
0.0
 11
7848.1543319770344169
 21
1818.1800345348528936
 31
0.0
  0
LINE
  5
FD86
  8
0
 10
7848.1132745820732453
 20
1818.155125008242976
 30
0.0
 11
7848.1229066651430912
 21
1818.1521804636900015
 31
0.0
  0
LINE
  5
FD87
  8
0
 10
7848.1257876600438976
 20
1818.1522696142899349
 30
0.0
 11
7848.1257876600438976
 21
1818.1639713734050474
 31
0.0
  0
LINE
  5
FD88
  8
0
 10
7848.1286684051437987
 20
1818.1521796372899189
 30
0.0
 11
7848.15432701964437
 21
1818.1600306154900863
 31
0.0
  0
ARC
  5
FD89
  8
0
 10
7848.1241992979130373
 20
1818.15700344081597
 30
0.0
 40
0.0049931961545444
 50
254.9964538180526858
 51
288.5483797248543851
  0
ARC
  5
FD8A
  8
0
 10
7848.1273779026805641
 20
1818.1570229355420452
 30
0.0
 40
0.0050122783807602
 50
251.5021291882792127
 51
284.9198889851629133
  0
LINE
  5
FD8B
  8
0
 10
7848.085106476164583
 20
1818.1288119171870221
 30
0.0
 11
7848.0943633580382084
 21
1818.1259820722918903
 31
0.0
  0
LINE
  5
FD8C
  8
0
 10
7848.0972443529381053
 20
1818.1260712228920511
 30
0.0
 11
7848.0972443529381053
 21
1818.1418223503260378
 31
0.0
  0
LINE
  5
FD8D
  8
0
 10
7848.1001250980389159
 20
1818.1259812458920351
 30
0.0
 11
7848.1257837125376682
 21
1818.1338322240919751
 31
0.0
  0
ARC
  5
FD8E
  8
0
 10
7848.0956559826199737
 20
1818.1308053140139691
 30
0.0
 40
0.0049934496111693
 50
254.9973305247837061
 51
288.5475030178167231
  0
ARC
  5
FD8F
  8
0
 10
7848.0988345934638346
 20
1818.1308244766050848
 30
0.0
 40
0.0050122136620681
 50
251.5019071082006974
 51
284.9201110652198281
  0
LINE
  5
FD90
  8
0
 10
7848.2729309133883362
 20
1818.2110722572610939
 30
0.0
 11
7848.2941665075422861
 21
1818.2045772462909099
 31
0.0
  0
LINE
  5
FD91
  8
0
 10
7848.2999282475448126
 20
1818.2045764198899178
 30
0.0
 11
7848.3187563220280936
 21
1818.2103356536661067
 31
0.0
  0
ARC
  5
FD92
  8
0
 10
7848.2954591309216994
 20
1818.2094005286830907
 30
0.0
 40
0.0049934885835253
 50
254.9974646601885979
 51
288.5473687573069128
  0
ARC
  5
FD93
  8
0
 10
7848.2986377016759434
 20
1818.2094183266929122
 30
0.0
 40
0.0050109450331139
 50
251.4975531067181009
 51
284.9244648778225724
  0
LINE
  5
FD94
  8
0
 10
7848.2970475025440464
 20
1818.2046663968899338
 30
0.0
 11
7848.2970475025440464
 21
1818.2131117989749782
 31
0.0
  0
LINE
  5
FD95
  8
0
 10
7848.2428416334369103
 20
1818.2045764198919642
 30
0.0
 11
7848.2575158796225878
 21
1818.2090650580869351
 31
0.0
  0
ARC
  5
FD96
  8
0
 10
7848.2383725168156161
 20
1818.2094005286840002
 30
0.0
 40
0.0049934885835253
 50
254.9974646601885979
 51
288.5473687573069128
  0
ARC
  5
FD97
  8
0
 10
7848.2415510875680411
 20
1818.2094183266949585
 30
0.0
 40
0.0050109450331139
 50
251.4975531067181009
 51
284.9244648778225724
  0
LINE
  5
FD98
  8
0
 10
7848.2399608884379631
 20
1818.2046663968919802
 30
0.0
 11
7848.2399608884379631
 21
1818.2060998444019333
 31
0.0
  0
ARC
  5
FD99
  8
0
 10
7848.365228875691173
 20
1818.6285808427689972
 30
0.0
 40
0.4429460593329225
 50
252.9239925414946981
 51
253.1833139156256891
  0
LINE
  5
FD9A
  8
0
 10
7848.2685041955437555
 20
1818.1600294412899075
 30
0.0
 11
7848.2941665075368292
 21
1818.152180463689092
 31
0.0
  0
ARC
  5
FD9B
  8
0
 10
7848.2954591309162424
 20
1818.1570037460810454
 30
0.0
 40
0.0049934885835253
 50
254.9974646601885979
 51
288.5473687573069128
  0
LINE
  5
FD9C
  8
0
 10
7848.2399608884434201
 20
1818.1338310499909312
 30
0.0
 11
7848.2656232005438142
 21
1818.1259820722909808
 31
0.0
  0
ARC
  5
FD9D
  8
0
 10
7848.2669158239223179
 20
1818.1308053546829342
 30
0.0
 40
0.0049934885835253
 50
254.9974646601885979
 51
288.5473687573069128
  0
LINE
  5
FD9E
  8
0
 10
7848.2399608884434201
 20
1818.0814342672899784
 30
0.0
 11
7848.2656232005383572
 21
1818.073585289688026
 31
0.0
  0
ARC
  5
FD9F
  8
0
 10
7848.266915823916861
 20
1818.0784085720808889
 30
0.0
 40
0.0049934885835253
 50
254.9974646601885979
 51
288.5473687573069128
  0
LINE
  5
FDA0
  8
0
 10
7848.2399569409426476
 20
1818.0290386587898865
 30
0.0
 11
7848.2656232005438142
 21
1818.0211885069900291
 31
0.0
  0
ARC
  5
FDA1
  8
0
 10
7848.2669158239223179
 20
1818.0260117893828919
 30
0.0
 40
0.0049934885835253
 50
254.9974646601885979
 51
288.5473687573069128
  0
LINE
  5
FDA2
  8
0
 10
7848.2685041955437555
 20
1818.1076326586910454
 30
0.0
 11
7848.2941665075422861
 21
1818.0997836809899582
 31
0.0
  0
ARC
  5
FDA3
  8
0
 10
7848.2954591309216994
 20
1818.1046069633819116
 30
0.0
 40
0.0049934885835253
 50
254.9974646601885979
 51
288.5473687573069128
  0
ARC
  5
FDA4
  8
0
 10
7848.2049110977941382
 20
1817.9712956786279392
 30
0.0
 40
0.0051494550226861
 50
251.9051733157980948
 51
284.1647136186016951
  0
ARC
  5
FDA5
  8
0
 10
7848.2049500422863275
 20
1817.9738918029800061
 30
0.0
 40
0.0076679701752736
 50
198.9941241444765865
 51
257.6632413941031245
  0
LINE
  5
FDA6
  8
0
 10
7848.2061712224431176
 20
1817.9663027863900879
 30
0.0
 11
7848.2399569409417381
 21
1817.9766418759279532
 31
0.0
  0
LINE
  5
FDA7
  8
0
 10
7848.1976995780687503
 20
1817.9713960996250535
 30
0.0
 11
7848.197699579143773
 21
1817.9883117581900933
 31
0.0
  0
LINE
  5
FDA8
  8
0
 10
7848.197699579143773
 20
1817.9883117581900933
 30
0.0
 11
7848.1877955341078632
 21
1817.9913418912090037
 31
0.0
  0
LINE
  5
FDA9
  8
0
 10
7848.197699579222899
 20
1817.9883117582151044
 30
0.0
 11
7848.228300010442581
 21
1817.9976739304900093
 31
0.0
  0
ARC
  5
FDAA
  8
0
 10
7848.1852714621081759
 20
1817.9747634550440125
 30
0.0
 40
0.0025137890417704
 50
260.1133408499387087
 51
352.5248048371627192
  0
ARC
  5
FDAB
  8
0
 10
7848.18520116226955
 20
1817.9797779301020455
 30
0.0
 40
0.0074996411476764
 50
195.7940026674561125
 51
267.238521168755085
  0
LINE
  5
FDAC
  8
0
 10
7848.1779846586441636
 20
1817.9777366853900276
 30
0.0
 11
7848.1779530143439843
 21
1817.99561195085289
 31
0.0
  0
LINE
  5
FDAD
  8
0
 10
7848.1877638888672664
 20
1817.9744364181860874
 30
0.0
 11
7848.1877955340441986
 21
1817.9956119508219672
 31
0.0
  0
ARC
  5
FDAE
  8
0
 10
7842.4131130081095762
 20
1807.6351258021879858
 30
0.0
 40
11.81102365339847
 50
42.8400997975453919
 51
47.1599002024641365
  0
ARC
  5
FDAF
  8
0
 10
7850.4039187296857563
 20
1816.2523056409199853
 30
0.0
 40
0.0590551181698474
 50
47.159900240784502
 51
135.0000048726556088
  0
LINE
  5
FDB0
  8
0
 10
7850.1453535214122894
 20
1814.6574756493901077
 30
0.0
 11
7851.0720511176132277
 21
1815.584173245591046
 31
0.0
  0
LINE
  5
FDB1
  8
0
 10
7849.4354628553119255
 20
1815.3673663154900169
 30
0.0
 11
7850.3621604516129082
 21
1816.294063911891044
 31
0.0
  0
LINE
  5
FDB2
  8
0
 10
7850.7995289057116679
 20
1815.9519445756900495
 30
0.0
 11
7850.8078805606328388
 21
1815.9602962305700657
 31
0.0
  0
LINE
  5
FDB3
  8
0
 10
7850.8078805606328388
 20
1815.9602962305700657
 30
0.0
 11
7850.7382834364925657
 21
1816.0298933547101115
 31
0.0
  0
LINE
  5
FDB4
  8
0
 10
7850.7382834364925657
 20
1816.0298933547101115
 30
0.0
 11
7850.7299319208577799
 21
1816.0214720217099966
 31
0.0
  0
ARC
  5
FDB5
  8
0
 10
7850.7365435085539502
 20
1815.9585563026530508
 30
0.0
 40
0.0713582675336928
 50
1.39718089736358
 51
88.6028191023886649
  0
LINE
  5
FDB6
  8
0
 10
7850.1453535214122894
 20
1814.6574756493901077
 30
0.0
 11
7849.4354628553119255
 21
1815.3673663154900169
 31
0.0
  0
LINE
  5
FDB7
  8
0
 10
7850.1032015461123592
 20
1814.6161110756900143
 30
0.0
 11
7849.3933108800138143
 21
1815.3260017417899235
 31
0.0
  0
LINE
  5
FDB8
  8
0
 10
7849.4312870278117771
 20
1815.2880255939899143
 30
0.0
 11
7849.4730453022766596
 21
1815.3297838684538874
 31
0.0
  0
LINE
  5
FDB9
  8
0
 10
7850.0660127999126416
 20
1814.6532998218899593
 30
0.0
 11
7850.107771074412085
 21
1814.6950580963909943
 31
0.0
  0
LINE
  5
FDBA
  8
0
 10
7849.3296482319119605
 20
1813.8425577613900259
 30
0.0
 11
7850.1032015461632909
 21
1814.6161110756399921
 31
0.0
  0
LINE
  5
FDBB
  8
0
 10
7849.3351451046119109
 20
1815.2678359663900665
 30
0.0
 11
7849.3933108800138143
 21
1815.3260017417899235
 31
0.0
  0
ARC
  5
FDBC
  8
0
 10
7849.147716974780451
 20
1815.4701704073049768
 30
0.0
 40
0.2758052389509102
 50
191.9892258170245043
 51
312.8098136114364252
  0
ARC
  5
FDBD
  8
0
 10
7853.0280004036603714
 20
1816.1575825455490758
 30
0.0
 40
4.2163593429922201
 50
181.8735612043975891
 51
190.1730998782807092
  0
ARC
  5
FDBE
  8
0
 10
7849.5974065562058968
 20
1813.6299807519499154
 30
0.0
 40
0.3418822972476251
 50
141.5534566723341072
 51
177.8532894364151957
  0
ARC
  5
FDBF
  8
0
 10
7848.6175074394532203
 20
1818.1938272089919337
 30
0.0
 40
0.1969252677603111
 50
4.2346998115173307
 51
54.7160065535368076
  0
ARC
  5
FDC0
  8
0
 10
7848.322153463340328
 20
1817.7852184580819994
 30
0.0
 40
0.7010957298591797
 50
54.3014502976999722
 51
90.0
  0
ARC
  5
FDC1
  8
0
 10
7848.5970557251002901
 20
1818.0136629860519406
 30
0.0
 40
0.2182028876389476
 50
300.1636709198871245
 51
353.5913714174632787
  0
ARC
  5
FDC2
  8
0
 10
7848.3204286081836472
 20
1818.3919598632739962
 30
0.0
 40
0.6272221333755587
 50
269.8472390444479743
 51
302.6005910406759085
  0
ARC
  5
FDC3
  8
0
 10
7848.6139271800675488
 20
1817.9960587500320344
 30
0.0
 40
0.125159631853684
 50
333.2992681358426239
 51
39.8376514768680465
  0
ARC
  5
FDC4
  8
0
 10
7848.4720547212173187
 20
1817.8770760446620898
 30
0.0
 40
0.3103206079031836
 50
39.9256921576667665
 51
63.0408383275590225
  0
ARC
  5
FDC5
  8
0
 10
7848.3164979143102755
 20
1817.4927124808909866
 30
0.0
 40
0.725948706446146
 50
69.0826685816647625
 51
89.8217540189617978
  0
ARC
  5
FDC6
  8
0
 10
7848.39973544377699
 20
1817.7418284532839152
 30
0.0
 40
0.4636678233363182
 50
62.6521905330849975
 51
67.7000693786771137
  0
ARC
  5
FDC7
  8
0
 10
7848.536325628691884
 20
1818.0392733809630954
 30
0.0
 40
0.2139364938193943
 50
304.780737241143072
 51
332.2981904737795276
  0
LINE
  5
FDC8
  8
0
 10
7848.6959336493264345
 20
1818.0919646326310612
 30
0.0
 11
7848.6618387624139359
 21
1818.0887788382899544
 31
0.0
  0
LINE
  5
FDC9
  8
0
 10
7848.6541549850571755
 20
1818.0938420934990063
 30
0.0
 11
7848.6540843694128853
 21
1818.1214419990069473
 31
0.0
  0
LINE
  5
FDCA
  8
0
 10
7848.6540843694128853
 20
1818.1214419990069473
 30
0.0
 11
7848.6623354791599922
 21
1818.1222129713910363
 31
0.0
  0
ARC
  5
FDCB
  8
0
 10
7848.6607309161618105
 20
1818.0954595305649946
 30
0.0
 40
0.0067719253231481
 50
193.8183514083098089
 51
279.415565937182123
  0
ARC
  5
FDCC
  8
0
 10
7848.5619677079357643
 20
1818.0624188123670137
 30
0.0
 40
0.0973956706428709
 50
341.0492948046320976
 51
18.822371574009729
  0
ARC
  5
FDCD
  8
0
 10
7848.6622416014561168
 20
1818.0315718039980766
 30
0.0
 40
0.0081946934837909
 50
185.480700361235904
 51
267.1822883635791754
  0
ARC
  5
FDCE
  8
0
 10
7848.7201088669553428
 20
1818.0248692206860142
 30
0.0
 40
0.0069109964411235
 50
260.9970855262470195
 51
337.6340988838219914
  0
LINE
  5
FDCF
  8
0
 10
7848.7190274016129479
 20
1818.018043365090989
 30
0.0
 11
7848.6618387624739626
 21
1818.0233870179849873
 31
0.0
  0
LINE
  5
FDD0
  8
0
 10
7848.7264999675126091
 20
1818.0222394477900707
 30
0.0
 11
7848.7311624875210327
 21
1818.0398858664389081
 31
0.0
  0
LINE
  5
FDD1
  8
0
 10
7848.6540843706115993
 20
1818.0307891250899957
 30
0.0
 11
7848.6540843706115993
 21
1818.057499301389953
 31
0.0
  0
LINE
  5
FDD2
  8
0
 10
7848.6569976956134269
 20
1817.9614290549909583
 30
0.0
 11
7848.5965287946128228
 21
1817.9838662500899318
 31
0.0
  0
ARC
  5
FDD3
  8
0
 10
7848.5049872817107826
 20
1818.1147308498739221
 30
0.0
 40
0.1597040765316468
 50
304.9732961269784255
 51
339.0004895635647131
  0
ARC
  5
FDD4
  8
0
 10
7848.5255741289647631
 20
1818.1409080412120147
 30
0.0
 40
0.222451928212783
 50
306.2134695773277144
 51
326.6907977643734853
  0
ARC
  5
FDD5
  8
0
 10
7848.400134697581052
 20
1818.2254186096820376
 30
0.0
 40
0.3435979311317951
 50
289.657885264749325
 51
306.1820711806208237
  0
ARC
  5
FDD6
  8
0
 10
7848.6069762867946338
 20
1817.9577563515269958
 30
0.0
 40
0.010464722937714
 50
183.2884066456759058
 51
247.5426624383761123
  0
ARC
  5
FDD7
  8
0
 10
7848.5253252062102547
 20
1817.9122002626329504
 30
0.0
 40
0.0141217989487848
 50
181.0488655872092068
 51
227.1549203587489956
  0
ARC
  5
FDD8
  8
0
 10
7848.6524856976229785
 20
1817.9345143468719925
 30
0.0
 40
0.0045166313951477
 50
244.5905034766306017
 51
2.5954795850430181
  0
LINE
  5
FDD9
  8
0
 10
7848.6569976956134269
 20
1817.9347188787949108
 30
0.0
 11
7848.6569976956134269
 21
1817.9614290549909583
 31
0.0
  0
LINE
  5
FDDA
  8
0
 10
7848.6505476795127834
 20
1817.9304346354899735
 30
0.0
 11
7848.6029788107125569
 21
1817.9480852289900668
 31
0.0
  0
LINE
  5
FDDB
  8
0
 10
7848.5965287946128228
 20
1817.9571560738900189
 30
0.0
 11
7848.5965287946128228
 21
1817.9838662500899318
 31
0.0
  0
ARC
  5
FDDC
  8
0
 10
7848.3981813135051198
 20
1818.2283407849579362
 30
0.0
 40
0.3359804618999121
 50
289.6578082670350796
 51
306.1821482466472162
  0
ARC
  5
FDDD
  8
0
 10
7848.4169494543275505
 20
1818.2543615154979761
 30
0.0
 40
0.4017261136365149
 50
289.6091274336926062
 51
306.3368350144365877
  0
ARC
  5
FDDE
  8
0
 10
7848.551057916028185
 20
1817.8788445003799552
 30
0.0
 40
0.0029962890919947
 50
227.4104882023090113
 51
283.7363131963169849
  0
LINE
  5
FDDF
  8
0
 10
7848.5490302037087531
 20
1817.876638569493025
 30
0.0
 11
7848.5157221233157543
 21
1817.9018462293870471
 31
0.0
  0
LINE
  5
FDE0
  8
0
 10
7848.5112057734122573
 20
1817.9119417611900644
 30
0.0
 11
7848.5112057734122573
 21
1817.9386519374900217
 31
0.0
  0
LINE
  5
FDE1
  8
0
 10
7848.3722543213134486
 20
1817.8814419527900554
 30
0.0
 11
7848.3722543213134486
 21
1817.9081521289899683
 31
0.0
  0
LINE
  5
FDE2
  8
0
 10
7848.3850728384131799
 20
1817.8696283642909748
 30
0.0
 11
7848.3722543213134486
 21
1817.9081521289899683
 31
0.0
  0
LINE
  5
FDE3
  8
0
 10
7848.3837055299127314
 20
1817.8403498454899818
 30
0.0
 11
7848.3736217302812292
 21
1817.8706541260739868
 31
0.0
  0
ARC
  5
FDE4
  8
0
 10
7848.3231870266154147
 20
1818.5600660092020462
 30
0.0
 40
0.6932055937548613
 50
275.1218899974214196
 51
286.7570612695532191
  0
ARC
  5
FDE5
  8
0
 10
7848.3245702363728924
 20
1818.4571603309300372
 30
0.0
 40
0.551075110809701
 50
274.9639652391223876
 51
289.796187675957583
  0
LINE
  5
FDE6
  8
0
 10
7848.3850728384131799
 20
1817.8696283642909748
 30
0.0
 11
7848.3850728384131799
 21
1817.842918187990108
 31
0.0
  0
ARC
  5
FDE7
  8
0
 10
7848.3844169128678914
 20
1817.8393924802430774
 30
0.0
 40
0.0002060107799818
 50
222.9156670367669051
 51
321.7021407205377272
  0
ARC
  5
FDE8
  8
0
 10
7848.3696375987792635
 20
1817.8425864083440047
 30
0.0
 40
0.0154388050146805
 50
349.8940144209000209
 51
1.231380076637981
  0
ARC
  5
FDE9
  8
0
 10
7848.3833060881343044
 20
1817.8401620687570812
 30
0.0
 40
0.0015570302237563
 50
324.8116590173892178
 51
349.4642671841504011
  0
ARC
  5
FDEA
  8
0
 10
7848.3866250613737066
 20
1817.8411487673699867
 30
0.0
 40
0.0030268696910809
 50
195.3041711060319869
 51
218.797963169992812
  0
ARC
  5
FDEB
  8
0
 10
7848.4152231552507146
 20
1817.8814078831469487
 30
0.0
 40
0.0429688474456163
 50
179.954570645901498
 51
194.4934123180510142
  0
ARC
  5
FDEC
  8
0
 10
7848.3119218344127148
 20
1818.6195030173898886
 30
0.0
 40
0.783679894699378
 50
270.4996839424978816
 51
275.3093594169856146
  0
ARC
  5
FDED
  8
0
 10
7848.3119218344127148
 20
1818.5346240172918897
 30
0.0
 40
0.6668304834020651
 50
270.5872469261411766
 51
275.3090065133807229
  0
ARC
  5
FDEE
  8
0
 10
7848.4871731323792119
 20
1818.1718259633039452
 30
0.0
 40
0.1800747873924249
 50
293.2559710159368933
 51
337.9565556143888898
  0
ARC
  5
FDEF
  8
0
 10
7848.5462043579218516
 20
1818.085434183758025
 30
0.0
 40
0.1137306462889102
 50
18.4577993074802613
 51
23.6367202199360413
  0
ARC
  5
FDF0
  8
0
 10
7848.4181911907589893
 20
1818.116907326754017
 30
0.0
 40
0.1846295817980232
 50
352.6192934407807229
 51
13.8579860407220199
  0
ARC
  5
FDF1
  8
0
 10
7848.4843329466457362
 20
1818.0826364588610886
 30
0.0
 40
0.1174347147905934
 50
5.159109439532866
 51
56.1558112001582401
  0
ARC
  5
FDF2
  8
0
 10
7848.483846088491191
 20
1818.0973269920630173
 30
0.0
 40
0.1175177887789024
 50
309.2963346615466094
 51
357.9823514745116881
  0
ARC
  5
FDF3
  8
0
 10
7848.3219496821157009
 20
1818.3156418094429227
 30
0.0
 40
0.3892178891676508
 50
269.5299082765201888
 51
307.3856526019212083
  0
ARC
  5
FDF4
  8
0
 10
7848.313928822404705
 20
1818.4200415461430111
 30
0.0
 40
0.4660170585818113
 50
271.1564995374251907
 51
276.1844715511560935
  0
ARC
  5
FDF5
  8
0
 10
7848.3190810398618851
 20
1818.3947857153470977
 30
0.0
 40
0.4403121302622567
 50
277.1516412626402825
 51
284.1202861866660214
  0
ARC
  5
FDF6
  8
0
 10
7848.3077346993286483
 20
1818.4234360375269262
 30
0.0
 40
0.4709402824162239
 50
286.2698835296367861
 51
287.5516135881173909
  0
ARC
  5
FDF7
  8
0
 10
7848.3623389436861544
 20
1818.2561821062220133
 30
0.0
 40
0.2949195897667893
 50
289.24111287433999
 51
298.4353560844357958
  0
ARC
  5
FDF8
  8
0
 10
7848.4108074693685921
 20
1818.170525796253969
 30
0.0
 40
0.1964406654821602
 50
300.8310186895166112
 51
310.4104663313864876
  0
ARC
  5
FDF9
  8
0
 10
7848.4569644739758587
 20
1818.1191513820720047
 30
0.0
 40
0.1273096956172681
 50
313.4062325521254024
 51
326.2116715616227793
  0
ARC
  5
FDFA
  8
0
 10
7848.6435625173371591
 20
1818.0132847308309465
 30
0.0
 40
0.0873562346058666
 50
149.8297798315329885
 51
151.6157037620820063
  0
ARC
  5
FDFB
  8
0
 10
7848.4771104443789227
 20
1818.0707281521890764
 30
0.0
 40
0.0950955821028123
 50
6.9543762133431377
 51
48.3448287192730604
  0
ARC
  5
FDFC
  8
0
 10
7848.3829964621099862
 20
1817.9686134327619129
 30
0.0
 40
0.2339567424197476
 50
47.7453249031525075
 51
73.4301463695399121
  0
ARC
  5
FDFD
  8
0
 10
7848.3154099028133714
 20
1817.7732425415269972
 30
0.0
 40
0.4405822609170857
 50
72.2514335973242225
 51
89.5648087584064996
  0
ARC
  5
FDFE
  8
0
 10
7848.4920132099459806
 20
1818.0814461044469681
 30
0.0
 40
0.0798031401019959
 50
335.0906752328965013
 51
357.5044158202048834
  0
ARC
  5
FDFF
  8
0
 10
7848.4970064602475759
 20
1818.0759896162469431
 30
0.0
 40
0.0747618597994275
 50
335.5079355052737924
 51
4.7974608685877822
  0
ARC
  5
FE00
  8
0
 10
7848.4379996066545573
 20
1818.1102134504769765
 30
0.0
 40
0.1428036964019132
 50
299.1635395584099228
 51
332.8259914074803874
  0
ARC
  5
FE01
  8
0
 10
7848.3137212313122291
 20
1818.3482502843630755
 30
0.0
 40
0.4112944044855372
 50
270.7014358831643221
 51
298.1225292446433741
  0
ARC
  5
FE02
  8
0
 10
7848.4575344487675466
 20
1818.0992281808930784
 30
0.0
 40
0.1185749237646921
 50
305.8329400567586731
 51
334.3146153622257089
  0
ARC
  5
FE03
  8
0
 10
7848.3619690112391254
 20
1818.2288445091969606
 30
0.0
 40
0.2796092797557628
 50
283.0751362012014738
 51
306.1601941631921022
  0
ARC
  5
FE04
  8
0
 10
7848.2962622191289483
 20
1818.4947834440529277
 30
0.0
 40
0.5535316224458411
 50
272.3289945817044213
 51
283.4726462580304087
  0
LINE
  5
FE05
  8
0
 10
7848.431016322612777
 20
1818.1666815310900347
 30
0.0
 11
7848.431016322612777
 21
1818.1790006901899233
 31
0.0
  0
LINE
  5
FE06
  8
0
 10
7848.4211738029125627
 20
1818.1666815310900347
 30
0.0
 11
7848.4211738029125627
 21
1818.1790006901899233
 31
0.0
  0
ARC
  5
FE07
  8
0
 10
7848.4242326104140375
 20
1818.1675881524161014
 30
0.0
 40
0.0068440275731964
 50
285.7909412124353139
 51
352.3877116012494071
  0
ARC
  5
FE08
  8
0
 10
7848.4279499917747671
 20
1818.1675816330109683
 30
0.0
 40
0.0068357091038768
 50
187.5664788037009032
 51
254.2548672302675072
  0
LINE
  5
FE09
  8
0
 10
7848.4144341847131727
 20
1818.1810626697908901
 30
0.0
 11
7848.397551755612767
 21
1818.1758975069899407
 31
0.0
  0
LINE
  5
FE0A
  8
0
 10
7848.397551755612767
 20
1818.1758975069899407
 30
0.0
 11
7848.3806693266133152
 21
1818.1810626697908901
 31
0.0
  0
LINE
  5
FE0B
  8
0
 10
7848.4260950627121929
 20
1818.1600294412899075
 30
0.0
 11
7848.4004327506117988
 21
1818.1521804636900015
 31
0.0
  0
LINE
  5
FE0C
  8
0
 10
7848.3946710106129103
 20
1818.1521796372899189
 30
0.0
 11
7848.3690084485133411
 21
1818.1600294412899075
 31
0.0
  0
LINE
  5
FE0D
  8
0
 10
7848.3690084485133411
 20
1818.1600294412899075
 30
0.0
 11
7848.3690084484205727
 21
1818.1610024114179396
 31
0.0
  0
ARC
  5
FE0E
  8
0
 10
7848.3991401272342046
 20
1818.1570037460819549
 30
0.0
 40
0.0049934885835253
 50
251.4526312426930872
 51
285.0025353398112884
  0
ARC
  5
FE0F
  8
0
 10
7848.3959615564808701
 20
1818.1570215440929132
 30
0.0
 40
0.0050109450331139
 50
255.0755351221773992
 51
288.5024468932820128
  0
LINE
  5
FE10
  8
0
 10
7848.397551755612767
 20
1818.1522696142899349
 30
0.0
 11
7848.397551755612767
 21
1818.1758975069899407
 31
0.0
  0
LINE
  5
FE11
  8
0
 10
7848.3739297084121063
 20
1818.1666815310900347
 30
0.0
 11
7848.3739297084121063
 21
1818.1790006901899233
 31
0.0
  0
LINE
  5
FE12
  8
0
 10
7848.3640871887128014
 20
1818.1666815310900347
 30
0.0
 11
7848.3640871887128014
 21
1818.1790006901899233
 31
0.0
  0
ARC
  5
FE13
  8
0
 10
7848.3671459962133667
 20
1818.1675881524161014
 30
0.0
 40
0.0068440275731964
 50
285.7909412124353139
 51
352.3877116012494071
  0
ARC
  5
FE14
  8
0
 10
7848.3708633775740964
 20
1818.1675816330109683
 30
0.0
 40
0.0068357091038768
 50
187.5664788037009032
 51
254.2548672302675072
  0
LINE
  5
FE15
  8
0
 10
7848.431016322612777
 20
1818.1142847484909453
 30
0.0
 11
7848.431016322612777
 21
1818.1266039075899243
 31
0.0
  0
LINE
  5
FE16
  8
0
 10
7848.4211738029125627
 20
1818.1142847484909453
 30
0.0
 11
7848.4211738029125627
 21
1818.1266039075899243
 31
0.0
  0
ARC
  5
FE17
  8
0
 10
7848.4242326104140375
 20
1818.1151913698161025
 30
0.0
 40
0.0068440275731964
 50
285.7909412124353139
 51
352.3877116012494071
  0
ARC
  5
FE18
  8
0
 10
7848.4279499917747671
 20
1818.1151848504109694
 30
0.0
 40
0.0068357091038768
 50
187.5664788037009032
 51
254.2548672302675072
  0
LINE
  5
FE19
  8
0
 10
7848.4260990102129654
 20
1818.1076338328909969
 30
0.0
 11
7848.4260950627121929
 21
1818.1086056287899737
 31
0.0
  0
LINE
  5
FE1A
  8
0
 10
7848.4144341847131727
 20
1818.1286658871899817
 30
0.0
 11
7848.397551755612767
 21
1818.1235007243899418
 31
0.0
  0
LINE
  5
FE1B
  8
0
 10
7848.397551755612767
 20
1818.1235007243899418
 30
0.0
 11
7848.3806693266133152
 21
1818.1286658871899817
 31
0.0
  0
LINE
  5
FE1C
  8
0
 10
7848.4260990102129654
 20
1818.1076338328909969
 30
0.0
 11
7848.4004327506117988
 21
1818.0997836810900026
 31
0.0
  0
LINE
  5
FE1D
  8
0
 10
7848.3946710106129103
 20
1818.09978285468992
 30
0.0
 11
7848.3690084485133411
 21
1818.1076326586910454
 31
0.0
  0
LINE
  5
FE1E
  8
0
 10
7848.3690084485133411
 20
1818.1076326586910454
 30
0.0
 11
7848.3690084484205727
 21
1818.1086056288179407
 31
0.0
  0
ARC
  5
FE1F
  8
0
 10
7848.3991401272342046
 20
1818.1046069634830928
 30
0.0
 40
0.0049934885835253
 50
251.4526312426930872
 51
285.0025353398112884
  0
ARC
  5
FE20
  8
0
 10
7848.3959615564808701
 20
1818.1046247614929143
 30
0.0
 40
0.0050109450331139
 50
255.0755351221773992
 51
288.5024468932820128
  0
LINE
  5
FE21
  8
0
 10
7848.397551755612767
 20
1818.099872831689936
 30
0.0
 11
7848.397551755612767
 21
1818.1235007243899418
 31
0.0
  0
LINE
  5
FE22
  8
0
 10
7848.3739297084121063
 20
1818.1142847484909453
 30
0.0
 11
7848.3739297084121063
 21
1818.1266039075899243
 31
0.0
  0
LINE
  5
FE23
  8
0
 10
7848.3640871887128014
 20
1818.1142847484909453
 30
0.0
 11
7848.3640871887128014
 21
1818.1266039075899243
 31
0.0
  0
ARC
  5
FE24
  8
0
 10
7848.3671459962133667
 20
1818.1151913698161025
 30
0.0
 40
0.0068440275731964
 50
285.7909412124353139
 51
352.3877116012494071
  0
ARC
  5
FE25
  8
0
 10
7848.3708633775740964
 20
1818.1151848504109694
 30
0.0
 40
0.0068357091038768
 50
187.5664788037009032
 51
254.2548672302675072
  0
LINE
  5
FE26
  8
0
 10
7848.431016322612777
 20
1818.0618879657909019
 30
0.0
 11
7848.431016322612777
 21
1818.0742071248901084
 31
0.0
  0
LINE
  5
FE27
  8
0
 10
7848.4211738029125627
 20
1818.0618879657909019
 30
0.0
 11
7848.4211738029125627
 21
1818.0742071248901084
 31
0.0
  0
ARC
  5
FE28
  8
0
 10
7848.4242326104140375
 20
1818.0627945871160591
 30
0.0
 40
0.0068440275731964
 50
285.7909412124353139
 51
352.3877116012494071
  0
ARC
  5
FE29
  8
0
 10
7848.4279499917747671
 20
1818.062788067710926
 30
0.0
 40
0.0068357091038768
 50
187.5664788037009032
 51
254.2548672302675072
  0
LINE
  5
FE2A
  8
0
 10
7848.4260990102129654
 20
1818.0552370501909536
 30
0.0
 11
7848.4260950627121929
 21
1818.0562088460899304
 31
0.0
  0
LINE
  5
FE2B
  8
0
 10
7848.4144341847131727
 20
1818.0762691044899384
 30
0.0
 11
7848.397551755612767
 21
1818.0711039416898984
 31
0.0
  0
LINE
  5
FE2C
  8
0
 10
7848.397551755612767
 20
1818.0711039416898984
 30
0.0
 11
7848.3806693266133152
 21
1818.0762691044899384
 31
0.0
  0
LINE
  5
FE2D
  8
0
 10
7848.4260990102129654
 20
1818.0552370501909536
 30
0.0
 11
7848.4004327506117988
 21
1818.0473868983899592
 31
0.0
  0
LINE
  5
FE2E
  8
0
 10
7848.3946710106129103
 20
1818.0473860719910135
 30
0.0
 11
7848.3690084485133411
 21
1818.0552358759910021
 31
0.0
  0
LINE
  5
FE2F
  8
0
 10
7848.3690084485133411
 20
1818.0552358759910021
 30
0.0
 11
7848.3690084484205727
 21
1818.0562088461190342
 31
0.0
  0
ARC
  5
FE30
  8
0
 10
7848.3991401272342046
 20
1818.0522101807819126
 30
0.0
 40
0.0049934885835253
 50
251.4526312426930872
 51
285.0025353398112884
  0
ARC
  5
FE31
  8
0
 10
7848.3959615564808701
 20
1818.0522279787930984
 30
0.0
 40
0.0050109450331139
 50
255.0755351221773992
 51
288.5024468932820128
  0
LINE
  5
FE32
  8
0
 10
7848.397551755612767
 20
1818.0474760489910295
 30
0.0
 11
7848.397551755612767
 21
1818.0711039416898984
 31
0.0
  0
LINE
  5
FE33
  8
0
 10
7848.3739297084121063
 20
1818.0618879657909019
 30
0.0
 11
7848.3739297084121063
 21
1818.0742071248901084
 31
0.0
  0
LINE
  5
FE34
  8
0
 10
7848.3640871887128014
 20
1818.0618879657909019
 30
0.0
 11
7848.3640871887128014
 21
1818.0742071248901084
 31
0.0
  0
ARC
  5
FE35
  8
0
 10
7848.3671459962133667
 20
1818.0627945871160591
 30
0.0
 40
0.0068440275731964
 50
285.7909412124353139
 51
352.3877116012494071
  0
ARC
  5
FE36
  8
0
 10
7848.3708633775740964
 20
1818.062788067710926
 30
0.0
 40
0.0068357091038768
 50
187.5664788037009032
 51
254.2548672302675072
  0
LINE
  5
FE37
  8
0
 10
7848.431016322612777
 20
1818.0094911830899491
 30
0.0
 11
7848.431016322612777
 21
1818.0218103421900651
 31
0.0
  0
LINE
  5
FE38
  8
0
 10
7848.4211738029125627
 20
1818.0094911830899491
 30
0.0
 11
7848.4211738029125627
 21
1818.0218103421900651
 31
0.0
  0
ARC
  5
FE39
  8
0
 10
7848.4242326104140375
 20
1818.0103978044160158
 30
0.0
 40
0.0068440275731964
 50
285.7909412124353139
 51
352.3877116012494071
  0
ARC
  5
FE3A
  8
0
 10
7848.4279499917747671
 20
1818.0103912850111101
 30
0.0
 40
0.0068357091038768
 50
187.5664788037009032
 51
254.2548672302675072
  0
LINE
  5
FE3B
  8
0
 10
7848.4144341847131727
 20
1818.0238723217910319
 30
0.0
 11
7848.397551755612767
 21
1818.0187071589900825
 31
0.0
  0
LINE
  5
FE3C
  8
0
 10
7848.397551755612767
 20
1818.0187071589900825
 30
0.0
 11
7848.3806693266133152
 21
1818.0238723217910319
 31
0.0
  0
LINE
  5
FE3D
  8
0
 10
7848.4260950627121929
 20
1818.0028390932900493
 30
0.0
 11
7848.4004327506117988
 21
1817.9949901156899159
 31
0.0
  0
LINE
  5
FE3E
  8
0
 10
7848.3946710106129103
 20
1817.9949892892909702
 30
0.0
 11
7848.3690084485133411
 21
1818.0028390932900493
 31
0.0
  0
LINE
  5
FE3F
  8
0
 10
7848.3690084485133411
 20
1818.0028390932900493
 30
0.0
 11
7848.3690084484205727
 21
1818.0038120634189909
 31
0.0
  0
ARC
  5
FE40
  8
0
 10
7848.3991401272342046
 20
1817.9998133980830062
 30
0.0
 40
0.0049934885835253
 50
251.4526312426930872
 51
285.0025353398112884
  0
ARC
  5
FE41
  8
0
 10
7848.3959615564808701
 20
1817.999831196093055
 30
0.0
 40
0.0050109450331139
 50
255.0755351221773992
 51
288.5024468932820128
  0
LINE
  5
FE42
  8
0
 10
7848.397551755612767
 20
1817.9950792662900767
 30
0.0
 11
7848.397551755612767
 21
1818.0187071589900825
 31
0.0
  0
LINE
  5
FE43
  8
0
 10
7848.3739297084121063
 20
1818.0094911830899491
 30
0.0
 11
7848.3739297084121063
 21
1818.0218103421900651
 31
0.0
  0
LINE
  5
FE44
  8
0
 10
7848.3640871887128014
 20
1818.0094911830899491
 30
0.0
 11
7848.3640871887128014
 21
1818.0218103421900651
 31
0.0
  0
ARC
  5
FE45
  8
0
 10
7848.3671459962133667
 20
1818.0103978044160158
 30
0.0
 40
0.0068440275731964
 50
285.7909412124353139
 51
352.3877116012494071
  0
ARC
  5
FE46
  8
0
 10
7848.3708633775740964
 20
1818.0103912850111101
 30
0.0
 40
0.0068357091038768
 50
187.5664788037009032
 51
254.2548672302675072
  0
LINE
  5
FE47
  8
0
 10
7848.4595596297131124
 20
1818.0880863570901056
 30
0.0
 11
7848.4595596297131124
 21
1818.1004055161899942
 31
0.0
  0
LINE
  5
FE48
  8
0
 10
7848.449717110012898
 20
1818.0880863570901056
 30
0.0
 11
7848.449717110012898
 21
1818.1004055161899942
 31
0.0
  0
ARC
  5
FE49
  8
0
 10
7848.4527759175143728
 20
1818.0889929784159449
 30
0.0
 40
0.0068440275731964
 50
285.7909412124353139
 51
352.3877116012494071
  0
ARC
  5
FE4A
  8
0
 10
7848.4564932988751025
 20
1818.0889864590110392
 30
0.0
 40
0.0068357091038768
 50
187.5664788037009032
 51
254.2548672302675072
  0
LINE
  5
FE4B
  8
0
 10
7848.4429774918125986
 20
1818.102467495790961
 30
0.0
 11
7848.4260950627121929
 21
1818.0973023329900116
 31
0.0
  0
LINE
  5
FE4C
  8
0
 10
7848.4260950627121929
 20
1818.0973023329900116
 30
0.0
 11
7848.4092126337127411
 21
1818.102467495790961
 31
0.0
  0
LINE
  5
FE4D
  8
0
 10
7848.4546383698134377
 20
1818.0814342672899784
 30
0.0
 11
7848.4289760577130437
 21
1818.0735852896900724
 31
0.0
  0
LINE
  5
FE4E
  8
0
 10
7848.4232143177123362
 20
1818.0735844632899898
 30
0.0
 11
7848.397551755612767
 21
1818.0814342672899784
 31
0.0
  0
LINE
  5
FE4F
  8
0
 10
7848.397551755612767
 20
1818.0814342672899784
 30
0.0
 11
7848.397551755520908
 21
1818.0824072374180105
 31
0.0
  0
ARC
  5
FE50
  8
0
 10
7848.4276834343336304
 20
1818.0784085720820258
 30
0.0
 40
0.0049934885835253
 50
251.4526312426930872
 51
285.0025353398112884
  0
ARC
  5
FE51
  8
0
 10
7848.4245048635812054
 20
1818.0784263700929841
 30
0.0
 40
0.0050109450331139
 50
255.0755351221773992
 51
288.5024468932820128
  0
LINE
  5
FE52
  8
0
 10
7848.4260950627121929
 20
1818.0736744402900058
 30
0.0
 11
7848.4260950627121929
 21
1818.0973023329900116
 31
0.0
  0
LINE
  5
FE53
  8
0
 10
7848.4024730155133511
 20
1818.0880863570901056
 30
0.0
 11
7848.4024730155133511
 21
1818.1004055161899942
 31
0.0
  0
LINE
  5
FE54
  8
0
 10
7848.3926304958122273
 20
1818.0880863570901056
 30
0.0
 11
7848.3926304958122273
 21
1818.1004055161899942
 31
0.0
  0
ARC
  5
FE55
  8
0
 10
7848.3956893033127926
 20
1818.0889929784159449
 30
0.0
 40
0.0068440275731964
 50
285.7909412124353139
 51
352.3877116012494071
  0
ARC
  5
FE56
  8
0
 10
7848.3994066846744317
 20
1818.0889864590110392
 30
0.0
 40
0.0068357091038768
 50
187.5664788037009032
 51
254.2548672302675072
  0
LINE
  5
FE57
  8
0
 10
7848.4595596297131124
 20
1818.0356895744910162
 30
0.0
 11
7848.4595596297131124
 21
1818.0480087335899952
 31
0.0
  0
LINE
  5
FE58
  8
0
 10
7848.449717110012898
 20
1818.0356895744910162
 30
0.0
 11
7848.449717110012898
 21
1818.0480087335899952
 31
0.0
  0
ARC
  5
FE59
  8
0
 10
7848.4527759175143728
 20
1818.036596195815946
 30
0.0
 40
0.0068440275731964
 50
285.7909412124353139
 51
352.3877116012494071
  0
ARC
  5
FE5A
  8
0
 10
7848.4564932988751025
 20
1818.0365896764110403
 30
0.0
 40
0.0068357091038768
 50
187.5664788037009032
 51
254.2548672302675072
  0
LINE
  5
FE5B
  8
0
 10
7848.4429774918125986
 20
1818.0500707131900526
 30
0.0
 11
7848.4260950627121929
 21
1818.0449055503900126
 31
0.0
  0
LINE
  5
FE5C
  8
0
 10
7848.4260950627121929
 20
1818.0449055503900126
 30
0.0
 11
7848.4092126337127411
 21
1818.0500707131900526
 31
0.0
  0
LINE
  5
FE5D
  8
0
 10
7848.4546383698134377
 20
1818.0290374846899795
 30
0.0
 11
7848.4289760577130437
 21
1818.0211885070900735
 31
0.0
  0
LINE
  5
FE5E
  8
0
 10
7848.4232143177123362
 20
1818.0211876806899909
 30
0.0
 11
7848.397551755612767
 21
1818.0290374846899795
 31
0.0
  0
LINE
  5
FE5F
  8
0
 10
7848.397551755612767
 20
1818.0290374846899795
 30
0.0
 11
7848.397551755520908
 21
1818.0300104548180116
 31
0.0
  0
ARC
  5
FE60
  8
0
 10
7848.4276834343336304
 20
1818.0260117894829364
 30
0.0
 40
0.0049934885835253
 50
251.4526312426930872
 51
285.0025353398112884
  0
ARC
  5
FE61
  8
0
 10
7848.4245048635812054
 20
1818.0260295874929852
 30
0.0
 40
0.0050109450331139
 50
255.0755351221773992
 51
288.5024468932820128
  0
LINE
  5
FE62
  8
0
 10
7848.4260950627121929
 20
1818.0212776576900069
 30
0.0
 11
7848.4260950627121929
 21
1818.0449055503900126
 31
0.0
  0
LINE
  5
FE63
  8
0
 10
7848.4024730155133511
 20
1818.0356895744910162
 30
0.0
 11
7848.4024730155133511
 21
1818.0480087335899952
 31
0.0
  0
LINE
  5
FE64
  8
0
 10
7848.3926304958122273
 20
1818.0356895744910162
 30
0.0
 11
7848.3926304958122273
 21
1818.0480087335899952
 31
0.0
  0
ARC
  5
FE65
  8
0
 10
7848.3956893033127926
 20
1818.036596195815946
 30
0.0
 40
0.0068440275731964
 50
285.7909412124353139
 51
352.3877116012494071
  0
ARC
  5
FE66
  8
0
 10
7848.3994066846744317
 20
1818.0365896764110403
 30
0.0
 40
0.0068357091038768
 50
187.5664788037009032
 51
254.2548672302675072
  0
LINE
  5
FE67
  8
0
 10
7848.4595596297131124
 20
1818.1404831397899216
 30
0.0
 11
7848.4595596297131124
 21
1818.152802298890947
 31
0.0
  0
LINE
  5
FE68
  8
0
 10
7848.449717110012898
 20
1818.1404831397899216
 30
0.0
 11
7848.449717110012898
 21
1818.152802298890947
 31
0.0
  0
ARC
  5
FE69
  8
0
 10
7848.4527759175143728
 20
1818.1413897611159882
 30
0.0
 40
0.0068440275731964
 50
285.7909412124353139
 51
352.3877116012494071
  0
ARC
  5
FE6A
  8
0
 10
7848.4564932988751025
 20
1818.1413832417110825
 30
0.0
 40
0.0068357091038768
 50
187.5664788037009032
 51
254.2548672302675072
  0
LINE
  5
FE6B
  8
0
 10
7848.4429774918125986
 20
1818.1548642784910044
 30
0.0
 11
7848.4260950627121929
 21
1818.1496991156900549
 31
0.0
  0
LINE
  5
FE6C
  8
0
 10
7848.4260950627121929
 20
1818.1496991156900549
 30
0.0
 11
7848.4092126337127411
 21
1818.1548642784910044
 31
0.0
  0
LINE
  5
FE6D
  8
0
 10
7848.4546383698134377
 20
1818.1338310499909312
 30
0.0
 11
7848.4289760577130437
 21
1818.1259820723898883
 31
0.0
  0
LINE
  5
FE6E
  8
0
 10
7848.4232143177123362
 20
1818.1259812459900331
 30
0.0
 11
7848.397551755612767
 21
1818.1338310499909312
 31
0.0
  0
LINE
  5
FE6F
  8
0
 10
7848.397551755612767
 20
1818.1338310499909312
 30
0.0
 11
7848.397551755520908
 21
1818.1348040201180538
 31
0.0
  0
ARC
  5
FE70
  8
0
 10
7848.4276834343336304
 20
1818.1308053547829786
 30
0.0
 40
0.0049934885835253
 50
251.4526312426930872
 51
285.0025353398112884
  0
ARC
  5
FE71
  8
0
 10
7848.4245048635812054
 20
1818.1308231527930275
 30
0.0
 40
0.0050109450331139
 50
255.0755351221773992
 51
288.5024468932820128
  0
LINE
  5
FE72
  8
0
 10
7848.4260950627121929
 20
1818.1260712229909586
 30
0.0
 11
7848.4260950627121929
 21
1818.1496991156900549
 31
0.0
  0
LINE
  5
FE73
  8
0
 10
7848.4024730155133511
 20
1818.1404831397899216
 30
0.0
 11
7848.4024730155133511
 21
1818.152802298890947
 31
0.0
  0
LINE
  5
FE74
  8
0
 10
7848.3926304958122273
 20
1818.1404831397899216
 30
0.0
 11
7848.3926304958122273
 21
1818.152802298890947
 31
0.0
  0
ARC
  5
FE75
  8
0
 10
7848.3956893033127926
 20
1818.1413897611159882
 30
0.0
 40
0.0068440275731964
 50
285.7909412124353139
 51
352.3877116012494071
  0
ARC
  5
FE76
  8
0
 10
7848.3994066846744317
 20
1818.1413832417110825
 30
0.0
 40
0.0068357091038768
 50
187.5664788037009032
 51
254.2548672302675072
  0
LINE
  5
FE77
  8
0
 10
7848.4024730155133511
 20
1818.1928799224899649
 30
0.0
 11
7848.4024730155133511
 21
1818.2051369071321005
 31
0.0
  0
LINE
  5
FE78
  8
0
 10
7848.3926304958122273
 20
1818.1928799224899649
 30
0.0
 11
7848.3926304958122273
 21
1818.2051990815909903
 31
0.0
  0
ARC
  5
FE79
  8
0
 10
7848.3956893033127926
 20
1818.1937865438160316
 30
0.0
 40
0.0068440275731964
 50
285.7909412124353139
 51
352.3877116012494071
  0
ARC
  5
FE7A
  8
0
 10
7848.3994066846744317
 20
1818.1937800244108985
 30
0.0
 40
0.0068357091038768
 50
187.5664788037009032
 51
254.2548672302675072
  0
LINE
  5
FE7B
  8
0
 10
7848.39755570311263
 20
1818.1862290068900165
 30
0.0
 11
7848.397551755612767
 21
1818.1872008027899028
 31
0.0
  0
LINE
  5
FE7C
  8
0
 10
7848.3858908776119279
 20
1818.2072610611910477
 30
0.0
 11
7848.3690084485133411
 21
1818.2020958983900982
 31
0.0
  0
LINE
  5
FE7D
  8
0
 10
7848.3690084485133411
 20
1818.2020958983900982
 30
0.0
 11
7848.3521260195129798
 21
1818.2072610611910477
 31
0.0
  0
LINE
  5
FE7E
  8
0
 10
7848.39755570311263
 20
1818.1862290068900165
 30
0.0
 11
7848.371889443512373
 21
1818.1783788550899317
 31
0.0
  0
LINE
  5
FE7F
  8
0
 10
7848.366127703512575
 20
1818.1783780286900765
 30
0.0
 11
7848.3404651414130058
 21
1818.1862278326909745
 31
0.0
  0
LINE
  5
FE80
  8
0
 10
7848.3404651414130058
 20
1818.1862278326909745
 30
0.0
 11
7848.3404651413211468
 21
1818.1872008028180971
 31
0.0
  0
ARC
  5
FE81
  8
0
 10
7848.3705968201329597
 20
1818.1832021374830219
 30
0.0
 40
0.0049934885835253
 50
251.4526312426930872
 51
285.0025353398112884
  0
ARC
  5
FE82
  8
0
 10
7848.3674182493814442
 20
1818.1832199354930708
 30
0.0
 40
0.0050109450331139
 50
255.0755351221773992
 51
288.5024468932820128
  0
LINE
  5
FE83
  8
0
 10
7848.3690084485133411
 20
1818.1784680056900925
 30
0.0
 11
7848.3690084485133411
 21
1818.2020958983900982
 31
0.0
  0
LINE
  5
FE84
  8
0
 10
7848.3453864013117709
 20
1818.1928799224899649
 30
0.0
 11
7848.3453864013117709
 21
1818.2051990815909903
 31
0.0
  0
LINE
  5
FE85
  8
0
 10
7848.3355438816142851
 20
1818.1928799224899649
 30
0.0
 11
7848.3355438816142851
 21
1818.2051990815909903
 31
0.0
  0
ARC
  5
FE86
  8
0
 10
7848.3386026891139409
 20
1818.1937865438160316
 30
0.0
 40
0.0068440275731964
 50
285.7909412124353139
 51
352.3877116012494071
  0
ARC
  5
FE87
  8
0
 10
7848.3423200704728515
 20
1818.1937800244108985
 30
0.0
 40
0.0068357091038768
 50
187.5664788037009032
 51
254.2548672302675072
  0
LINE
  5
FE88
  8
0
 10
7848.5451895510122995
 20
1818.1142847484909453
 30
0.0
 11
7848.5451895510122995
 21
1818.1266039075899243
 31
0.0
  0
LINE
  5
FE89
  8
0
 10
7848.5353470313129947
 20
1818.1142847484909453
 30
0.0
 11
7848.5353470313129947
 21
1818.1266039075899243
 31
0.0
  0
ARC
  5
FE8A
  8
0
 10
7848.5384058388126505
 20
1818.1151913698161025
 30
0.0
 40
0.0068440275731964
 50
285.7909412124353139
 51
352.3877116012494071
  0
ARC
  5
FE8B
  8
0
 10
7848.5421232201742896
 20
1818.1151848504109694
 30
0.0
 40
0.0068357091038768
 50
187.5664788037009032
 51
254.2548672302675072
  0
LINE
  5
FE8C
  8
0
 10
7848.5402722386115784
 20
1818.1076338328909969
 30
0.0
 11
7848.5402682911126249
 21
1818.1086056287899737
 31
0.0
  0
LINE
  5
FE8D
  8
0
 10
7848.5286074131117857
 20
1818.1286658871899817
 30
0.0
 11
7848.511724984013199
 21
1818.1235007243899418
 31
0.0
  0
LINE
  5
FE8E
  8
0
 10
7848.511724984013199
 20
1818.1235007243899418
 30
0.0
 11
7848.4948425550119282
 21
1818.1286658871899817
 31
0.0
  0
LINE
  5
FE8F
  8
0
 10
7848.5402722386115784
 20
1818.1076338328909969
 30
0.0
 11
7848.5146059790122308
 21
1818.0997836810900026
 31
0.0
  0
LINE
  5
FE90
  8
0
 10
7848.5088442390124328
 20
1818.09978285468992
 30
0.0
 11
7848.4831816769128636
 21
1818.1076326586910454
 31
0.0
  0
LINE
  5
FE91
  8
0
 10
7848.4831816769128636
 20
1818.1076326586910454
 30
0.0
 11
7848.4831816768210047
 21
1818.1086056288179407
 31
0.0
  0
ARC
  5
FE92
  8
0
 10
7848.5133133556346365
 20
1818.1046069634830928
 30
0.0
 40
0.0049934885835253
 50
251.4526312426930872
 51
285.0025353398112884
  0
ARC
  5
FE93
  8
0
 10
7848.510134784881302
 20
1818.1046247614929143
 30
0.0
 40
0.0050109450331139
 50
255.0755351221773992
 51
288.5024468932820128
  0
LINE
  5
FE94
  8
0
 10
7848.511724984013199
 20
1818.099872831689936
 30
0.0
 11
7848.511724984013199
 21
1818.1235007243899418
 31
0.0
  0
LINE
  5
FE95
  8
0
 10
7848.4881029368116288
 20
1818.1142847484909453
 30
0.0
 11
7848.4881029368116288
 21
1818.1266039075899243
 31
0.0
  0
LINE
  5
FE96
  8
0
 10
7848.4782604171132334
 20
1818.1142847484909453
 30
0.0
 11
7848.4782604171132334
 21
1818.1266039075899243
 31
0.0
  0
ARC
  5
FE97
  8
0
 10
7848.4813192246137987
 20
1818.1151913698161025
 30
0.0
 40
0.0068440275731964
 50
285.7909412124353139
 51
352.3877116012494071
  0
ARC
  5
FE98
  8
0
 10
7848.4850366059727094
 20
1818.1151848504109694
 30
0.0
 40
0.0068357091038768
 50
187.5664788037009032
 51
254.2548672302675072
  0
LINE
  5
FE99
  8
0
 10
7848.5451895510122995
 20
1818.0618879657909019
 30
0.0
 11
7848.5451895510122995
 21
1818.0742071248901084
 31
0.0
  0
LINE
  5
FE9A
  8
0
 10
7848.5353470313129947
 20
1818.0618879657909019
 30
0.0
 11
7848.5353470313129947
 21
1818.0742071248901084
 31
0.0
  0
ARC
  5
FE9B
  8
0
 10
7848.5384058388126505
 20
1818.0627945871160591
 30
0.0
 40
0.0068440275731964
 50
285.7909412124353139
 51
352.3877116012494071
  0
ARC
  5
FE9C
  8
0
 10
7848.5421232201742896
 20
1818.062788067710926
 30
0.0
 40
0.0068357091038768
 50
187.5664788037009032
 51
254.2548672302675072
  0
LINE
  5
FE9D
  8
0
 10
7848.5402722386115784
 20
1818.0552370501909536
 30
0.0
 11
7848.5402682911126249
 21
1818.0562088460899304
 31
0.0
  0
LINE
  5
FE9E
  8
0
 10
7848.5286074131117857
 20
1818.0762691044899384
 30
0.0
 11
7848.511724984013199
 21
1818.0711039416898984
 31
0.0
  0
LINE
  5
FE9F
  8
0
 10
7848.511724984013199
 20
1818.0711039416898984
 30
0.0
 11
7848.4948425550119282
 21
1818.0762691044899384
 31
0.0
  0
LINE
  5
FEA0
  8
0
 10
7848.5402722386115784
 20
1818.0552370501909536
 30
0.0
 11
7848.5146059790122308
 21
1818.0473868983899592
 31
0.0
  0
LINE
  5
FEA1
  8
0
 10
7848.5088442390124328
 20
1818.0473860719910135
 30
0.0
 11
7848.4831816769128636
 21
1818.0552358759910021
 31
0.0
  0
LINE
  5
FEA2
  8
0
 10
7848.4831816769128636
 20
1818.0552358759910021
 30
0.0
 11
7848.4831816768210047
 21
1818.0562088461190342
 31
0.0
  0
ARC
  5
FEA3
  8
0
 10
7848.5133133556346365
 20
1818.0522101807819126
 30
0.0
 40
0.0049934885835253
 50
251.4526312426930872
 51
285.0025353398112884
  0
ARC
  5
FEA4
  8
0
 10
7848.510134784881302
 20
1818.0522279787930984
 30
0.0
 40
0.0050109450331139
 50
255.0755351221773992
 51
288.5024468932820128
  0
LINE
  5
FEA5
  8
0
 10
7848.511724984013199
 20
1818.0474760489910295
 30
0.0
 11
7848.511724984013199
 21
1818.0711039416898984
 31
0.0
  0
LINE
  5
FEA6
  8
0
 10
7848.4881029368116288
 20
1818.0618879657909019
 30
0.0
 11
7848.4881029368116288
 21
1818.0742071248901084
 31
0.0
  0
LINE
  5
FEA7
  8
0
 10
7848.4782604171132334
 20
1818.0618879657909019
 30
0.0
 11
7848.4782604171132334
 21
1818.074208627049984
 31
0.0
  0
ARC
  5
FEA8
  8
0
 10
7848.4813192246137987
 20
1818.0627945871160591
 30
0.0
 40
0.0068440275731964
 50
285.7909412124353139
 51
352.3877116012494071
  0
ARC
  5
FEA9
  8
0
 10
7848.4850366059727094
 20
1818.062788067710926
 30
0.0
 40
0.0068357091038768
 50
187.5664788037009032
 51
254.2548672302675072
  0
LINE
  5
FEAA
  8
0
 10
7848.4024730155133511
 20
1817.9832927917900633
 30
0.0
 11
7848.4024730155133511
 21
1817.9956119508899519
 31
0.0
  0
LINE
  5
FEAB
  8
0
 10
7848.3926304958122273
 20
1817.9832927917900633
 30
0.0
 11
7848.3926304958122273
 21
1817.9956119508899519
 31
0.0
  0
ARC
  5
FEAC
  8
0
 10
7848.3956893033127926
 20
1817.9841994131159026
 30
0.0
 40
0.0068440275731964
 50
285.7909412124353139
 51
352.3877116012494071
  0
ARC
  5
FEAD
  8
0
 10
7848.3994066846744317
 20
1817.9841928937109969
 30
0.0
 40
0.0068357091038768
 50
187.5664788037009032
 51
254.2548672302675072
  0
LINE
  5
FEAE
  8
0
 10
7848.39755570311263
 20
1817.9766418761910245
 30
0.0
 11
7848.397551755612767
 21
1817.9776136720900013
 31
0.0
  0
LINE
  5
FEAF
  8
0
 10
7848.3858908776119279
 20
1817.9976739304900093
 30
0.0
 11
7848.3690084485133411
 21
1817.9925087676899693
 31
0.0
  0
LINE
  5
FEB0
  8
0
 10
7848.3690084485133411
 20
1817.9925087676899693
 30
0.0
 11
7848.3521260195129798
 21
1817.9976739304900093
 31
0.0
  0
LINE
  5
FEB1
  8
0
 10
7848.39755570311263
 20
1817.9766418761910245
 30
0.0
 11
7848.371889443512373
 21
1817.9687917243909396
 31
0.0
  0
LINE
  5
FEB2
  8
0
 10
7848.366127703512575
 20
1817.9687908979899476
 30
0.0
 11
7848.3404651414130058
 21
1817.9766407019899361
 31
0.0
  0
LINE
  5
FEB3
  8
0
 10
7848.3404651414130058
 20
1817.9766407019899361
 30
0.0
 11
7848.3404651413211468
 21
1817.9776136721191051
 31
0.0
  0
ARC
  5
FEB4
  8
0
 10
7848.3705968201329597
 20
1817.973615006782893
 30
0.0
 40
0.0049934885835253
 50
251.4526312426930872
 51
285.0025353398112884
  0
ARC
  5
FEB5
  8
0
 10
7848.3674182493814442
 20
1817.9736328047929419
 30
0.0
 40
0.0050109450331139
 50
255.0755351221773992
 51
288.5024468932820128
  0
LINE
  5
FEB6
  8
0
 10
7848.3690084485133411
 20
1817.9688808749899636
 30
0.0
 11
7848.3690084485133411
 21
1817.9925087676899693
 31
0.0
  0
LINE
  5
FEB7
  8
0
 10
7848.3453864013117709
 20
1817.9832927917900633
 30
0.0
 11
7848.3453864013117709
 21
1817.9956119508899519
 31
0.0
  0
LINE
  5
FEB8
  8
0
 10
7848.3355438816142851
 20
1817.9832927917900633
 30
0.0
 11
7848.3355438816142851
 21
1817.9956119508899519
 31
0.0
  0
ARC
  5
FEB9
  8
0
 10
7848.3386026891139409
 20
1817.9841994131159026
 30
0.0
 40
0.0068440275731964
 50
285.7909412124353139
 51
352.3877116012494071
  0
ARC
  5
FEBA
  8
0
 10
7848.3423200704728515
 20
1817.9841928937109969
 30
0.0
 40
0.0068357091038768
 50
187.5664788037009032
 51
254.2548672302675072
  0
LINE
  5
FEBB
  8
0
 10
7848.3573475706116369
 20
1818.1810626697908901
 30
0.0
 11
7848.3404651415130502
 21
1818.1758975069899407
 31
0.0
  0
LINE
  5
FEBC
  8
0
 10
7848.3404651415130502
 20
1818.1758975069899407
 30
0.0
 11
7848.3261736571475922
 21
1818.1802699727888921
 31
0.0
  0
LINE
  5
FEBD
  8
0
 10
7848.337584396512284
 20
1818.1521796372899189
 30
0.0
 11
7848.3187563220290031
 21
1818.1600294412899075
 31
0.0
  0
ARC
  5
FEBE
  8
0
 10
7848.3388749423811532
 20
1818.1570215440929132
 30
0.0
 40
0.0050109450331139
 50
255.0755351221773992
 51
288.5024468932820128
  0
LINE
  5
FEBF
  8
0
 10
7848.3404651415130502
 20
1818.1522696142899349
 30
0.0
 11
7848.3404651415130502
 21
1818.1758975069899407
 31
0.0
  0
LINE
  5
FEC0
  8
0
 10
7848.3858908776119279
 20
1818.1548642784910044
 30
0.0
 11
7848.3690084485133411
 21
1818.1496991156900549
 31
0.0
  0
LINE
  5
FEC1
  8
0
 10
7848.3690084485133411
 20
1818.1496991156900549
 30
0.0
 11
7848.3521260195129798
 21
1818.1548642784910044
 31
0.0
  0
LINE
  5
FEC2
  8
0
 10
7848.366127703512575
 20
1818.1259812459900331
 30
0.0
 11
7848.3404651414130058
 21
1818.1338310499909312
 31
0.0
  0
LINE
  5
FEC3
  8
0
 10
7848.3404651414130058
 20
1818.1338310499909312
 30
0.0
 11
7848.3404651413211468
 21
1818.1348040201180538
 31
0.0
  0
ARC
  5
FEC4
  8
0
 10
7848.3674182493814442
 20
1818.1308231527930275
 30
0.0
 40
0.0050109450331139
 50
255.0755351221773992
 51
288.5024468932820128
  0
LINE
  5
FEC5
  8
0
 10
7848.3690084485133411
 20
1818.1260712229909586
 30
0.0
 11
7848.3690084485133411
 21
1818.1496991156900549
 31
0.0
  0
LINE
  5
FEC6
  8
0
 10
7848.3453864013117709
 20
1818.1404831397899216
 30
0.0
 11
7848.3453864013117709
 21
1818.152802298890947
 31
0.0
  0
LINE
  5
FEC7
  8
0
 10
7848.3355438816142851
 20
1818.1404831397899216
 30
0.0
 11
7848.3355438816142851
 21
1818.152802298890947
 31
0.0
  0
ARC
  5
FEC8
  8
0
 10
7848.3386026891139409
 20
1818.1413897611159882
 30
0.0
 40
0.0068440275731964
 50
285.7909412124353139
 51
352.3877116012494071
  0
ARC
  5
FEC9
  8
0
 10
7848.3423200704728515
 20
1818.1413832417110825
 30
0.0
 40
0.0068357091038768
 50
187.5664788037009032
 51
254.2548672302675072
  0
LINE
  5
FECA
  8
0
 10
7848.3858908776119279
 20
1818.102467495790961
 30
0.0
 11
7848.3690084485133411
 21
1818.0973023329900116
 31
0.0
  0
LINE
  5
FECB
  8
0
 10
7848.3690084485133411
 20
1818.0973023329900116
 30
0.0
 11
7848.3521260195129798
 21
1818.102467495790961
 31
0.0
  0
LINE
  5
FECC
  8
0
 10
7848.366127703512575
 20
1818.0735844632899898
 30
0.0
 11
7848.3404651414130058
 21
1818.0814342672899784
 31
0.0
  0
LINE
  5
FECD
  8
0
 10
7848.3404651414130058
 20
1818.0814342672899784
 30
0.0
 11
7848.3404651413211468
 21
1818.0824072374180105
 31
0.0
  0
ARC
  5
FECE
  8
0
 10
7848.3674182493814442
 20
1818.0784263700929841
 30
0.0
 40
0.0050109450331139
 50
255.0755351221773992
 51
288.5024468932820128
  0
LINE
  5
FECF
  8
0
 10
7848.3690084485133411
 20
1818.0736744402900058
 30
0.0
 11
7848.3690084485133411
 21
1818.0973023329900116
 31
0.0
  0
LINE
  5
FED0
  8
0
 10
7848.3453864013117709
 20
1818.0880863570901056
 30
0.0
 11
7848.3453864013117709
 21
1818.1004055161899942
 31
0.0
  0
ARC
  5
FED1
  8
0
 10
7848.3386026891139409
 20
1818.0889929784159449
 30
0.0
 40
0.0068440275731964
 50
285.7909412124353139
 51
352.3877116012494071
  0
LINE
  5
FED2
  8
0
 10
7848.3573475706116369
 20
1818.1286658871899817
 30
0.0
 11
7848.3404651415130502
 21
1818.1235007243899418
 31
0.0
  0
LINE
  5
FED3
  8
0
 10
7848.3404651415130502
 20
1818.1235007243899418
 30
0.0
 11
7848.3261736572858354
 21
1818.1278731901470564
 31
0.0
  0
LINE
  5
FED4
  8
0
 10
7848.337584396512284
 20
1818.09978285468992
 30
0.0
 11
7848.3187563220290031
 21
1818.1075763648209431
 31
0.0
  0
ARC
  5
FED5
  8
0
 10
7848.3388749423811532
 20
1818.1046247614929143
 30
0.0
 40
0.0050109450331139
 50
255.0755351221773992
 51
288.5024468932820128
  0
LINE
  5
FED6
  8
0
 10
7848.3404651415130502
 20
1818.099872831689936
 30
0.0
 11
7848.3404651415130502
 21
1818.1235007243899418
 31
0.0
  0
LINE
  5
FED7
  8
0
 10
7848.3573475706116369
 20
1818.0762691044899384
 30
0.0
 11
7848.3404651415130502
 21
1818.0711039416898984
 31
0.0
  0
LINE
  5
FED8
  8
0
 10
7848.3404651415130502
 20
1818.0711039416898984
 30
0.0
 11
7848.3261736572858354
 21
1818.0754764074461036
 31
0.0
  0
ARC
  5
FED9
  8
0
 10
7848.3388749423811532
 20
1818.0522279787930984
 30
0.0
 40
0.0050109450331139
 50
255.0755351221773992
 51
288.5024468932820128
  0
LINE
  5
FEDA
  8
0
 10
7848.3404651415130502
 20
1818.0474760489910295
 30
0.0
 11
7848.3404651415130502
 21
1818.0711039416898984
 31
0.0
  0
LINE
  5
FEDB
  8
0
 10
7848.3858908776119279
 20
1818.0500707131900526
 30
0.0
 11
7848.3690084485133411
 21
1818.0449055503900126
 31
0.0
  0
LINE
  5
FEDC
  8
0
 10
7848.3690084485133411
 20
1818.0449055503900126
 30
0.0
 11
7848.3521260195129798
 21
1818.0500707131900526
 31
0.0
  0
LINE
  5
FEDD
  8
0
 10
7848.366127703512575
 20
1818.0211876806899909
 30
0.0
 11
7848.3404651414130058
 21
1818.0290374846899795
 31
0.0
  0
LINE
  5
FEDE
  8
0
 10
7848.3404651414130058
 20
1818.0290374846899795
 30
0.0
 11
7848.3404651413211468
 21
1818.0300104548180116
 31
0.0
  0
ARC
  5
FEDF
  8
0
 10
7848.3674182493814442
 20
1818.0260295874929852
 30
0.0
 40
0.0050109450331139
 50
255.0755351221773992
 51
288.5024468932820128
  0
LINE
  5
FEE0
  8
0
 10
7848.3690084485133411
 20
1818.0212776576900069
 30
0.0
 11
7848.3690084485133411
 21
1818.0449055503900126
 31
0.0
  0
LINE
  5
FEE1
  8
0
 10
7848.3453864013117709
 20
1818.0356895744910162
 30
0.0
 11
7848.3453864013117709
 21
1818.0480087335899952
 31
0.0
  0
LINE
  5
FEE2
  8
0
 10
7848.3355438816142851
 20
1818.0356895744910162
 30
0.0
 11
7848.3355438816142851
 21
1818.0482248792829978
 31
0.0
  0
ARC
  5
FEE3
  8
0
 10
7848.3386026891139409
 20
1818.036596195815946
 30
0.0
 40
0.0068440275731964
 50
285.7909412124353139
 51
352.3877116012494071
  0
ARC
  5
FEE4
  8
0
 10
7848.3423200704728515
 20
1818.0365896764110403
 30
0.0
 40
0.0068357091038768
 50
187.5664788037009032
 51
254.2548672302675072
  0
LINE
  5
FEE5
  8
0
 10
7848.3573475706116369
 20
1818.0238723217910319
 30
0.0
 11
7848.3404651415130502
 21
1818.0187071589900825
 31
0.0
  0
LINE
  5
FEE6
  8
0
 10
7848.3404651415130502
 20
1818.0187071589900825
 30
0.0
 11
7848.3248919909519827
 21
1818.0234717493199241
 31
0.0
  0
LINE
  5
FEE7
  8
0
 10
7848.337584396512284
 20
1817.9949892892909702
 30
0.0
 11
7848.3187563220280936
 21
1818.0007485230660222
 31
0.0
  0
ARC
  5
FEE8
  8
0
 10
7848.3388749423811532
 20
1817.999831196093055
 30
0.0
 40
0.0050109450331139
 50
255.0755351221773992
 51
288.5024468932820128
  0
LINE
  5
FEE9
  8
0
 10
7848.3404651415130502
 20
1817.9950792662900767
 30
0.0
 11
7848.3404651415130502
 21
1818.0187071589900825
 31
0.0
  0
LINE
  5
FEEA
  8
0
 10
7848.5571507202121211
 20
1818.102467495790961
 30
0.0
 11
7848.5402682911126249
 21
1818.0973023329900116
 31
0.0
  0
LINE
  5
FEEB
  8
0
 10
7848.5402682911126249
 20
1818.0973023329900116
 30
0.0
 11
7848.5233858621131731
 21
1818.102467495790961
 31
0.0
  0
LINE
  5
FEEC
  8
0
 10
7848.5715044876133106
 20
1818.082257867602948
 30
0.0
 11
7848.5431492861116567
 21
1818.0735852896900724
 31
0.0
  0
LINE
  5
FEED
  8
0
 10
7848.5373875461127682
 20
1818.0735844632899898
 30
0.0
 11
7848.5117289315121525
 21
1818.0814354414899299
 31
0.0
  0
ARC
  5
FEEE
  8
0
 10
7848.5418566627340624
 20
1818.0784085720820258
 30
0.0
 40
0.0049934885835253
 50
251.4526312426930872
 51
285.0025353398112884
  0
ARC
  5
FEEF
  8
0
 10
7848.5386780919825469
 20
1818.0784263700929841
 30
0.0
 40
0.0050109450331139
 50
255.0755351221773992
 51
288.5024468932820128
  0
LINE
  5
FEF0
  8
0
 10
7848.5402682911126249
 20
1818.0736744402900058
 30
0.0
 11
7848.5402682911126249
 21
1818.0973023329900116
 31
0.0
  0
LINE
  5
FEF1
  8
0
 10
7848.5166462439119641
 20
1818.1404831397899216
 30
0.0
 11
7848.5166462439119641
 21
1818.152802298890947
 31
0.0
  0
LINE
  5
FEF2
  8
0
 10
7848.5068037242117498
 20
1818.1404831397899216
 30
0.0
 11
7848.5068037242117498
 21
1818.152802298890947
 31
0.0
  0
ARC
  5
FEF3
  8
0
 10
7848.5098625317150436
 20
1818.1413897611159882
 30
0.0
 40
0.0068440275731964
 50
285.7909412124353139
 51
352.3877116012494071
  0
ARC
  5
FEF4
  8
0
 10
7848.5135799130739542
 20
1818.1413832417110825
 30
0.0
 40
0.0068357091038768
 50
187.5664788037009032
 51
254.2548672302675072
  0
LINE
  5
FEF5
  8
0
 10
7848.5117289315121525
 20
1818.1338322241899732
 30
0.0
 11
7848.511724984013199
 21
1818.1348040200900869
 31
0.0
  0
LINE
  5
FEF6
  8
0
 10
7848.5000641060123598
 20
1818.1548642784910044
 30
0.0
 11
7848.4831816769128636
 21
1818.1496991156900549
 31
0.0
  0
LINE
  5
FEF7
  8
0
 10
7848.4831816769128636
 20
1818.1496991156900549
 30
0.0
 11
7848.4662992479134118
 21
1818.1548642784910044
 31
0.0
  0
LINE
  5
FEF8
  8
0
 10
7848.5117289315121525
 20
1818.1338322241899732
 30
0.0
 11
7848.4860626719128049
 21
1818.1259820723898883
 31
0.0
  0
LINE
  5
FEF9
  8
0
 10
7848.4803009319139164
 20
1818.1259812459900331
 30
0.0
 11
7848.4546383698134377
 21
1818.1338310499909312
 31
0.0
  0
LINE
  5
FEFA
  8
0
 10
7848.4546383698134377
 20
1818.1338310499909312
 30
0.0
 11
7848.4546383697197598
 21
1818.1348040201180538
 31
0.0
  0
ARC
  5
FEFB
  8
0
 10
7848.4847700485352107
 20
1818.1308053547829786
 30
0.0
 40
0.0049934885835253
 50
251.4526312426930872
 51
285.0025353398112884
  0
ARC
  5
FEFC
  8
0
 10
7848.4815914777818762
 20
1818.1308231527930275
 30
0.0
 40
0.0050109450331139
 50
255.0755351221773992
 51
288.5024468932820128
  0
LINE
  5
FEFD
  8
0
 10
7848.4831816769128636
 20
1818.1260712229909586
 30
0.0
 11
7848.4831816769128636
 21
1818.1496991156900549
 31
0.0
  0
LINE
  5
FEFE
  8
0
 10
7848.5166462439119641
 20
1818.0880863570901056
 30
0.0
 11
7848.5166462439119641
 21
1818.1004055161899942
 31
0.0
  0
LINE
  5
FEFF
  8
0
 10
7848.5068037242117498
 20
1818.0880863570901056
 30
0.0
 11
7848.5068037242117498
 21
1818.1004055161899942
 31
0.0
  0
ARC
  5
FF00
  8
0
 10
7848.5098625317150436
 20
1818.0889929784159449
 30
0.0
 40
0.0068440275731964
 50
285.7909412124353139
 51
352.3877116012494071
  0
ARC
  5
FF01
  8
0
 10
7848.5135799130739542
 20
1818.0889864590110392
 30
0.0
 40
0.0068357091038768
 50
187.5664788037009032
 51
254.2548672302675072
  0
LINE
  5
FF02
  8
0
 10
7848.5117289315121525
 20
1818.0814354414899299
 30
0.0
 11
7848.511724984013199
 21
1818.0824072373900435
 31
0.0
  0
LINE
  5
FF03
  8
0
 10
7848.5000641060123598
 20
1818.102467495790961
 30
0.0
 11
7848.4831816769128636
 21
1818.0973023329900116
 31
0.0
  0
LINE
  5
FF04
  8
0
 10
7848.4831816769128636
 20
1818.0973023329900116
 30
0.0
 11
7848.4662992479134118
 21
1818.102467495790961
 31
0.0
  0
LINE
  5
FF05
  8
0
 10
7848.5117289315121525
 20
1818.0814354414899299
 30
0.0
 11
7848.4860626719128049
 21
1818.0735852896900724
 31
0.0
  0
LINE
  5
FF06
  8
0
 10
7848.4803009319139164
 20
1818.0735844632899898
 30
0.0
 11
7848.4546383698134377
 21
1818.0814342672899784
 31
0.0
  0
LINE
  5
FF07
  8
0
 10
7848.4546383698134377
 20
1818.0814342672899784
 30
0.0
 11
7848.4546383697197598
 21
1818.0824072374180105
 31
0.0
  0
ARC
  5
FF08
  8
0
 10
7848.4847700485352107
 20
1818.0784085720820258
 30
0.0
 40
0.0049934885835253
 50
251.4526312426930872
 51
285.0025353398112884
  0
ARC
  5
FF09
  8
0
 10
7848.4815914777818762
 20
1818.0784263700929841
 30
0.0
 40
0.0050109450331139
 50
255.0755351221773992
 51
288.5024468932820128
  0
LINE
  5
FF0A
  8
0
 10
7848.4831816769128636
 20
1818.0736744402900058
 30
0.0
 11
7848.4831816769128636
 21
1818.0973023329900116
 31
0.0
  0
LINE
  5
FF0B
  8
0
 10
7848.5166462439119641
 20
1818.0356895744910162
 30
0.0
 11
7848.5166462439119641
 21
1818.0480087335899952
 31
0.0
  0
LINE
  5
FF0C
  8
0
 10
7848.5068037242117498
 20
1818.0356895744910162
 30
0.0
 11
7848.5068037242117498
 21
1818.0480087335899952
 31
0.0
  0
ARC
  5
FF0D
  8
0
 10
7848.5098625317150436
 20
1818.036596195815946
 30
0.0
 40
0.0068440275731964
 50
285.7909412124353139
 51
352.3877116012494071
  0
ARC
  5
FF0E
  8
0
 10
7848.5135799130739542
 20
1818.0365896764110403
 30
0.0
 40
0.0068357091038768
 50
187.5664788037009032
 51
254.2548672302675072
  0
LINE
  5
FF0F
  8
0
 10
7848.5117289315121525
 20
1818.029038658889931
 30
0.0
 11
7848.511724984013199
 21
1818.0300104547909541
 31
0.0
  0
LINE
  5
FF10
  8
0
 10
7848.5000641060123598
 20
1818.0500707131900526
 30
0.0
 11
7848.4831816769128636
 21
1818.0449055503900126
 31
0.0
  0
LINE
  5
FF11
  8
0
 10
7848.4831816769128636
 20
1818.0449055503900126
 30
0.0
 11
7848.4662992479134118
 21
1818.0500707131900526
 31
0.0
  0
LINE
  5
FF12
  8
0
 10
7848.5117289315121525
 20
1818.029038658889931
 30
0.0
 11
7848.4860626719128049
 21
1818.0211885070900735
 31
0.0
  0
LINE
  5
FF13
  8
0
 10
7848.4803009319139164
 20
1818.0211876806899909
 30
0.0
 11
7848.4546383698134377
 21
1818.0290374846899795
 31
0.0
  0
LINE
  5
FF14
  8
0
 10
7848.4546383698134377
 20
1818.0290374846899795
 30
0.0
 11
7848.4546383697197598
 21
1818.0300104548180116
 31
0.0
  0
ARC
  5
FF15
  8
0
 10
7848.4847700485352107
 20
1818.0260117894829364
 30
0.0
 40
0.0049934885835253
 50
251.4526312426930872
 51
285.0025353398112884
  0
ARC
  5
FF16
  8
0
 10
7848.4815914777818762
 20
1818.0260295874929852
 30
0.0
 40
0.0050109450331139
 50
255.0755351221773992
 51
288.5024468932820128
  0
LINE
  5
FF17
  8
0
 10
7848.4831816769128636
 20
1818.0212776576900069
 30
0.0
 11
7848.4831816769128636
 21
1818.0449055503900126
 31
0.0
  0
LINE
  5
FF18
  8
0
 10
7848.4881029368116288
 20
1818.0094911830899491
 30
0.0
 11
7848.4881029368116288
 21
1818.0218103421900651
 31
0.0
  0
LINE
  5
FF19
  8
0
 10
7848.4782604171132334
 20
1818.0094911830899491
 30
0.0
 11
7848.4782604171132334
 21
1818.0218103421900651
 31
0.0
  0
ARC
  5
FF1A
  8
0
 10
7848.4813192246137987
 20
1818.0103978044160158
 30
0.0
 40
0.0068440275731964
 50
285.7909412124353139
 51
352.3877116012494071
  0
ARC
  5
FF1B
  8
0
 10
7848.4850366059727094
 20
1818.0103912850111101
 30
0.0
 40
0.0068357091038768
 50
187.5664788037009032
 51
254.2548672302675072
  0
LINE
  5
FF1C
  8
0
 10
7848.4831856244127266
 20
1818.0028402674900008
 30
0.0
 11
7848.4831816769128636
 21
1818.003812063389887
 31
0.0
  0
LINE
  5
FF1D
  8
0
 10
7848.471520798912934
 20
1818.0238723217910319
 30
0.0
 11
7848.4546383698134377
 21
1818.0187071589900825
 31
0.0
  0
LINE
  5
FF1E
  8
0
 10
7848.4546383698134377
 20
1818.0187071589900825
 30
0.0
 11
7848.4377559408112575
 21
1818.0238723217910319
 31
0.0
  0
LINE
  5
FF1F
  8
0
 10
7848.4831856244127266
 20
1818.0028402674900008
 30
0.0
 11
7848.4575193648133791
 21
1817.9949901156899159
 31
0.0
  0
LINE
  5
FF20
  8
0
 10
7848.4517576248117621
 20
1817.9949892892909702
 30
0.0
 11
7848.4260950627121929
 21
1818.0028390932900493
 31
0.0
  0
LINE
  5
FF21
  8
0
 10
7848.4260950627121929
 20
1818.0028390932900493
 30
0.0
 11
7848.4260950626203339
 21
1818.0038120634189909
 31
0.0
  0
ARC
  5
FF22
  8
0
 10
7848.4562267414348753
 20
1817.9998133980830062
 30
0.0
 40
0.0049934885835253
 50
251.4526312426930872
 51
285.0025353398112884
  0
ARC
  5
FF23
  8
0
 10
7848.4530481706806313
 20
1817.999831196093055
 30
0.0
 40
0.0050109450331139
 50
255.0755351221773992
 51
288.5024468932820128
  0
LINE
  5
FF24
  8
0
 10
7848.4546383698134377
 20
1817.9950792662900767
 30
0.0
 11
7848.4546383698134377
 21
1818.0187071589900825
 31
0.0
  0
LINE
  5
FF25
  8
0
 10
7848.4881029368116288
 20
1818.1666815310900347
 30
0.0
 11
7848.4881029368116288
 21
1818.177631102586929
 31
0.0
  0
LINE
  5
FF26
  8
0
 10
7848.4782604171132334
 20
1818.1666815310900347
 30
0.0
 11
7848.4782604171132334
 21
1818.1790006901899233
 31
0.0
  0
ARC
  5
FF27
  8
0
 10
7848.4813192246137987
 20
1818.1675881524161014
 30
0.0
 40
0.0068440275731964
 50
285.7909412124353139
 51
352.3877116012494071
  0
ARC
  5
FF28
  8
0
 10
7848.4850366059727094
 20
1818.1675816330109683
 30
0.0
 40
0.0068357091038768
 50
187.5664788037009032
 51
254.2548672302675072
  0
LINE
  5
FF29
  8
0
 10
7848.4831856244127266
 20
1818.1600306154900863
 30
0.0
 11
7848.4831816769128636
 21
1818.1610024113899726
 31
0.0
  0
LINE
  5
FF2A
  8
0
 10
7848.471520798912934
 20
1818.1810626697908901
 30
0.0
 11
7848.4546383698134377
 21
1818.1758975069899407
 31
0.0
  0
LINE
  5
FF2B
  8
0
 10
7848.4546383698134377
 20
1818.1758975069899407
 30
0.0
 11
7848.4377559408112575
 21
1818.1810626697908901
 31
0.0
  0
LINE
  5
FF2C
  8
0
 10
7848.4831856244127266
 20
1818.1600306154900863
 30
0.0
 11
7848.4575193648133791
 21
1818.1521804636900015
 31
0.0
  0
LINE
  5
FF2D
  8
0
 10
7848.4517576248117621
 20
1818.1521796372899189
 30
0.0
 11
7848.4260950627121929
 21
1818.1600294412899075
 31
0.0
  0
LINE
  5
FF2E
  8
0
 10
7848.4260950627121929
 20
1818.1600294412899075
 30
0.0
 11
7848.4260950626203339
 21
1818.1610024114179396
 31
0.0
  0
ARC
  5
FF2F
  8
0
 10
7848.4562267414348753
 20
1818.1570037460819549
 30
0.0
 40
0.0049934885835253
 50
251.4526312426930872
 51
285.0025353398112884
  0
ARC
  5
FF30
  8
0
 10
7848.4530481706806313
 20
1818.1570215440929132
 30
0.0
 40
0.0050109450331139
 50
255.0755351221773992
 51
288.5024468932820128
  0
LINE
  5
FF31
  8
0
 10
7848.4546383698134377
 20
1818.1522696142899349
 30
0.0
 11
7848.4546383698134377
 21
1818.1758975069899407
 31
0.0
  0
LINE
  5
FF32
  8
0
 10
7848.471520798912934
 20
1818.1286658871899817
 30
0.0
 11
7848.4546383698134377
 21
1818.1235007243899418
 31
0.0
  0
LINE
  5
FF33
  8
0
 10
7848.4546383698134377
 20
1818.1235007243899418
 30
0.0
 11
7848.4377559408112575
 21
1818.1286658871899817
 31
0.0
  0
LINE
  5
FF34
  8
0
 10
7848.4831816769128636
 20
1818.1076326586910454
 30
0.0
 11
7848.4575193648133791
 21
1818.0997836810900026
 31
0.0
  0
LINE
  5
FF35
  8
0
 10
7848.4517576248117621
 20
1818.09978285468992
 30
0.0
 11
7848.4260990102129654
 21
1818.1076338328909969
 31
0.0
  0
ARC
  5
FF36
  8
0
 10
7848.4562267414348753
 20
1818.1046069634830928
 30
0.0
 40
0.0049934885835253
 50
251.4526312426930872
 51
285.0025353398112884
  0
ARC
  5
FF37
  8
0
 10
7848.4530481706806313
 20
1818.1046247614929143
 30
0.0
 40
0.0050109450331139
 50
255.0755351221773992
 51
288.5024468932820128
  0
LINE
  5
FF38
  8
0
 10
7848.4546383698134377
 20
1818.099872831689936
 30
0.0
 11
7848.4546383698134377
 21
1818.1235007243899418
 31
0.0
  0
LINE
  5
FF39
  8
0
 10
7848.471520798912934
 20
1818.0762691044899384
 30
0.0
 11
7848.4546383698134377
 21
1818.0711039416898984
 31
0.0
  0
LINE
  5
FF3A
  8
0
 10
7848.4546383698134377
 20
1818.0711039416898984
 30
0.0
 11
7848.4377559408112575
 21
1818.0762691044899384
 31
0.0
  0
LINE
  5
FF3B
  8
0
 10
7848.4831816769128636
 20
1818.0552358759910021
 30
0.0
 11
7848.4575193648133791
 21
1818.0473868983899592
 31
0.0
  0
LINE
  5
FF3C
  8
0
 10
7848.4517576248117621
 20
1818.0473860719910135
 30
0.0
 11
7848.4260990102129654
 21
1818.0552370501909536
 31
0.0
  0
ARC
  5
FF3D
  8
0
 10
7848.4562267414348753
 20
1818.0522101807819126
 30
0.0
 40
0.0049934885835253
 50
251.4526312426930872
 51
285.0025353398112884
  0
ARC
  5
FF3E
  8
0
 10
7848.4530481706806313
 20
1818.0522279787930984
 30
0.0
 40
0.0050109450331139
 50
255.0755351221773992
 51
288.5024468932820128
  0
LINE
  5
FF3F
  8
0
 10
7848.4546383698134377
 20
1818.0474760489910295
 30
0.0
 11
7848.4546383698134377
 21
1818.0711039416898984
 31
0.0
  0
LINE
  5
FF40
  8
0
 10
7848.5223866912392623
 20
1818.0257747702410143
 30
0.0
 11
7848.5115061552387488
 21
1818.018774109413016
 31
0.0
  0
LINE
  5
FF41
  8
0
 10
7848.5115061552387488
 20
1818.018774109413016
 30
0.0
 11
7848.4948425549127933
 21
1818.0238723217910319
 31
0.0
  0
ARC
  5
FF42
  8
0
 10
7848.5349701331651886
 20
1818.0276621566090398
 30
0.0
 40
0.0095300479536082
 50
314.4354253853459795
 51
357.0491429030935251
  0
ARC
  5
FF43
  8
0
 10
7848.5403090211739254
 20
1818.0221036724310579
 30
0.0
 40
0.0018250117742713
 50
271.3408612731893754
 51
316.9271612091652059
  0
LINE
  5
FF44
  8
0
 10
7848.5444875448347375
 20
1818.0271715553828926
 30
0.0
 11
7848.5444875449047686
 21
1818.043614673762022
 31
0.0
  0
LINE
  5
FF45
  8
0
 10
7848.5444875449047686
 20
1818.043614673762022
 30
0.0
 11
7848.5521925887187535
 21
1818.0515880683531122
 31
0.0
  0
LINE
  5
FF46
  8
0
 10
7848.5444875449047686
 20
1818.043614673762022
 30
0.0
 11
7848.523385862035866
 21
1818.050070713183004
 31
0.0
  0
LINE
  5
FF47
  8
0
 10
7848.5644010985615751
 20
1818.0478524331399512
 30
0.0
 11
7848.5402722386143068
 21
1818.0552370499281096
 31
0.0
  0
LINE
  5
FF48
  8
0
 10
7848.566708613985611
 20
1818.0553042293211092
 30
0.0
 11
7848.5451895510122995
 21
1818.0618879657929483
 31
0.0
  0
LINE
  5
FF49
  8
0
 10
7848.5667083453436135
 20
1818.0548124080110028
 30
0.0
 11
7848.5667175939670415
 21
1818.0717446002740871
 31
0.0
  0
LINE
  5
FF4A
  8
0
 10
7848.5667175939670415
 20
1818.0717446002740871
 30
0.0
 11
7848.5715507297290969
 21
1818.0816894029298965
 31
0.0
  0
LINE
  5
FF4B
  8
0
 10
7848.5667175939670415
 20
1818.0717446002740871
 30
0.0
 11
7848.5519291691271064
 21
1818.076269104486073
 31
0.0
  0
LINE
  5
FF4C
  8
0
 10
7848.5114848450275531
 20
1818.0018456222990153
 30
0.0
 11
7848.5115061553133273
 21
1818.0187741093900513
 31
0.0
  0
ARC
  5
FF4D
  8
0
 10
7848.5045102810190656
 20
1818.0027999764129163
 30
0.0
 40
0.0070395549717302
 50
281.2132931685951007
 51
352.2084131062359802
  0
LINE
  5
FF4E
  8
0
 10
7848.5058792065128728
 20
1817.9958948060909734
 30
0.0
 11
7848.4831856244127266
 21
1818.0028402674900008
 31
0.0
  0
LINE
  5
FF4F
  8
0
 10
7848.5403517270133307
 20
1818.0202791603899186
 30
0.0
 11
7848.5117289315139715
 21
1818.0290386586279965
 31
0.0
  0
LINE
  5
FF50
  8
0
 10
7848.5678450918203453
 20
1818.0991955631939163
 30
0.0
 11
7848.5402722386143068
 21
1818.1076338326279256
 31
0.0
  0
ARC
  5
FF51
  8
0
 10
7848.4527759175143728
 20
1818.1937865437159871
 30
0.0
 40
0.0068440275731628
 50
285.7909412123278798
 51
326.8973611211665116
  0
ARC
  5
FF52
  8
0
 10
7848.4564932988751025
 20
1818.1937800243110814
 30
0.0
 40
0.0068357091038828
 50
187.7893734887906021
 51
254.2548672303211958
  0
LINE
  5
FF53
  8
0
 10
7848.4546423173133007
 20
1818.1862290067899721
 30
0.0
 11
7848.4546383698134377
 21
1818.1872008026909953
 31
0.0
  0
LINE
  5
FF54
  8
0
 10
7848.4546423173133007
 20
1818.1862290067899721
 30
0.0
 11
7848.4289760577130437
 21
1818.1783788549910241
 31
0.0
  0
LINE
  5
FF55
  8
0
 10
7848.4232143177123362
 20
1818.178378028590032
 30
0.0
 11
7848.39755570311263
 21
1818.1862290068900165
 31
0.0
  0
ARC
  5
FF56
  8
0
 10
7848.4276834343336304
 20
1818.1832021373829775
 30
0.0
 40
0.0049934885835253
 50
251.4526312426930872
 51
285.0025353398112884
  0
ARC
  5
FF57
  8
0
 10
7848.4245048635812054
 20
1818.1832199353930264
 30
0.0
 40
0.0050109450331139
 50
255.0755351221773992
 51
288.5024468932820128
  0
LINE
  5
FF58
  8
0
 10
7848.4260950627121929
 20
1818.1784680055900481
 30
0.0
 11
7848.4260950627121929
 21
1818.1996947944380736
 31
0.0
  0
LINE
  5
FF59
  8
0
 10
7848.4803021233128675
 20
1818.1783760321900445
 30
0.0
 11
7848.4546423173133007
 21
1818.1862290067899721
 31
0.0
  0
ARC
  5
FF5A
  8
0
 10
7848.4815881059903404
 20
1818.1832370895440363
 30
0.0
 40
0.0050282830117359
 50
255.1819775747630956
 51
288.4768511717319939
  0
ARC
  5
FF5B
  8
0
 10
7848.484769946515371
 20
1818.183198840509931
 30
0.0
 40
0.0049903305866283
 50
251.4417012568715109
 51
289.0150140583638745
  0
LINE
  5
FF5C
  8
0
 10
7848.4831816769128636
 20
1818.1784680055900481
 30
0.0
 11
7848.4831806670226797
 21
1818.1800345348528936
 31
0.0
  0
LINE
  5
FF5D
  8
0
 10
7848.5242380619829419
 20
1818.155125008242976
 30
0.0
 11
7848.5146045376122856
 21
1818.1521776407898869
 31
0.0
  0
LINE
  5
FF5E
  8
0
 10
7848.511724984013199
 20
1818.1522696142899349
 30
0.0
 11
7848.511724984013199
 21
1818.1639713734050474
 31
0.0
  0
LINE
  5
FF5F
  8
0
 10
7848.5088454304122934
 20
1818.1521776407898869
 30
0.0
 11
7848.4831856244127266
 21
1818.1600306154900863
 31
0.0
  0
ARC
  5
FF60
  8
0
 10
7848.513318218781933
 20
1818.1570281685410464
 30
0.0
 40
0.0050181904694162
 50
251.4886874258268961
 51
284.852479852065926
  0
ARC
  5
FF61
  8
0
 10
7848.5101314129087768
 20
1818.1570386986109042
 30
0.0
 40
0.0050282834168217
 50
255.1819809267636003
 51
288.4768517360985811
  0
LINE
  5
FF62
  8
0
 10
7848.5524061678906946
 20
1818.1288119171870221
 30
0.0
 11
7848.543147844718078
 21
1818.1259792493920031
 31
0.0
  0
LINE
  5
FF63
  8
0
 10
7848.5402682911180818
 20
1818.1260712228920511
 30
0.0
 11
7848.5402682911180818
 21
1818.1418223503260378
 31
0.0
  0
LINE
  5
FF64
  8
0
 10
7848.5373887375180857
 20
1818.1259792493920031
 30
0.0
 11
7848.5117289315176095
 21
1818.1338322240919751
 31
0.0
  0
ARC
  5
FF65
  8
0
 10
7848.5418615258886348
 20
1818.1308297771429352
 30
0.0
 40
0.0050181904694162
 50
251.4886874258268961
 51
284.852479852065926
  0
ARC
  5
FF66
  8
0
 10
7848.5386747200145692
 20
1818.1308403072130204
 30
0.0
 40
0.0050282834168217
 50
255.1819809267636003
 51
288.4768517360985811
  0
LINE
  5
FF67
  8
0
 10
7848.3645817306678509
 20
1818.2110722572610939
 30
0.0
 11
7848.3433461365129915
 21
1818.2045772462909099
 31
0.0
  0
LINE
  5
FF68
  8
0
 10
7848.337584396512284
 20
1818.2045764198899178
 30
0.0
 11
7848.3187563220280936
 21
1818.2103356536661067
 31
0.0
  0
ARC
  5
FF69
  8
0
 10
7848.3420535131335782
 20
1818.2094005286830907
 30
0.0
 40
0.0049934885835253
 50
251.4526312426930872
 51
285.0025353398112884
  0
ARC
  5
FF6A
  8
0
 10
7848.3388749423811532
 20
1818.2094183266929122
 30
0.0
 40
0.0050109450331139
 50
255.0755351221773992
 51
288.5024468932820128
  0
LINE
  5
FF6B
  8
0
 10
7848.3404651415130502
 20
1818.2046663968899338
 30
0.0
 11
7848.3404651415130502
 21
1818.2131117989749782
 31
0.0
  0
LINE
  5
FF6C
  8
0
 10
7848.3946710106201863
 20
1818.2045764198919642
 30
0.0
 11
7848.3799967644326898
 21
1818.2090650580869351
 31
0.0
  0
ARC
  5
FF6D
  8
0
 10
7848.399140127240571
 20
1818.2094005286840002
 30
0.0
 40
0.0049934885835253
 50
251.4526312426930872
 51
285.0025353398112884
  0
ARC
  5
FF6E
  8
0
 10
7848.395961556488146
 20
1818.2094183266949585
 30
0.0
 40
0.0050109450331139
 50
255.0755351221773992
 51
288.5024468932820128
  0
LINE
  5
FF6F
  8
0
 10
7848.3975517556191335
 20
1818.2046663968919802
 30
0.0
 11
7848.3975517556191335
 21
1818.2060998444019333
 31
0.0
  0
ARC
  5
FF70
  8
0
 10
7848.2722837682940735
 20
1818.6285808430079669
 30
0.0
 40
0.442946059581889
 50
286.8166860842094934
 51
287.0760074581795038
  0
LINE
  5
FF71
  8
0
 10
7848.3690084485133411
 20
1818.1600294412899075
 30
0.0
 11
7848.3433461365184485
 21
1818.152180463689092
 31
0.0
  0
ARC
  5
FF72
  8
0
 10
7848.3420535131399447
 20
1818.1570037460810454
 30
0.0
 40
0.0049934885835253
 50
251.4526312426930872
 51
285.0025353398112884
  0
LINE
  5
FF73
  8
0
 10
7848.397551755612767
 20
1818.1338310499909312
 30
0.0
 11
7848.371889443512373
 21
1818.1259820722909808
 31
0.0
  0
ARC
  5
FF74
  8
0
 10
7848.3705968201329597
 20
1818.1308053546829342
 30
0.0
 40
0.0049934885835253
 50
251.4526312426930872
 51
285.0025353398112884
  0
LINE
  5
FF75
  8
0
 10
7848.397551755612767
 20
1818.0814342672899784
 30
0.0
 11
7848.3718894435187394
 21
1818.073585289688026
 31
0.0
  0
ARC
  5
FF76
  8
0
 10
7848.3705968201393262
 20
1818.0784085720808889
 30
0.0
 40
0.0049934885835253
 50
251.4526312426930872
 51
285.0025353398112884
  0
LINE
  5
FF77
  8
0
 10
7848.397551755612767
 20
1818.0290374846899795
 30
0.0
 11
7848.371889443512373
 21
1818.0211885069900291
 31
0.0
  0
ARC
  5
FF78
  8
0
 10
7848.3705968201329597
 20
1818.0260117893828919
 30
0.0
 40
0.0049934885835253
 50
251.4526312426930872
 51
285.0025353398112884
  0
LINE
  5
FF79
  8
0
 10
7848.3690084485133411
 20
1818.1076326586910454
 30
0.0
 11
7848.3433461365129915
 21
1818.0997836809899582
 31
0.0
  0
ARC
  5
FF7A
  8
0
 10
7848.3420535131335782
 20
1818.1046069633819116
 30
0.0
 40
0.0049934885835253
 50
251.4526312426930872
 51
285.0025353398112884
  0
ARC
  5
FF7B
  8
0
 10
7848.4326015462629584
 20
1817.9712956786279392
 30
0.0
 40
0.0051494550226861
 50
255.8352863813983049
 51
288.0948266842019052
  0
ARC
  5
FF7C
  8
0
 10
7848.4327511358433185
 20
1817.9735030222580008
 30
0.0
 40
0.0072485905364227
 50
281.5374806929590932
 51
346.9691332603891851
  0
LINE
  5
FF7D
  8
0
 10
7848.43134142161216
 20
1817.9663027863900879
 30
0.0
 11
7848.397555703114449
 21
1817.9766418759279532
 31
0.0
  0
LINE
  5
FF7E
  8
0
 10
7848.4398130660119932
 20
1817.9718686394910492
 30
0.0
 11
7848.4398130649133236
 21
1817.9883117581900933
 31
0.0
  0
LINE
  5
FF7F
  8
0
 10
7848.4398130649133236
 20
1817.9883117581900933
 30
0.0
 11
7848.4497171099492334
 21
1817.9913418912090037
 31
0.0
  0
LINE
  5
FF80
  8
0
 10
7848.4398130648332881
 20
1817.9883117582151044
 30
0.0
 11
7848.4092126336117872
 21
1817.9976739304900093
 31
0.0
  0
ARC
  5
FF81
  8
0
 10
7848.4522411819489207
 20
1817.9747634550440125
 30
0.0
 40
0.0025137890417704
 50
187.4751951628373092
 51
279.8866591500612913
  0
ARC
  5
FF82
  8
0
 10
7848.4523114817857277
 20
1817.9797779301020455
 30
0.0
 40
0.0074996411476764
 50
272.761478831244915
 51
344.2059973325438023
  0
LINE
  5
FF83
  8
0
 10
7848.459527985412933
 20
1817.9777366853900276
 30
0.0
 11
7848.4595596297131124
 21
1817.99561195085289
 31
0.0
  0
LINE
  5
FF84
  8
0
 10
7848.4497487551889208
 20
1817.9744364181860874
 30
0.0
 11
7848.449717110012898
 21
1817.9956119508219672
 31
0.0
  0
ARC
  5
FF85
  8
0
 10
7851.0206269750442516
 20
1815.6221518791869585
 30
0.0
 40
0.0688176913784172
 50
3.0377697167763631
 51
39.6739483789375882
  0
ARC
  5
FF86
  8
0
 10
7851.0273725076413029
 20
1815.6271452360140302
 30
0.0
 40
0.0619900810609028
 50
316.1154486654006064
 51
358.7554465737883902
  0
ARC
  5
FF87
  8
0
 10
7848.3187563220280936
 20
1818.4516131144860083
 30
0.0
 40
0.7378086078312104
 50
252.0436289952754123
 51
287.9563710047206087
  0
ARC
  5
FF88
  8
0
 10
7848.3214096359606629
 20
1818.437799912446053
 30
0.0
 40
0.7238523061135111
 50
288.0936584859730942
 51
302.1591479794219026
  0
LINE
  5
FF89
  8
0
 10
7849.2557641961293484
 20
1812.6051944709899999
 30
0.0
 11
7849.2557641961293484
 21
1813.6427871164898988
 31
0.0
  0
LINE
  5
FF8B
  8
0
 10
7847.8236175547617677
 20
1819.9944637548719584
 30
0.0
 11
7847.8236175547617677
 21
1816.0197329583909323
 31
0.0
  0
LINE
  5
FF8C
  8
0
 10
7848.8138950892944194
 20
1819.9944637548719584
 30
0.0
 11
7848.8138950892944194
 21
1816.0197329583909323
 31
0.0
  0
LINE
  5
FF8D
  8
0
 10
7848.2941667575441897
 20
1817.9949892892909702
 30
0.0
 11
7848.2685041954446206
 21
1818.0028390932900493
 31
0.0
  0
ARC
  5
FF8E
  8
0
 10
7848.2954573034139685
 20
1817.999831196093055
 30
0.0
 40
0.0050109450331139
 50
255.0755351221773992
 51
288.5024468932820128
  0
LINE
  5
FF8F
  8
0
 10
7848.2941667575441897
 20
1818.0473860719910135
 30
0.0
 11
7848.2685041954446206
 21
1818.0552358759910021
 31
0.0
  0
ARC
  5
FF90
  8
0
 10
7848.2954573034139685
 20
1818.0522279787930984
 30
0.0
 40
0.0050109450331139
 50
255.0755351221773992
 51
288.5024468932820128
  0
LINE
  5
FF91
  8
0
 10
7848.3187563220280936
 20
1818.2138120934851031
 30
0.0
 11
7848.3187563220280936
 21
1818.2103356536661067
 31
0.0
  0
LINE
  5
FF92
  8
0
 10
7848.3322236170843098
 20
1818.2062162042439013
 30
0.0
 11
7848.3187563220280936
 21
1818.2020958983900982
 31
0.0
  0
LINE
  5
FF93
  8
0
 10
7848.3187563220280936
 20
1818.2020958983900982
 30
0.0
 11
7848.3052890270109856
 21
1818.2062162042559521
 31
0.0
  0
LINE
  5
FF94
  8
0
 10
7848.3158755770291464
 20
1818.1783780286900765
 30
0.0
 11
7848.2970475026440909
 21
1818.1862278326909745
 31
0.0
  0
ARC
  5
FF95
  8
0
 10
7848.3171661228980156
 20
1818.1832199354930708
 30
0.0
 40
0.0050109450331139
 50
255.0755351221773992
 51
288.5024468932820128
  0
LINE
  5
FF96
  8
0
 10
7848.3187563220280936
 20
1818.1784680056900925
 30
0.0
 11
7848.3187563220280936
 21
1818.2020958983900982
 31
0.0
  0
LINE
  5
FF97
  8
0
 10
7848.3404651414130058
 20
1818.1862278326909745
 30
0.0
 11
7848.3216373170353108
 21
1818.1783788550881127
 31
0.0
  0
ARC
  5
FF98
  8
0
 10
7848.3203446936558976
 20
1818.1832021374809756
 30
0.0
 40
0.0049934885835253
 50
251.4526312426930872
 51
285.0025353398112884
  0
LINE
  5
FF99
  8
0
 10
7848.3236775818231763
 20
1818.1666815311918981
 30
0.0
 11
7848.3236775818231763
 21
1818.1792294043771108
 31
0.0
  0
LINE
  5
FF9A
  8
0
 10
7848.313835062121143
 20
1818.1666815311918981
 30
0.0
 11
7848.313835062121143
 21
1818.1792287605148886
 31
0.0
  0
ARC
  5
FF9B
  8
0
 10
7848.3168938696244368
 20
1818.1675881525170553
 30
0.0
 40
0.0068440275731964
 50
285.7909412124353139
 51
352.3877116012494071
  0
ARC
  5
FF9C
  8
0
 10
7848.3206112509833474
 20
1818.1675816331119222
 30
0.0
 40
0.0068357091038768
 50
187.5664788037009032
 51
254.2548672302675072
  0
LINE
  5
FF9D
  8
0
 10
7848.2999282475457221
 20
1818.1521796372910558
 30
0.0
 11
7848.3187563220290031
 21
1818.1600294412899075
 31
0.0
  0
LINE
  5
FF9E
  8
0
 10
7848.3187563220290031
 20
1818.1600294412899075
 30
0.0
 11
7848.318756322120862
 21
1818.1610024114179396
 31
0.0
  0
LINE
  5
FF9F
  8
0
 10
7848.3330470479550058
 20
1818.1540713494189276
 30
0.0
 11
7848.3187563220280936
 21
1818.1496991156900549
 31
0.0
  0
LINE
  5
FFA0
  8
0
 10
7848.3187563220280936
 20
1818.1496991156900549
 30
0.0
 11
7848.3044655961402896
 21
1818.1540713494339343
 31
0.0
  0
LINE
  5
FFA1
  8
0
 10
7848.3158755770291464
 20
1818.1259812459900331
 30
0.0
 11
7848.2970475026440909
 21
1818.1338310499909312
 31
0.0
  0
LINE
  5
FFA2
  8
0
 10
7848.3187563220280936
 20
1818.1260712229900491
 30
0.0
 11
7848.3187563220280936
 21
1818.1496991156900549
 31
0.0
  0
LINE
  5
FFA3
  8
0
 10
7848.3404651414130058
 20
1818.1338310499909312
 30
0.0
 11
7848.3216373170353108
 21
1818.1259820723880694
 31
0.0
  0
LINE
  5
FFA4
  8
0
 10
7848.3236775818231763
 20
1818.1142284547220243
 30
0.0
 11
7848.3236775818231763
 21
1818.1268326216770674
 31
0.0
  0
LINE
  5
FFA5
  8
0
 10
7848.313835062121143
 20
1818.1142284547220243
 30
0.0
 11
7848.313835062121143
 21
1818.1268319778150726
 31
0.0
  0
ARC
  5
FFA6
  8
0
 10
7848.3168938696244368
 20
1818.1151350760480909
 30
0.0
 40
0.0068440275731964
 50
285.7909412124353139
 51
352.3877116012494071
  0
ARC
  5
FFA7
  8
0
 10
7848.3206112509833474
 20
1818.1151285566429578
 30
0.0
 40
0.0068357091038768
 50
187.5664788037009032
 51
254.2548672302675072
  0
LINE
  5
FFA8
  8
0
 10
7848.3187563220290031
 20
1818.1075763648209431
 30
0.0
 11
7848.318756322120862
 21
1818.1085493349489752
 31
0.0
  0
ARC
  5
FFA9
  8
0
 10
7848.3171661228980156
 20
1818.1308231527930275
 30
0.0
 40
0.0050109450331139
 50
255.0755351221773992
 51
288.5024468932820128
  0
ARC
  5
FFAA
  8
0
 10
7848.3203446936558976
 20
1818.1308053547800228
 30
0.0
 40
0.0049934885835253
 50
251.4526312426930872
 51
285.0025353398112884
  0
LINE
  5
FFAB
  8
0
 10
7848.3158755770291464
 20
1818.0735844632899898
 30
0.0
 11
7848.2970475026440909
 21
1818.0814342672899784
 31
0.0
  0
LINE
  5
FFAC
  8
0
 10
7848.3404651414130058
 20
1818.0814342672899784
 30
0.0
 11
7848.3216373170353108
 21
1818.073585289688026
 31
0.0
  0
ARC
  5
FFAD
  8
0
 10
7848.3171661228980156
 20
1818.0784263700929841
 30
0.0
 40
0.0050109450331139
 50
255.0755351221773992
 51
288.5024468932820128
  0
ARC
  5
FFAE
  8
0
 10
7848.3203446936558976
 20
1818.0784085720799794
 30
0.0
 40
0.0049934885835253
 50
251.4526312426930872
 51
285.0025353398112884
  0
LINE
  5
FFAF
  8
0
 10
7848.2999282475448126
 20
1818.0473860719910135
 30
0.0
 11
7848.3187563220290031
 21
1818.0551258469799905
 31
0.0
  0
LINE
  5
FFB0
  8
0
 10
7848.337584396512284
 20
1818.0473860719910135
 30
0.0
 11
7848.3187563220290031
 21
1818.0551258469799905
 31
0.0
  0
LINE
  5
FFB1
  8
0
 10
7848.3236775818231763
 20
1818.0617779368810716
 30
0.0
 11
7848.3236775818231763
 21
1818.0744358389758872
 31
0.0
  0
LINE
  5
FFB2
  8
0
 10
7848.313835062121143
 20
1818.0617779368810716
 30
0.0
 11
7848.313835062121143
 21
1818.0744351951138924
 31
0.0
  0
ARC
  5
FFB3
  8
0
 10
7848.3168938696244368
 20
1818.0626845582069109
 30
0.0
 40
0.0068440275731964
 50
285.7909412124353139
 51
352.3877116012494071
  0
ARC
  5
FFB4
  8
0
 10
7848.3206112509833474
 20
1818.0626780388020052
 30
0.0
 40
0.0068357091038768
 50
187.5664788037009032
 51
254.2548672302675072
  0
LINE
  5
FFB5
  8
0
 10
7848.3187563220290031
 20
1818.0551258469799905
 30
0.0
 11
7848.318756322120862
 21
1818.0560988171080226
 31
0.0
  0
ARC
  5
FFB6
  8
0
 10
7848.3420553406431281
 20
1818.0522279787930984
 30
0.0
 40
0.0050109450331139
 50
251.4975531067181009
 51
284.9244648778225724
  0
LINE
  5
FFB7
  8
0
 10
7848.3433458865119974
 20
1818.0473860719910135
 30
0.0
 11
7848.3690084485133411
 21
1818.0552358759910021
 31
0.0
  0
LINE
  5
FFB8
  8
0
 10
7848.3158755770291464
 20
1818.0223077251619088
 30
0.0
 11
7848.2970475026440909
 21
1818.0290374846899795
 31
0.0
  0
LINE
  5
FFB9
  8
0
 10
7848.3187563220280936
 20
1818.0223977021619248
 30
0.0
 11
7848.3187563220280936
 21
1818.0460255948619306
 31
0.0
  0
LINE
  5
FFBA
  8
0
 10
7848.3404651414130058
 20
1818.0290374846899795
 30
0.0
 11
7848.3216373170353108
 21
1818.022308551559945
 31
0.0
  0
ARC
  5
FFBB
  8
0
 10
7848.3171661228980156
 20
1818.0271496319639937
 30
0.0
 40
0.0050109450331139
 50
255.0755351221773992
 51
288.5024468932820128
  0
ARC
  5
FFBC
  8
0
 10
7848.3203446936558976
 20
1818.0271318339518984
 30
0.0
 40
0.0049934885835253
 50
251.4526312426930872
 51
285.0025353398112884
  0
LINE
  5
FFBD
  8
0
 10
7848.3314479967593797
 20
1818.0499086004290348
 30
0.0
 11
7848.3187563220280936
 21
1818.0460255948619306
 31
0.0
  0
LINE
  5
FFBE
  8
0
 10
7848.3187563220280936
 20
1818.0460255948619306
 30
0.0
 11
7848.3060646473286397
 21
1818.0499086004429046
 31
0.0
  0
LINE
  5
FFBF
  8
0
 10
7848.3187563220208176
 20
1817.9700009194639279
 30
0.0
 11
7848.3187563220208176
 21
1817.9936288121630241
 31
0.0
  0
ARC
  5
FFC0
  8
0
 10
7848.3171661228907396
 20
1817.9747528492659967
 30
0.0
 40
0.0050109450331139
 50
255.0755351221773992
 51
288.5024468932820128
  0
ARC
  5
FFC1
  8
0
 10
7848.3203446936504406
 20
1817.9747350512539015
 30
0.0
 40
0.0049934885835253
 50
251.4526312426930872
 51
285.0025353398112884
  0
LINE
  5
FFC2
  8
0
 10
7848.3158755770209609
 20
1817.9699109424630024
 30
0.0
 11
7848.2970475026368149
 21
1817.9766407019919825
 31
0.0
  0
LINE
  5
FFC3
  8
0
 10
7848.3404651414057298
 20
1817.9766407019919825
 30
0.0
 11
7848.3216373170271254
 21
1817.9699117688619481
 31
0.0
  0
LINE
  5
FFC4
  8
0
 10
7848.3303929840658384
 20
1817.9971890376230022
 30
0.0
 11
7848.3187563220208176
 21
1817.9936288121630241
 31
0.0
  0
LINE
  5
FFC5
  8
0
 10
7848.3187563220208176
 20
1817.9936288121630241
 30
0.0
 11
7848.3071196600194526
 21
1817.9971890376320971
 31
0.0
  0
LINE
  5
FFC6
  8
0
 10
7848.3236775818231763
 20
1818.0074006129671034
 30
0.0
 11
7848.3236775818231763
 21
1818.0230377279660843
 31
0.0
  0
LINE
  5
FFC7
  8
0
 10
7848.313835062121143
 20
1818.0074006129671034
 30
0.0
 11
7848.313835062121143
 21
1818.0230370708370629
 31
0.0
  0
ARC
  5
FFC8
  8
0
 10
7848.3168938696244368
 20
1818.0083072342929427
 30
0.0
 40
0.0068440275731964
 50
285.7909412124353139
 51
352.3877116012494071
  0
ARC
  5
FFC9
  8
0
 10
7848.3206112509833474
 20
1818.008300714888037
 30
0.0
 40
0.0068357091038768
 50
187.5664788037009032
 51
254.2548672302675072
  0
LINE
  5
FFCA
  8
0
 10
7848.3187563220290031
 20
1818.0007485230660222
 30
0.0
 11
7848.318756322120862
 21
1818.0017214931940543
 31
0.0
  0
LINE
  5
FFCB
  8
0
 10
7848.3433458865119974
 20
1817.9949892892909702
 30
0.0
 11
7848.3690084485133411
 21
1818.0028390932900493
 31
0.0
  0
ARC
  5
FFCC
  8
0
 10
7848.3420553406431281
 20
1817.999831196093055
 30
0.0
 40
0.0050109450331139
 50
251.4975531067181009
 51
284.9244648778225724
  0
LINE
  5
FFCD
  8
0
 10
7848.263582929619588
 20
1817.9694157512919901
 30
0.0
 11
7848.2636145803444379
 21
1817.9578991694900196
 31
0.0
  0
LINE
  5
FFCE
  8
0
 10
7848.2734254591041463
 20
1817.9694150628999978
 30
0.0
 11
7848.2733938105193374
 21
1817.9567591340210129
 31
0.0
  0
ARC
  5
FFCF
  8
0
 10
7848.2683492300711805
 20
1817.9587797313120063
 30
0.0
 40
0.0048158381569011
 50
190.5356367864330025
 51
262.6314948478864153
  0
ARC
  5
FFD0
  8
0
 10
7848.2683893445246213
 20
1817.9598474323729533
 30
0.0
 40
0.0058806691628499
 50
263.57807707137232
 51
328.3209087842250824
  0
LINE
  5
FFD1
  8
0
 10
7848.3739297144347802
 20
1817.9694157512919901
 30
0.0
 11
7848.3738980637117493
 21
1817.9578991694900196
 31
0.0
  0
LINE
  5
FFD2
  8
0
 10
7848.3640871849529503
 20
1817.9694150628999978
 30
0.0
 11
7848.3641188335377592
 21
1817.9567591340210129
 31
0.0
  0
ARC
  5
FFD3
  8
0
 10
7848.3691634139859161
 20
1817.9587797313120063
 30
0.0
 40
0.0048158381569011
 50
277.3685051521136984
 51
349.4643632135669122
  0
ARC
  5
FFD4
  8
0
 10
7848.3691232995306564
 20
1817.9598474323729533
 30
0.0
 40
0.0058806691628499
 50
211.6790912157748892
 51
276.42192292862768
  0
LINE
  5
FFD5
  8
0
 10
7848.3138350622321013
 20
1817.9706402880970018
 30
0.0
 11
7848.3138350622102735
 21
1817.9556326918129798
 31
0.0
  0
LINE
  5
FFD6
  8
0
 10
7848.3236775819277682
 20
1817.9706409453081051
 30
0.0
 11
7848.3236775819277682
 21
1817.955632691765004
 31
0.0
  0
ARC
  5
FFD7
  8
0
 10
7848.3177244650869397
 20
1817.9557938743489558
 30
0.0
 40
0.0038927412486754
 50
182.3730636319218945
 51
252.589820488820294
  0
ARC
  5
FFD8
  8
0
 10
7848.3187024698099776
 20
1817.9578489685509339
 30
0.0
 40
0.0061545508929761
 50
249.6253598151550079
 51
307.9082834257396826
  0
ARC
  5
FFD9
  8
0
 10
7848.3201570045694098
 20
1817.9556351008029651
 30
0.0
 40
0.0035205781827161
 50
311.3699465633154091
 51
359.9607940238751098
  0
ARC
  5
FFDA
  8
0
 10
7848.3187563220280936
 20
1819.9863110052040156
 30
0.0
 40
0.4952058826158544
 50
0.9433233082708518
 51
179.0566766917291091
  0
ENDSEC
  0
EOF
