  0
SECTION
  2
HEADER
  9
$ACADVER
  1
AC1009
  9
$INSBASE
 10
4746.1533748242372894
 20
230.9629120380197946
 30
0.0
  9
$EXTMIN
 10
4745.0333748242383081
 20
215.9566620380329027
 30
0.0
  9
$EXTMAX
 10
4747.2733748242380898
 20
230.967811536952496
 30
0.0
  9
$LIMMIN
 10
0.0
 20
0.0
  9
$LIMMAX
 10
11.6929133858000007
 20
8.2677165353999982
  9
$ORTHOMODE
 70
     0
  9
$REGENMODE
 70
     1
  9
$FILLMODE
 70
     1
  9
$QTEXTMODE
 70
     0
  9
$MIRRTEXT
 70
     0
  9
$DRAGMODE
 70
     2
  9
$LTSCALE
 40
0.6431102362
  9
$OSMODE
 70
  4095
  9
$ATTMODE
 70
     1
  9
$TEXTSIZE
 40
0.2
  9
$TRACEWID
 40
0.05
  9
$TEXTSTYLE
  7
STANDARD
  9
$CLAYER
  8
0
  9
$CELTYPE
  6
BYLAYER
  9
$CECOLOR
 62
   256
  9
$DIMSCALE
 40
1.0
  9
$DIMASZ
 40
0.1875
  9
$DIMEXO
 40
0.0625
  9
$DIMDLI
 40
0.4443307087
  9
$DIMRND
 40
0.0
  9
$DIMDLE
 40
0.0
  9
$DIMEXE
 40
0.125
  9
$DIMTP
 40
0.01
  9
$DIMTM
 40
0.01
  9
$DIMTXT
 40
2.0
  9
$DIMCEN
 40
0.1052362205
  9
$DIMTSZ
 40
0.0
  9
$DIMTOL
 70
     1
  9
$DIMLIM
 70
     0
  9
$DIMTIH
 70
     1
  9
$DIMTOH
 70
     1
  9
$DIMSE1
 70
     0
  9
$DIMSE2
 70
     0
  9
$DIMTAD
 70
     0
  9
$DIMZIN
 70
     0
  9
$DIMBLK
  1

  9
$DIMASO
 70
     1
  9
$DIMSHO
 70
     1
  9
$DIMPOST
  1
\X
  9
$DIMAPOST
  1

  9
$DIMALT
 70
     1
  9
$DIMALTD
 70
     2
  9
$DIMALTF
 40
25.3999999999999986
  9
$DIMLFAC
 40
1.0
  9
$DIMTOFL
 70
     0
  9
$DIMTVP
 40
0.0
  9
$DIMTIX
 70
     0
  9
$DIMSOXD
 70
     0
  9
$DIMSAH
 70
     0
  9
$DIMBLK1
  1

  9
$DIMBLK2
  1

  9
$DIMSTYLE
  2
STANDARD
  9
$DIMCLRD
 70
     0
  9
$DIMCLRE
 70
     0
  9
$DIMCLRT
 70
     0
  9
$DIMTFAC
 40
1.0
  9
$DIMGAP
 40
0.09
  9
$LUNITS
 70
     2
  9
$LUPREC
 70
     4
  9
$SKETCHINC
 40
0.1
  9
$FILLETRAD
 40
0.0
  9
$AUNITS
 70
     0
  9
$AUPREC
 70
     0
  9
$MENU
  1
.
  9
$ELEVATION
 40
0.0
  9
$PELEVATION
 40
0.0
  9
$THICKNESS
 40
0.0
  9
$LIMCHECK
 70
     0
  9
$BLIPMODE
 70
     0
  9
$CHAMFERA
 40
0.0
  9
$CHAMFERB
 40
0.0
  9
$SKPOLY
 70
     0
  9
$TDCREATE
 40
2458060.468368056230247
  9
$TDUPDATE
 40
2460503.5657175919041038
  9
$TDINDWG
 40
0.4205857639
  9
$TDUSRTIMER
 40
0.4205857639
  9
$USRTIMER
 70
     1
  9
$ANGBASE
 50
0.0
  9
$ANGDIR
 70
     0
  9
$PDMODE
 70
     0
  9
$PDSIZE
 40
0.3125
  9
$PLINEWID
 40
0.0
  9
$COORDS
 70
     1
  9
$SPLFRAME
 70
     0
  9
$SPLINETYPE
 70
     6
  9
$SPLINESEGS
 70
     8
  9
$ATTDIA
 70
     1
  9
$ATTREQ
 70
     1
  9
$HANDLING
 70
     1
  9
$HANDSEED
  5
ABE3
  9
$SURFTAB1
 70
     6
  9
$SURFTAB2
 70
     6
  9
$SURFTYPE
 70
     6
  9
$SURFU
 70
     6
  9
$SURFV
 70
     6
  9
$UCSNAME
  2

  9
$UCSORG
 10
0.0
 20
0.0
 30
0.0
  9
$UCSXDIR
 10
1.0
 20
0.0
 30
0.0
  9
$UCSYDIR
 10
0.0
 20
1.0
 30
0.0
  9
$PUCSNAME
  2

  9
$PUCSORG
 10
0.0
 20
0.0
 30
0.0
  9
$PUCSXDIR
 10
1.0
 20
0.0
 30
0.0
  9
$PUCSYDIR
 10
0.0
 20
1.0
 30
0.0
  9
$USERI1
 70
     0
  9
$USERI2
 70
     0
  9
$USERI3
 70
     0
  9
$USERI4
 70
     0
  9
$USERI5
 70
     0
  9
$USERR1
 40
0.0
  9
$USERR2
 40
0.0
  9
$USERR3
 40
0.0
  9
$USERR4
 40
0.0
  9
$USERR5
 40
0.0
  9
$WORLDVIEW
 70
     1
  9
$SHADEDGE
 70
     3
  9
$SHADEDIF
 70
    70
  9
$TILEMODE
 70
     1
  9
$MAXACTVP
 70
    64
  9
$PLIMCHECK
 70
     0
  9
$PEXTMIN
 10
1.0000000000000000E+20
 20
1.0000000000000000E+20
 30
1.0000000000000000E+20
  9
$PEXTMAX
 10
-1.0000000000000000E+20
 20
-1.0000000000000000E+20
 30
-1.0000000000000000E+20
  9
$PLIMMIN
 10
0.0
 20
0.0
  9
$PLIMMAX
 10
12.0
 20
9.0
  9
$UNITMODE
 70
     0
  9
$VISRETAIN
 70
     1
  9
$PLINEGEN
 70
     0
  9
$PSLTSCALE
 70
     1
  0
ENDSEC
  0
SECTION
  2
TABLES
  0
TABLE
  2
VPORT
 70
     1
  0
VPORT
  2
*ACTIVE
 70
     0
 10
0.0
 20
0.0
 11
1.0
 21
1.0
 12
942.6093074414256989
 22
97.466974590742808
 13
0.0
 23
0.0
 14
1.0
 24
1.0
 15
0.0
 25
0.0
 16
0.0
 26
0.0
 36
17.1152628219792007
 17
3803.5440673828129547
 27
125.9952621967499056
 37
0.0
 40
15.1173202226011405
 41
2.1211111111111101
 42
50.0
 43
0.0
 44
0.0
 50
0.0
 51
0.0
 71
     0
 72
   100
 73
     1
 74
     1
 75
     0
 76
     0
 77
     0
 78
     0
  0
ENDTAB
  0
TABLE
  2
LTYPE
 70
     2
  0
LTYPE
  2
CONTINUOUS
 70
     0
  3
Solid line
 72
    65
 73
     0
 40
0.0
  0
LTYPE
  2
PHANTOM2
 70
     0
  3
___ _ _ ___ _ _ ___ _ _ ___ _ _
 72
    65
 73
     6
 40
1.25
 49
0.625
 49
-0.125
 49
0.125
 49
-0.125
 49
0.125
 49
-0.125
  0
ENDTAB
  0
TABLE
  2
LAYER
 70
     2
  0
LAYER
  2
0
 70
     0
 62
   255
  6
CONTINUOUS
  0
LAYER
  2
DEFPOINTS
 70
     0
 62
     7
  6
CONTINUOUS
  0
ENDTAB
  0
TABLE
  2
STYLE
 70
     1
  0
STYLE
  2
STANDARD
 70
     0
 40
0.0
 41
0.8
 50
0.0
 71
     0
 42
0.2
  3
txt
  4

  0
ENDTAB
  0
TABLE
  2
VIEW
 70
     0
  0
ENDTAB
  0
TABLE
  2
UCS
 70
     0
  0
ENDTAB
  0
TABLE
  2
APPID
 70
     9
  0
APPID
  2
ACAD
 70
     0
  0
APPID
  2
ACAD_MLEADERVER
 70
     0
  0
APPID
  2
ACAD_EXEMPT_FROM_CAD_STANDARDS
 70
     0
  0
APPID
  2
ACAD_NAV_VCDISPLAY
 70
     0
  0
APPID
  2
ACAECLAYERSTANDARD
 70
     0
  0
APPID
  2
ACCMTRANSPARENCY
 70
     0
  0
APPID
  2
ACAD_DSTYLE_DIMJAG
 70
     0
  0
APPID
  2
ACAD_DSTYLE_DIMTALN
 70
     0
  0
APPID
  2
ACDBATTR
 70
     0
  0
ENDTAB
  0
TABLE
  2
DIMSTYLE
 70
     1
  0
DIMSTYLE
  2
STANDARD
 70
     0
  3

  4

  5

  6

  7

 40
1.0
 41
0.1875
 42
0.0625
 43
0.38
 44
0.125
 45
0.0
 46
0.0
 47
0.01
 48
0.01
140
0.15625
141
0.09
142
0.0
143
25.3999999999999986
144
1.0
145
0.0
146
1.0
147
0.09
 71
     1
 72
     0
 73
     1
 74
     1
 75
     0
 76
     0
 77
     0
 78
     4
170
     0
171
     2
172
     0
173
     0
174
     0
175
     0
176
     0
177
     0
178
     0
  0
ENDTAB
  0
ENDSEC
  0
SECTION
  2
BLOCKS
  0
BLOCK
  8
0
  2
$MODEL_SPACE
 70
     0
 10
0.0
 20
0.0
 30
0.0
  3
$MODEL_SPACE
  1

  0
ENDBLK
  5
21
  8
0
  0
BLOCK
 67
     1
  8
0
  2
$PAPER_SPACE
 70
     0
 10
0.0
 20
0.0
 30
0.0
  3
$PAPER_SPACE
  1

  0
ENDBLK
  5
1D
 67
     1
  8
0
  0
ENDSEC
  0
SECTION
  2
ENTITIES
  0
ATTDEF
  5
3930
  8
DEFPOINTS
 10
4746.1496099758587661
 20
230.9668115369524912
 30
0.0
 40
0.001
  1
K-10124
  3

  2
MODELNUMBER
 70
     0
1001
ACDBATTR
1070
     0
1070
     1
  0
ATTDEF
  5
3931
  8
DEFPOINTS
 10
4746.1496099758587661
 20
230.9651448702857977
 30
0.0
 40
0.001
  1

  3

  2
TRADENAME
 70
     0
1001
ACDBATTR
1070
     0
1070
     1
  0
ATTDEF
  5
3932
  8
DEFPOINTS
 10
4746.1496099758587661
 20
230.9634782036191041
 30
0.0
 40
0.001
  1
SHOWER ARM 
  3

  2
PRODUCT
 70
     0
1001
ACDBATTR
1070
     0
1070
     1
  0
LINE
  5
AB49
  8
0
 10
4747.2407785052382678
 20
230.7935651939197896
 30
0.0
 11
4746.8285674461376402
 21
230.6753655748198071
 31
0.0
  0
LINE
  5
AB4A
  8
0
 10
4745.0333748242383081
 20
230.9179120380198071
 30
0.0
 11
4745.0333748242383081
 21
230.8368219702198019
 31
0.0
  0
LINE
  5
AB4B
  8
0
 10
4745.5433748242376168
 20
230.5963915688666077
 30
0.0
 11
4745.5433748242376168
 21
230.3329120380197992
 31
0.0
  0
LINE
  5
AB4C
  8
0
 10
4745.7478748242383517
 20
230.2729120380197969
 30
0.0
 11
4745.7478748242383517
 21
216.3629120380198003
 31
0.0
  0
LINE
  5
AB4D
  8
0
 10
4746.5588748242380461
 20
230.2729120380197969
 30
0.0
 11
4746.5588748242380461
 21
216.3629120380198003
 31
0.0
  0
LINE
  5
AB4E
  8
0
 10
4747.2733748242380898
 20
230.9179120380198071
 30
0.0
 11
4747.2733748242380898
 21
230.8368219703197894
 31
0.0
  0
LINE
  5
AB4F
  8
0
 10
4745.6033805142378696
 20
230.2729120380197969
 30
0.0
 11
4746.7033691341375743
 21
230.2729120380197969
 31
0.0
  0
LINE
  5
AB50
  8
0
 10
4745.0659711432263066
 20
230.7935651939025092
 30
0.0
 11
4745.4781822022387132
 21
230.6753655748198071
 31
0.0
  0
LINE
  5
AB51
  8
0
 10
4745.4781822022387132
 20
230.6753655748198071
 30
0.0
 11
4746.8285674461376402
 21
230.6753655748198071
 31
0.0
  0
LINE
  5
AB52
  8
0
 10
4747.2407785052382678
 20
230.7935651939197896
 30
0.0
 11
4745.06597114323813
 21
230.7935651939197896
 31
0.0
  0
LINE
  5
AB53
  8
0
 10
4745.0783839789373815
 20
230.9629120380197946
 30
0.0
 11
4747.2283656694380625
 21
230.9629120380197946
 31
0.0
  0
ARC
  5
AB54
  8
0
 10
4746.1533748242372894
 20
216.3621627303406001
 30
0.0
 40
0.4055006923076682
 50
179.8941254779016106
 51
0.1058745220983625
  0
ARC
  5
AB55
  8
0
 10
4745.4528031212657879
 20
230.5880201939804124
 30
0.0
 40
0.0909577555619777
 50
5.2807392497047942
 51
73.7982445029025627
  0
ARC
  5
AB56
  8
0
 10
4746.7033748238118278
 20
230.3329120381768007
 30
0.0
 40
0.0600000004267701
 50
269.9945667623071017
 51
359.9999998500741185
  0
ARC
  5
AB57
  8
0
 10
4745.6033748246391042
 20
230.3329120381511927
 30
0.0
 40
0.0600000004012173
 50
180.0000001255286008
 51
270.0054331666145231
  0
ARC
  5
AB58
  8
0
 10
4745.0783748242383808
 20
230.8368219702198019
 30
0.0
 40
0.045
 50
180.0
 51
254.0000000000113118
  0
ARC
  5
AB59
  8
0
 10
4747.2283748226500393
 20
230.9179120373615035
 30
0.0
 40
0.045000001589159
 50
0.0000008381194141
 51
90.0116542296835718
  0
ARC
  5
AB5A
  8
0
 10
4745.0783748258272681
 20
230.9179120373615888
 30
0.0
 40
0.0450000015891134
 50
89.9883458976216843
 51
179.9999991619164064
  0
ARC
  5
AB5B
  8
0
 10
4747.228374824238017
 20
230.8368219702198019
 30
0.0
 40
0.045
 50
286.0000000003121272
 51
0.0
  0
ARC
  5
AB5C
  8
0
 10
4746.9030333852469994
 20
230.5514311554300946
 30
0.0
 40
0.1445853256626758
 50
120.9995336789357054
 51
165.0004137217462983
  0
LINE
  5
AB5D
  8
0
 10
4746.7633744148788537
 20
230.5888515829045105
 30
0.0
 11
4746.763374824238781
 21
230.3329120380197992
 31
0.0
  0
ENDSEC
  0
EOF
