  0
SECTION
  2
HEADER
  9
$ACADVER
  1
AC1009
  9
$INSBASE
 10
3627.1575042682097774
 20
136.3979768735268863
 30
0.0
  9
$EXTMIN
 10
3614.4004150019159169
 20
136.3880763808161873
 30
-0.0015258207003583
  9
$EXTMAX
 10
3629.6304815946969029
 20
173.0174735081421034
 30
0.0000000349246037
  9
$LIMMIN
 10
0.0
 20
0.0
  9
$LIMMAX
 10
11.6929133858000007
 20
8.2677165353999982
  9
$ORTHOMODE
 70
     0
  9
$REGENMODE
 70
     1
  9
$FILLMODE
 70
     1
  9
$QTEXTMODE
 70
     0
  9
$MIRRTEXT
 70
     0
  9
$DRAGMODE
 70
     2
  9
$LTSCALE
 40
0.6431102362
  9
$OSMODE
 70
  4095
  9
$ATTMODE
 70
     1
  9
$TEXTSIZE
 40
0.2
  9
$TRACEWID
 40
0.05
  9
$TEXTSTYLE
  7
STANDARD
  9
$CLAYER
  8
0
  9
$CELTYPE
  6
BYLAYER
  9
$CECOLOR
 62
   256
  9
$DIMSCALE
 40
1.0
  9
$DIMASZ
 40
0.1875
  9
$DIMEXO
 40
0.0625
  9
$DIMDLI
 40
0.4443307087
  9
$DIMRND
 40
0.0
  9
$DIMDLE
 40
0.0
  9
$DIMEXE
 40
0.125
  9
$DIMTP
 40
0.01
  9
$DIMTM
 40
0.01
  9
$DIMTXT
 40
2.0
  9
$DIMCEN
 40
0.1052362205
  9
$DIMTSZ
 40
0.0
  9
$DIMTOL
 70
     1
  9
$DIMLIM
 70
     0
  9
$DIMTIH
 70
     1
  9
$DIMTOH
 70
     1
  9
$DIMSE1
 70
     0
  9
$DIMSE2
 70
     0
  9
$DIMTAD
 70
     0
  9
$DIMZIN
 70
     0
  9
$DIMBLK
  1

  9
$DIMASO
 70
     1
  9
$DIMSHO
 70
     1
  9
$DIMPOST
  1
\X
  9
$DIMAPOST
  1

  9
$DIMALT
 70
     1
  9
$DIMALTD
 70
     2
  9
$DIMALTF
 40
25.3999999999999986
  9
$DIMLFAC
 40
1.0
  9
$DIMTOFL
 70
     0
  9
$DIMTVP
 40
0.0
  9
$DIMTIX
 70
     0
  9
$DIMSOXD
 70
     0
  9
$DIMSAH
 70
     0
  9
$DIMBLK1
  1

  9
$DIMBLK2
  1

  9
$DIMSTYLE
  2
STANDARD
  9
$DIMCLRD
 70
     0
  9
$DIMCLRE
 70
     0
  9
$DIMCLRT
 70
     0
  9
$DIMTFAC
 40
1.0
  9
$DIMGAP
 40
0.09
  9
$LUNITS
 70
     2
  9
$LUPREC
 70
     4
  9
$SKETCHINC
 40
0.1
  9
$FILLETRAD
 40
0.0
  9
$AUNITS
 70
     0
  9
$AUPREC
 70
     0
  9
$MENU
  1
.
  9
$ELEVATION
 40
0.0
  9
$PELEVATION
 40
0.0
  9
$THICKNESS
 40
0.0
  9
$LIMCHECK
 70
     0
  9
$BLIPMODE
 70
     0
  9
$CHAMFERA
 40
0.0
  9
$CHAMFERB
 40
0.0
  9
$SKPOLY
 70
     0
  9
$TDCREATE
 40
2458060.468368056230247
  9
$TDUPDATE
 40
2459097.7738888887688518
  9
$TDINDWG
 40
0.7055278935
  9
$TDUSRTIMER
 40
0.7055278935
  9
$USRTIMER
 70
     1
  9
$ANGBASE
 50
0.0
  9
$ANGDIR
 70
     0
  9
$PDMODE
 70
     0
  9
$PDSIZE
 40
0.3125
  9
$PLINEWID
 40
0.0
  9
$COORDS
 70
     1
  9
$SPLFRAME
 70
     0
  9
$SPLINETYPE
 70
     6
  9
$SPLINESEGS
 70
     8
  9
$ATTDIA
 70
     1
  9
$ATTREQ
 70
     1
  9
$HANDLING
 70
     1
  9
$HANDSEED
  5
E92C
  9
$SURFTAB1
 70
     6
  9
$SURFTAB2
 70
     6
  9
$SURFTYPE
 70
     6
  9
$SURFU
 70
     6
  9
$SURFV
 70
     6
  9
$UCSNAME
  2

  9
$UCSORG
 10
0.0
 20
0.0
 30
0.0
  9
$UCSXDIR
 10
1.0
 20
0.0
 30
0.0
  9
$UCSYDIR
 10
0.0
 20
1.0
 30
0.0
  9
$PUCSNAME
  2

  9
$PUCSORG
 10
0.0
 20
0.0
 30
0.0
  9
$PUCSXDIR
 10
1.0
 20
0.0
 30
0.0
  9
$PUCSYDIR
 10
0.0
 20
1.0
 30
0.0
  9
$USERI1
 70
     0
  9
$USERI2
 70
     0
  9
$USERI3
 70
     0
  9
$USERI4
 70
     0
  9
$USERI5
 70
     0
  9
$USERR1
 40
0.0
  9
$USERR2
 40
0.0
  9
$USERR3
 40
0.0
  9
$USERR4
 40
0.0
  9
$USERR5
 40
0.0
  9
$WORLDVIEW
 70
     1
  9
$SHADEDGE
 70
     3
  9
$SHADEDIF
 70
    70
  9
$TILEMODE
 70
     1
  9
$MAXACTVP
 70
    64
  9
$PLIMCHECK
 70
     0
  9
$PEXTMIN
 10
1.0000000000000000E+20
 20
1.0000000000000000E+20
 30
1.0000000000000000E+20
  9
$PEXTMAX
 10
-1.0000000000000000E+20
 20
-1.0000000000000000E+20
 30
-1.0000000000000000E+20
  9
$PLIMMIN
 10
0.0
 20
0.0
  9
$PLIMMAX
 10
12.0
 20
9.0
  9
$UNITMODE
 70
     0
  9
$VISRETAIN
 70
     1
  9
$PLINEGEN
 70
     0
  9
$PSLTSCALE
 70
     1
  0
ENDSEC
  0
SECTION
  2
TABLES
  0
TABLE
  2
VPORT
 70
     1
  0
VPORT
  2
*ACTIVE
 70
     0
 10
0.0
 20
0.0
 11
1.0
 21
1.0
 12
0.0154482983061826
 22
0.0000344878951921
 13
0.0
 23
0.0
 14
1.0
 24
1.0
 15
0.0
 25
0.0
 16
0.0
 26
0.0
 36
136.3322477444677077
 17
3622.0
 27
154.7027404565839959
 37
0.0
 40
36.9342187400359592
 41
2.6486111111111108
 42
50.0
 43
0.0
 44
0.0
 50
0.0
 51
0.0
 71
     0
 72
   100
 73
     1
 74
     1
 75
     0
 76
     0
 77
     0
 78
     0
  0
ENDTAB
  0
TABLE
  2
LTYPE
 70
     2
  0
LTYPE
  2
CONTINUOUS
 70
     0
  3
Solid line
 72
    65
 73
     0
 40
0.0
  0
LTYPE
  2
PHANTOM2
 70
     0
  3
___ _ _ ___ _ _ ___ _ _ ___ _ _
 72
    65
 73
     6
 40
1.25
 49
0.625
 49
-0.125
 49
0.125
 49
-0.125
 49
0.125
 49
-0.125
  0
ENDTAB
  0
TABLE
  2
LAYER
 70
     2
  0
LAYER
  2
0
 70
     0
 62
   255
  6
CONTINUOUS
  0
LAYER
  2
DEFPOINTS
 70
     0
 62
     7
  6
CONTINUOUS
  0
ENDTAB
  0
TABLE
  2
STYLE
 70
     1
  0
STYLE
  2
STANDARD
 70
     0
 40
0.0
 41
0.8
 50
0.0
 71
     0
 42
0.2
  3
txt
  4

  0
ENDTAB
  0
TABLE
  2
VIEW
 70
     0
  0
ENDTAB
  0
TABLE
  2
UCS
 70
     0
  0
ENDTAB
  0
TABLE
  2
APPID
 70
    10
  0
APPID
  2
ACAD
 70
     0
  0
APPID
  2
ACAD_MLEADERVER
 70
     0
  0
APPID
  2
ACAD_EXEMPT_FROM_CAD_STANDARDS
 70
     0
  0
APPID
  2
ACAD_NAV_VCDISPLAY
 70
     0
  0
APPID
  2
ACAECLAYERSTANDARD
 70
     0
  0
APPID
  2
ACCMTRANSPARENCY
 70
     0
  0
APPID
  2
ACAD_DSTYLE_DIMJAG
 70
     0
  0
APPID
  2
ACAD_DSTYLE_DIMTALN
 70
     0
  0
APPID
  2
ACDBATTR
 70
     0
  0
APPID
  2
ACAD_PSEXT
 70
     0
  0
ENDTAB
  0
TABLE
  2
DIMSTYLE
 70
     1
  0
DIMSTYLE
  2
STANDARD
 70
     0
  3

  4

  5

  6

  7

 40
1.0
 41
0.1875
 42
0.0625
 43
0.38
 44
0.125
 45
0.0
 46
0.0
 47
0.01
 48
0.01
140
0.15625
141
0.09
142
0.0
143
25.3999999999999986
144
1.0
145
0.0
146
1.0
147
0.09
 71
     1
 72
     0
 73
     1
 74
     1
 75
     0
 76
     0
 77
     0
 78
     4
170
     0
171
     2
172
     0
173
     0
174
     0
175
     0
176
     0
177
     0
178
     0
  0
ENDTAB
  0
ENDSEC
  0
SECTION
  2
BLOCKS
  0
BLOCK
  8
0
  2
$MODEL_SPACE
 70
     0
 10
0.0
 20
0.0
 30
0.0
  3
$MODEL_SPACE
  1

  0
ENDBLK
  5
21
  8
0
  0
BLOCK
 67
     1
  8
0
  2
$PAPER_SPACE
 70
     0
 10
0.0
 20
0.0
 30
0.0
  3
$PAPER_SPACE
  1

  0
ENDBLK
  5
1D
 67
     1
  8
0
  0
BLOCK
  8
0
  2
_FILLED
 70
     0
 10
0.0
 20
0.0
 30
0.0
  3
_FILLED
  1

  0
SOLID
  5
B630
  8
0
  6
BYBLOCK
 62
     0
 10
0.0
 20
0.0
 30
0.0
 11
-1.0
 21
0.1666666667
 31
0.0
 12
-1.0
 22
-0.1666666667
 32
0.0
 13
-1.0
 23
-0.1666666667
 33
0.0
  0
ENDBLK
  5
B631
  8
0
  6
BYBLOCK
 62
     0
  0
ENDSEC
  0
SECTION
  2
ENTITIES
  0
ATTDEF
  5
AA11
  8
DEFPOINTS
 10
3627.1465004971641974
 20
136.396622474040413
 30
0.0
 40
0.001
  1
K-10129A-B4
  3

  2
MODELNUMBER
 70
     0
1001
ACDBATTR
1070
     0
1070
     1
  0
ATTDEF
  5
AA12
  8
DEFPOINTS
 10
3627.1465004971641974
 20
136.394955807373691
 30
0.0
 40
0.001
  1
PURIST
  3

  2
TRADENAME
 70
     0
1001
ACDBATTR
1070
     0
1070
     1
  0
ATTDEF
  5
AA13
  8
DEFPOINTS
 10
3627.1465004971641974
 20
136.3932891407069974
 30
0.0
 40
0.001
  1
BATH FILLER
  3

  2
PRODUCT
 70
     0
1001
ACDBATTR
1070
     0
1070
     1
  0
LINE
  5
E5F1
  8
0
 10
3614.4903389139121828
 20
168.3467957711268923
 30
0.0
 11
3615.6514412765891393
 21
168.3467957711268923
 31
0.0
  0
LINE
  5
E5F2
  8
0
 10
3614.4803389122657791
 20
169.0948272672268899
 30
0.0
 11
3615.6614412763601649
 21
169.0948272672268899
 31
0.0
  0
LINE
  5
E5F3
  8
0
 10
3624.7952995437608479
 20
136.3979768735268863
 30
0.0
 11
3624.7952995437608479
 21
137.185378448326901
 31
0.0
  0
LINE
  5
E5F4
  8
0
 10
3626.3701026933608773
 20
137.185378448326901
 30
0.0
 11
3626.3701026933608773
 21
162.7224913614664104
 31
0.0
  0
LINE
  5
E5F5
  8
0
 10
3629.5197089926600711
 20
136.3979768735268863
 30
0.0
 11
3629.5197089926600711
 21
137.185378448326901
 31
0.0
  0
LINE
  5
E5F6
  8
0
 10
3627.9449058430609512
 20
137.185378448326901
 30
0.0
 11
3627.9449058430609512
 21
162.7224913612901958
 31
0.0
  0
LINE
  5
E5F7
  8
0
 10
3624.7952995437608479
 20
136.3979768735268863
 30
0.0
 11
3629.5197089926600711
 21
136.3979768735268863
 31
0.0
  0
LINE
  5
E5F8
  8
0
 10
3624.7952995437608479
 20
137.185378448326901
 30
0.0
 11
3629.5197089926600711
 21
137.185378448326901
 31
0.0
  0
LINE
  5
E5F9
  8
0
 10
3626.9370347127342029
 20
164.0478928007113097
 30
0.0
 11
3626.9370318273608973
 21
164.5869532514267917
 31
0.0
  0
LINE
  5
E5FA
  8
0
 10
3626.8464806462611705
 20
164.5869532514267917
 30
0.0
 11
3626.8464806461602166
 21
168.9865595506269074
 31
0.0
  0
ARC
  5
E5FB
  8
0
 10
3626.8563222047491763
 20
168.986559948733003
 30
0.0
 40
0.0098415585963364
 50
89.9942974594090543
 51
180.0023177023579137
  0
LINE
  5
E5FC
  8
0
 10
3626.8563231842608729
 20
168.9964015072806092
 30
0.0
 11
3627.4586853522591809
 21
168.9964015072806092
 31
0.0
  0
ARC
  5
E5FD
  8
0
 10
3627.4586843725210201
 20
168.9865579894656094
 30
0.0
 40
0.0098435178637863
 50
0.0090869903508131
 51
89.9942972718644256
  0
LINE
  5
E5FE
  8
0
 10
3627.4685278902597929
 20
168.9865595506269074
 30
0.0
 11
3627.4685278902597929
 21
164.5869532514267917
 31
0.0
  0
LINE
  5
E5FF
  8
0
 10
3627.4685278902597929
 20
164.5869532514267917
 30
0.0
 11
3626.8464806462611705
 21
164.5869532514267917
 31
0.0
  0
LINE
  5
E600
  8
0
 10
3627.3779767091609756
 20
164.5869532514267917
 30
0.0
 11
3627.3779817776521668
 21
164.0478908040203976
 31
0.0
  0
LINE
  5
E601
  8
0
 10
3626.3700655286020265
 20
163.6166667899346976
 30
0.0
 11
3626.370219913209894
 21
166.3389217521030048
 31
0.0
  0
LINE
  5
E602
  8
0
 10
3626.5669530871609822
 20
166.3389217521030048
 30
0.0
 11
3626.5669530870600283
 21
169.5681856098914864
 31
0.0
  0
LINE
  5
E603
  8
0
 10
3627.9449430080198908
 20
163.6166667897585967
 30
0.0
 11
3627.9447886234120233
 21
166.3389217521030048
 31
0.0
  0
LINE
  5
E604
  8
0
 10
3627.7480554494609351
 20
166.3389217521030048
 30
0.0
 11
3627.7480554492608462
 21
169.5681856100291895
 31
0.0
  0
LINE
  5
E605
  8
0
 10
3626.370219913209894
 20
166.3389217521030048
 30
0.0
 11
3626.8464806461602166
 21
166.3389217521030048
 31
0.0
  0
LINE
  5
E606
  8
0
 10
3627.4685278902597929
 20
166.3389217521030048
 30
0.0
 11
3627.9447886234120233
 21
166.3389217521030048
 31
0.0
  0
ARC
  5
E607
  8
0
 10
3624.4803389137841805
 20
169.5681856096524882
 30
0.0
 40
2.0866141733762431
 50
0.0000000047859969
 51
88.4999999966480146
  0
LINE
  5
E608
  8
0
 10
3624.5349601052621438
 20
171.654084752462694
 30
0.0
 11
3617.8026766406719616
 21
171.8303757996428089
 31
0.0
  0
ARC
  5
E609
  8
0
 10
3617.7480554492030933
 20
169.7444766571663024
 30
0.0
 40
2.0866141730424528
 50
88.4999999966480146
 51
180.0000000175579089
  0
LINE
  5
E60A
  8
0
 10
3615.6614412761609856
 20
169.7444766565268139
 30
0.0
 11
3615.6614412765861744
 21
168.3567957711267979
 31
0.0
  0
ARC
  5
E60B
  8
0
 10
3615.6514412765891393
 20
168.3567957711238137
 30
0.0
 40
0.0099999999969356
 50
269.9999969729179838
 51
0.0000000175595116
  0
ARC
  5
E60C
  8
0
 10
3614.4903389138598868
 20
168.3567957711267979
 30
0.0
 40
0.0099999999999945
 50
179.9999999999901945
 51
270.0000002988521146
  0
LINE
  5
E60D
  8
0
 10
3614.4803389138610328
 20
168.3567957711267979
 30
0.0
 11
3614.480338910861974
 21
169.7444766565268139
 31
0.0
  0
ARC
  5
E60E
  8
0
 10
3617.748055439464224
 20
169.7444766635865108
 30
0.0
 40
3.267716528601865
 50
89.9994304101020788
 51
180.000000123782911
  0
LINE
  5
E60F
  8
0
 10
3617.7480879245499636
 20
173.0121931920268139
 30
0.0
 11
3624.5658777602138798
 21
172.83478235953649
 31
0.0
  0
ARC
  5
E610
  8
0
 10
3624.4803389030239487
 20
169.5681855784110041
 30
0.0
 40
3.2677165462366831
 50
0.0000005543907312
 51
88.4999998232961644
  0
CIRCLE
  5
E611
  8
0
 10
3627.1575042682611638
 20
163.1696118033727032
 30
0.0
 40
0.9054931969515447
  0
ENDSEC
  0
EOF
