  0
SECTION
  2
HEADER
  9
$ACADVER
  1
AC1009
  9
$INSBASE
 10
606.6188202528835518
 20
70.5344207168502351
 30
0.0
  9
$EXTMIN
 10
601.0139843602062228
 20
70.5257860986605181
 30
-0.0000000000000058
  9
$EXTMAX
 10
608.6908193561376947
 20
78.6334481412898754
 30
0.0000000000000104
  9
$LIMMIN
 10
0.0
 20
0.0
  9
$LIMMAX
 10
11.6929133858000007
 20
8.2677165353999982
  9
$ORTHOMODE
 70
     0
  9
$REGENMODE
 70
     1
  9
$FILLMODE
 70
     1
  9
$QTEXTMODE
 70
     0
  9
$MIRRTEXT
 70
     0
  9
$DRAGMODE
 70
     2
  9
$LTSCALE
 40
0.6431102362
  9
$OSMODE
 70
  4095
  9
$ATTMODE
 70
     1
  9
$TEXTSIZE
 40
0.2
  9
$TRACEWID
 40
0.05
  9
$TEXTSTYLE
  7
STANDARD
  9
$CLAYER
  8
0
  9
$CELTYPE
  6
BYLAYER
  9
$CECOLOR
 62
   256
  9
$DIMSCALE
 40
1.0
  9
$DIMASZ
 40
0.1875
  9
$DIMEXO
 40
0.0625
  9
$DIMDLI
 40
0.4443307087
  9
$DIMRND
 40
0.0
  9
$DIMDLE
 40
0.0
  9
$DIMEXE
 40
0.125
  9
$DIMTP
 40
0.01
  9
$DIMTM
 40
0.01
  9
$DIMTXT
 40
1.0
  9
$DIMCEN
 40
0.1052362205
  9
$DIMTSZ
 40
0.0
  9
$DIMTOL
 70
     1
  9
$DIMLIM
 70
     0
  9
$DIMTIH
 70
     0
  9
$DIMTOH
 70
     1
  9
$DIMSE1
 70
     0
  9
$DIMSE2
 70
     0
  9
$DIMTAD
 70
     0
  9
$DIMZIN
 70
     0
  9
$DIMBLK
  1

  9
$DIMASO
 70
     1
  9
$DIMSHO
 70
     1
  9
$DIMPOST
  1
\X
  9
$DIMAPOST
  1

  9
$DIMALT
 70
     1
  9
$DIMALTD
 70
     2
  9
$DIMALTF
 40
25.3999999999999986
  9
$DIMLFAC
 40
1.0
  9
$DIMTOFL
 70
     0
  9
$DIMTVP
 40
0.0
  9
$DIMTIX
 70
     0
  9
$DIMSOXD
 70
     0
  9
$DIMSAH
 70
     0
  9
$DIMBLK1
  1

  9
$DIMBLK2
  1

  9
$DIMSTYLE
  2
STANDARD
  9
$DIMCLRD
 70
     0
  9
$DIMCLRE
 70
     0
  9
$DIMCLRT
 70
     0
  9
$DIMTFAC
 40
1.0
  9
$DIMGAP
 40
0.09
  9
$LUNITS
 70
     2
  9
$LUPREC
 70
     4
  9
$SKETCHINC
 40
0.1
  9
$FILLETRAD
 40
0.0
  9
$AUNITS
 70
     0
  9
$AUPREC
 70
     0
  9
$MENU
  1
.
  9
$ELEVATION
 40
0.0
  9
$PELEVATION
 40
0.0
  9
$THICKNESS
 40
0.0
  9
$LIMCHECK
 70
     0
  9
$BLIPMODE
 70
     0
  9
$CHAMFERA
 40
0.0
  9
$CHAMFERB
 40
0.0
  9
$SKPOLY
 70
     0
  9
$TDCREATE
 40
2458171.8957638889551163
  9
$TDUPDATE
 40
2459055.0747916670516133
  9
$TDINDWG
 40
0.3528132176
  9
$TDUSRTIMER
 40
0.3528132176
  9
$USRTIMER
 70
     1
  9
$ANGBASE
 50
0.0
  9
$ANGDIR
 70
     0
  9
$PDMODE
 70
     0
  9
$PDSIZE
 40
0.3125
  9
$PLINEWID
 40
0.0
  9
$COORDS
 70
     1
  9
$SPLFRAME
 70
     0
  9
$SPLINETYPE
 70
     6
  9
$SPLINESEGS
 70
     8
  9
$ATTDIA
 70
     1
  9
$ATTREQ
 70
     1
  9
$HANDLING
 70
     1
  9
$HANDSEED
  5
90E8
  9
$SURFTAB1
 70
     6
  9
$SURFTAB2
 70
     6
  9
$SURFTYPE
 70
     6
  9
$SURFU
 70
     6
  9
$SURFV
 70
     6
  9
$UCSNAME
  2

  9
$UCSORG
 10
0.0
 20
0.0
 30
0.0
  9
$UCSXDIR
 10
1.0
 20
0.0
 30
0.0
  9
$UCSYDIR
 10
0.0
 20
1.0
 30
0.0
  9
$PUCSNAME
  2

  9
$PUCSORG
 10
0.0
 20
0.0
 30
0.0
  9
$PUCSXDIR
 10
1.0
 20
0.0
 30
0.0
  9
$PUCSYDIR
 10
0.0
 20
1.0
 30
0.0
  9
$USERI1
 70
     0
  9
$USERI2
 70
     0
  9
$USERI3
 70
     0
  9
$USERI4
 70
     0
  9
$USERI5
 70
     0
  9
$USERR1
 40
0.0
  9
$USERR2
 40
0.0
  9
$USERR3
 40
0.0
  9
$USERR4
 40
0.0
  9
$USERR5
 40
0.0
  9
$WORLDVIEW
 70
     1
  9
$SHADEDGE
 70
     3
  9
$SHADEDIF
 70
    70
  9
$TILEMODE
 70
     1
  9
$MAXACTVP
 70
    64
  9
$PLIMCHECK
 70
     0
  9
$PEXTMIN
 10
1.0000000000000000E+20
 20
1.0000000000000000E+20
 30
1.0000000000000000E+20
  9
$PEXTMAX
 10
-1.0000000000000000E+20
 20
-1.0000000000000000E+20
 30
-1.0000000000000000E+20
  9
$PLIMMIN
 10
0.0
 20
0.0
  9
$PLIMMAX
 10
12.0
 20
9.0
  9
$UNITMODE
 70
     0
  9
$VISRETAIN
 70
     1
  9
$PLINEGEN
 70
     0
  9
$PSLTSCALE
 70
     1
  0
ENDSEC
  0
SECTION
  2
TABLES
  0
TABLE
  2
VPORT
 70
     1
  0
VPORT
  2
*ACTIVE
 70
     0
 10
0.0
 20
0.0
 11
1.0
 21
1.0
 12
138.1102001503419103
 22
-14.5535299999545895
 13
0.0
 23
0.0
 14
1.0
 24
1.0
 15
0.0
 25
0.0
 16
0.0
 26
0.0
 36
24.1179433675886514
 17
466.74220170783002
 27
89.133147119929788
 37
0.0
 40
8.2034218305344293
 41
2.6528599605522678
 42
50.0
 43
0.0
 44
0.0
 50
0.0
 51
0.0
 71
     0
 72
   100
 73
     1
 74
     1
 75
     0
 76
     0
 77
     0
 78
     0
  0
ENDTAB
  0
TABLE
  2
LTYPE
 70
     2
  0
LTYPE
  2
CONTINUOUS
 70
     0
  3
Solid line
 72
    65
 73
     0
 40
0.0
  0
LTYPE
  2
PHANTOM2
 70
     0
  3
___ _ _ ___ _ _ ___ _ _ ___ _ _
 72
    65
 73
     6
 40
1.25
 49
0.625
 49
-0.125
 49
0.125
 49
-0.125
 49
0.125
 49
-0.125
  0
ENDTAB
  0
TABLE
  2
LAYER
 70
     2
  0
LAYER
  2
0
 70
     0
 62
   255
  6
CONTINUOUS
  0
LAYER
  2
DEFPOINTS
 70
     0
 62
     7
  6
CONTINUOUS
  0
ENDTAB
  0
TABLE
  2
STYLE
 70
     1
  0
STYLE
  2
STANDARD
 70
     0
 40
0.0
 41
0.8
 50
0.0
 71
     0
 42
0.2
  3
txt
  4

  0
ENDTAB
  0
TABLE
  2
VIEW
 70
     0
  0
ENDTAB
  0
TABLE
  2
UCS
 70
     0
  0
ENDTAB
  0
TABLE
  2
APPID
 70
    10
  0
APPID
  2
ACAD
 70
     0
  0
APPID
  2
ACAD_MLEADERVER
 70
     0
  0
APPID
  2
ACAD_EXEMPT_FROM_CAD_STANDARDS
 70
     0
  0
APPID
  2
ACAD_DSTYLE_DIMJAG
 70
     0
  0
APPID
  2
ACAD_DSTYLE_DIMTALN
 70
     0
  0
APPID
  2
ACAD_NAV_VCDISPLAY
 70
     0
  0
APPID
  2
ACAECLAYERSTANDARD
 70
     0
  0
APPID
  2
ACCMTRANSPARENCY
 70
     0
  0
APPID
  2
DCO15
 70
     0
  0
APPID
  2
ACDBATTR
 70
     0
  0
ENDTAB
  0
TABLE
  2
DIMSTYLE
 70
     1
  0
DIMSTYLE
  2
STANDARD
 70
     0
  3

  4

  5

  6

  7

 40
1.0
 41
0.1875
 42
0.0625
 43
0.38
 44
0.125
 45
0.0
 46
0.0
 47
0.01
 48
0.01
140
0.15625
141
0.09
142
0.0
143
25.3999999999999986
144
1.0
145
0.0
146
1.0
147
0.09
 71
     1
 72
     0
 73
     1
 74
     1
 75
     0
 76
     0
 77
     0
 78
     4
170
     0
171
     2
172
     0
173
     0
174
     0
175
     0
176
     0
177
     0
178
     0
  0
ENDTAB
  0
ENDSEC
  0
SECTION
  2
BLOCKS
  0
BLOCK
  8
0
  2
$MODEL_SPACE
 70
     0
 10
0.0
 20
0.0
 30
0.0
  3
$MODEL_SPACE
  1

  0
ENDBLK
  5
21
  8
0
  0
BLOCK
 67
     1
  8
0
  2
$PAPER_SPACE
 70
     0
 10
0.0
 20
0.0
 30
0.0
  3
$PAPER_SPACE
  1

  0
ENDBLK
  5
1D
 67
     1
  8
0
  0
ENDSEC
  0
SECTION
  2
ENTITIES
  0
ATTDEF
  5
829
  8
DEFPOINTS
 10
606.6159644027260356
 20
70.53104606419177
 30
0.0
 40
0.001
  1
K-10215T-4
  3

  2
MODELNUMBER
 70
     0
1001
ACDBATTR
1070
     0
1070
     1
  0
ATTDEF
  5
82A
  8
DEFPOINTS
 10
606.6159644027260356
 20
70.5293793975251049
 30
0.0
 40
0.001
  1
FORTE
  3

  2
TRADENAME
 70
     0
1001
ACDBATTR
1070
     0
1070
     1
  0
ATTDEF
  5
82B
  8
DEFPOINTS
 10
606.6159644027260356
 20
70.5277127308584397
 30
0.0
 40
0.001
  1
BATHROOM SINK FAUCET
  3

  2
PRODUCT
 70
     0
1001
ACDBATTR
1070
     0
1070
     1
  0
LINE
  5
8FC8
  8
0
 10
605.5129443734836059
 20
70.5344207168502351
 30
0.0
 11
607.7246961322836114
 21
70.5344207168502351
 31
0.0
  0
ARC
  5
8FC9
  8
0
 10
604.6283504912174749
 20
70.4807443899559445
 30
0.0
 40
0.8862209005724944
 50
3.4723965966315862
 51
29.9295196659759704
  0
ARC
  5
8FCA
  8
0
 10
605.5064977554355892
 20
70.9863036759369805
 30
0.0
 40
0.1270573481309563
 50
154.4473162551041128
 51
209.9295196659759881
  0
ARC
  5
8FCB
  8
0
 10
602.8652966518612857
 20
72.0471227462218593
 30
0.0
 40
2.719490223857397
 50
338.2888578447522718
 51
358.28564110957808
  0
ARC
  5
8FCC
  8
0
 10
608.6092900145497424
 20
70.4807443899559445
 30
0.0
 40
0.8862209005724944
 50
150.0704803340240119
 51
176.5276034033684027
  0
ARC
  5
8FCD
  8
0
 10
607.7311427503315144
 20
70.9863036759369805
 30
0.0
 40
0.1270573481309563
 50
330.0704803340240119
 51
25.5526837448958588
  0
ARC
  5
8FCE
  8
0
 10
610.0784098302790426
 20
72.0340085679758886
 30
0.0
 40
2.443464672405304
 50
182.0386729073483139
 51
203.9757014200608012
  0
LINE
  5
8FCF
  8
0
 10
605.3912075339650301
 20
71.0397053102502269
 30
0.0
 11
607.8464329718021872
 21
71.0397053102502269
 31
0.0
  0
ARC
  5
8FD0
  8
0
 10
601.8205874994282567
 20
72.1668454003197866
 30
0.0
 40
3.7683508268042991
 50
356.9412179592804932
 51
19.3113123219078986
  0
ARC
  5
8FD1
  8
0
 10
602.4642274337920753
 20
72.39238757257624
 30
0.0
 40
3.0863378968873092
 50
19.3113123219078986
 51
48.5880262996356507
  0
ARC
  5
8FD2
  8
0
 10
603.4752654399341054
 20
73.591932457487232
 30
0.0
 40
1.518350208356025
 50
47.2592298022042669
 51
119.9932059837421008
  0
ARC
  5
8FD3
  8
0
 10
604.0188997696343449
 20
72.6541269044288356
 30
0.0
 40
2.6023313625941888
 50
120.0378324302295994
 51
139.5308208305272899
  0
ARC
  5
8FD4
  8
0
 10
602.0091040244516307
 20
74.3695457070074752
 30
0.0
 40
0.0400089538161734
 50
246.1002905731340888
 51
318.7028451504203872
  0
LINE
  5
8FD5
  8
0
 10
601.9928949189228433
 20
74.3329672805320456
 30
0.0
 11
601.0698348786296492
 21
74.7420111871012551
 31
0.0
  0
LINE
  5
8FD6
  8
0
 10
601.8389481098836313
 20
74.2644636168502217
 30
0.0
 11
601.8895908081791504
 21
74.3787453612404335
 31
0.0
  0
LINE
  5
8FD7
  8
0
 10
601.1258300247835678
 20
74.5804740545502796
 30
0.0
 11
601.8389481098836313
 21
74.2644636168502217
 31
0.0
  0
LINE
  5
8FD8
  8
0
 10
601.1951214960836296
 20
74.539377315050217
 30
0.0
 11
601.7619589483834943
 21
74.288189531250282
 31
0.0
  0
LINE
  5
8FD9
  8
0
 10
601.1951214960836296
 20
74.539377315050217
 30
0.0
 11
601.1967655825826569
 21
74.5490397421453395
 31
0.0
  0
LINE
  5
8FDA
  8
0
 10
601.7619589483834943
 20
74.288189531250282
 30
0.0
 11
601.7680125520123511
 21
74.2958979292870083
 31
0.0
  0
LINE
  5
8FDB
  8
0
 10
601.1258300247835678
 20
74.5804740545502796
 30
0.0
 11
601.1764727230864764
 21
74.6947557989567628
 31
0.0
  0
ARC
  5
8FDC
  8
0
 10
601.0856846875692554
 20
74.7780462059869251
 30
0.0
 40
0.0393667249020551
 50
196.8518827150757886
 51
246.2579648936529111
  0
ARC
  5
8FDD
  8
0
 10
601.7562824506945844
 20
74.975620949519751
 30
0.0
 40
0.7384630224594162
 50
182.5487508932241951
 51
196.4395030166515994
  0
ARC
  5
8FDE
  8
0
 10
601.1507552855613312
 20
74.9477137110874736
 30
0.0
 40
0.1322972854047947
 50
142.4674057444690902
 51
182.1363711947992101
  0
ARC
  5
8FDF
  8
0
 10
603.2391120568663609
 20
73.3433728630208321
 30
0.0
 40
2.7657633590481989
 50
116.6732855884645943
 51
142.4674057444690902
  0
ARC
  5
8FE0
  8
0
 10
603.2814414718692433
 20
73.2591123398867552
 30
0.0
 40
2.8600587201924492
 50
69.4520100421265454
 51
116.6732855884645943
  0
ARC
  5
8FE1
  8
0
 10
603.0668477860764369
 20
72.6866177078628368
 30
0.0
 40
3.4714510276991559
 50
46.2625696507063182
 51
69.4520100421265454
  0
ARC
  5
8FE2
  8
0
 10
605.5726804363561087
 20
75.305394521093433
 30
0.0
 40
0.1530750473514119
 50
226.2625696507062969
 51
295.3441509858739096
  0
LINE
  5
8FE3
  8
0
 10
605.6382048845835016
 20
75.1670524927502299
 30
0.0
 11
607.5898863676433166
 21
75.1670524927502299
 31
0.0
  0
LINE
  5
8FE4
  8
0
 10
606.565662492727256
 20
75.205264403296809
 30
0.0
 11
605.6788340463834857
 21
75.205264403296809
 31
0.0
  0
LINE
  5
8FE5
  8
0
 10
605.8557351600835545
 20
75.1696511186502221
 30
0.0
 11
607.3819053457834798
 21
75.1696511186502221
 31
0.0
  0
LINE
  5
8FE6
  8
0
 10
605.7813202527236172
 20
75.1670524927502299
 30
0.0
 11
605.8557351600835545
 21
75.1696511186502221
 31
0.0
  0
ARC
  5
8FE7
  8
0
 10
605.8552112078834853
 20
75.1846419649502309
 30
0.0
 40
0.0149999999999953
 50
272.0000000563887284
 51
358.585723347955593
  0
LINE
  5
8FE8
  8
0
 10
605.8702066384466889
 20
75.1842717457863046
 30
0.0
 11
605.871740072158218
 21
75.205264403296809
 31
0.0
  0
ARC
  5
8FE9
  8
0
 10
605.6788010593660374
 20
75.2352969493834962
 30
0.0
 40
0.0300325642028596
 50
176.8927076912769962
 51
270.0629322641361227
  0
ARC
  5
8FEA
  8
0
 10
606.5878289994260513
 20
75.1857453109376053
 30
0.0
 40
0.9404100459938007
 50
153.2356544232125941
 51
176.8802721302953103
  0
ARC
  5
8FEB
  8
0
 10
607.7780809765735057
 20
74.585435153827774
 30
0.0
 40
2.2734787065784059
 50
139.8166679712552138
 51
153.2356544232125941
  0
ARC
  5
8FEC
  8
0
 10
605.2848440196034971
 20
76.6248046912206746
 30
0.0
 40
0.9485422556535262
 50
322.8793836393439278
 51
31.9730608829192384
  0
ARC
  5
8FED
  8
0
 10
604.4094646336882306
 20
76.028740087151732
 30
0.0
 40
2.0071942555979279
 50
33.1751479299570988
 51
66.2101583613915068
  0
ARC
  5
8FEE
  8
0
 10
603.8217614446197103
 20
74.8738842515996623
 30
0.0
 40
3.3017762205941881
 50
64.9620747085893839
 51
94.4122526825969857
  0
ARC
  5
8FEF
  8
0
 10
603.5430160569430882
 20
78.4275019475337558
 30
0.0
 40
0.262793281638656
 50
267.7329480751581059
 51
275.4002837237657104
  0
ARC
  5
8FF0
  8
0
 10
603.5361055375110482
 20
78.2529417870336772
 30
0.0
 40
0.0880963872397247
 50
219.6662033026300094
 51
267.7329480751581059
  0
ARC
  5
8FF1
  8
0
 10
603.5516467675938657
 20
78.2658288866333436
 30
0.0
 40
0.1082856707480585
 50
194.7333431363344971
 51
219.6662033026296967
  0
ARC
  5
8FF2
  8
0
 10
604.792754869573173
 20
78.8184941653244806
 30
0.0
 40
1.465573166160272
 50
192.0316558234866022
 51
203.3214422592243977
  0
ARC
  5
8FF3
  8
0
 10
603.4082626886835214
 20
78.5236059463502301
 30
0.0
 40
0.0500250026999788
 50
166.1539315693165975
 51
192.2492652906074113
  0
ARC
  5
8FF4
  8
0
 10
603.4082626886835214
 20
78.5236059463502301
 30
0.0
 40
0.0500250026999904
 50
131.0478874980867943
 51
166.1539315693237029
  0
ARC
  5
8FF5
  8
0
 10
603.4082626886836351
 20
78.5236059463501874
 30
0.0
 40
0.0500250027000478
 50
111.1646986532994958
 51
131.0478874980699118
  0
ARC
  5
8FF6
  8
0
 10
603.7933376806256547
 20
77.2534032800172383
 30
0.0
 40
1.37717888466135
 50
90.10842109421597
 51
107.0212482216459051
  0
ARC
  5
8FF7
  8
0
 10
603.1027495743933287
 20
68.270352397238824
 30
0.0
 40
10.3830452693550992
 50
83.4963947927368082
 51
86.2007899725478808
  0
ARC
  5
8FF8
  8
0
 10
603.6758246746393297
 20
74.9445316888193531
 30
0.0
 40
3.6916237976576158
 50
57.7719327891091723
 51
80.5995262929389042
  0
ARC
  5
8FF9
  8
0
 10
603.4891692087962838
 20
74.7457976839582301
 30
0.0
 40
3.959621231269252
 50
40.7728686690826123
 51
57.0207028339387634
  0
ARC
  5
8FFA
  8
0
 10
603.1162400753244128
 20
74.2802789300510256
 30
0.0
 40
4.547361135126037
 50
25.7620330968144984
 51
42.1462953035052621
  0
ARC
  5
8FFB
  8
0
 10
610.1160040553269255
 20
77.1719184625690531
 30
0.0
 40
3.0451612655679572
 50
197.4901805493676079
 51
209.4470415177156042
  0
ARC
  5
8FFC
  8
0
 10
603.699415791288061
 20
74.3388216593202742
 30
0.0
 40
3.9948644730016261
 50
18.704995691665701
 51
19.5384206303165193
  0
ARC
  5
8FFD
  8
0
 10
607.4560941352688133
 20
75.6098011519714532
 30
0.0
 40
0.0290216469252981
 50
292.2135879607849915
 51
20.4837353950019505
  0
ARC
  5
8FFE
  8
0
 10
606.5659390328812606
 20
75.4538469717798392
 30
0.0
 40
0.2485827223039705
 50
269.9362603163727954
 51
294.0261088637126932
  0
LINE
  5
8FFF
  8
0
 10
606.6671502068766131
 20
75.2268014519240324
 30
0.0
 11
607.4670660692723914
 21
75.5829334640453112
 31
0.0
  0
LINE
  5
9000
  8
0
 10
607.4563202531434172
 20
75.1670524927502299
 30
0.0
 11
607.3819053457834798
 21
75.1696511186502221
 31
0.0
  0
ARC
  5
9001
  8
0
 10
607.3824292979835491
 20
75.1846419649502309
 30
0.0
 40
0.0150000000000037
 50
183.8833222236127085
 51
267.9982428403841936
  0
ARC
  5
9002
  8
0
 10
605.8410053238433193
 20
75.0800089779510103
 30
0.0
 40
1.52997117449579
 50
3.8833222236127232
 51
16.4157465324903313
  0
LINE
  5
9003
  8
0
 10
607.5904586820443001
 20
73.8767443839812614
 30
0.0
 11
607.5898863676433166
 21
75.1670524927502299
 31
0.0
  0
ARC
  5
9004
  8
0
 10
624.263505297930692
 20
73.3091100401774014
 30
0.0
 40
16.6827063812736895
 50
178.050116679068708
 51
184.683008935324608
  0
ARC
  5
9005
  8
0
 10
607.733470046583534
 20
74.6865347827502148
 30
0.0
 40
0.0300100899999999
 50
175.423882193459292
 51
260.1805597025525003
  0
ARC
  5
9006
  8
0
 10
607.9550390973062122
 20
74.7734576693056852
 30
0.0
 40
0.2447956937084383
 50
153.3369764057584916
 51
179.4053647300443117
  0
ARC
  5
9007
  8
0
 10
608.815201029417949
 20
74.2002050193974014
 30
0.0
 40
1.2769931656922979
 50
125.6470377412052954
 51
147.6607882761437907
  0
ARC
  5
9008
  8
0
 10
608.4650818769321177
 20
74.71645860346473
 30
0.0
 40
0.6536323908587338
 50
99.6508487284553013
 51
127.0806372429489954
  0
ARC
  5
9009
  8
0
 10
608.4200931384392561
 20
74.7248218965019646
 30
0.0
 40
0.6392897840060843
 50
88.3990015246799459
 51
95.7985924603648868
  0
ARC
  5
900A
  8
0
 10
608.4051235911473441
 20
74.3702649584376587
 30
0.0
 40
0.9941394138691018
 50
76.3059291874209151
 51
88.107506129429737
  0
ARC
  5
900B
  8
0
 10
608.6200755295651561
 20
75.2929040117535493
 30
0.0
 40
0.0478104187339647
 50
345.0055155998362011
 51
64.744944330732082
  0
ARC
  5
900C
  8
0
 10
591.3352262690101497
 20
80.0032515236640478
 30
0.0
 40
17.9629819635961816
 50
344.1813433766155867
 51
344.7569679255860251
  0
ARC
  5
900D
  8
0
 10
608.3873417457366486
 20
75.1679103597607821
 30
0.0
 40
0.2385918329472055
 50
339.3351526971371186
 51
345.1243350202906868
  0
ARC
  5
900E
  8
0
 10
608.5464519813994002
 20
75.1095968802979854
 30
0.0
 40
0.0691580039999201
 50
285.1848318029457232
 51
338.0189973128711927
  0
ARC
  5
900F
  8
0
 10
609.1958562231003498
 20
72.7030533657425053
 30
0.0
 40
2.4234667032853099
 50
105.0991534020430009
 51
111.5726991128959042
  0
ARC
  5
9010
  8
0
 10
608.4868663158457593
 20
74.4758754507769112
 30
0.0
 40
0.5141997672736257
 50
110.7377930646009929
 51
161.9628868360146896
  0
ARC
  5
9011
  8
0
 10
607.9695772871937152
 20
74.6449025736056626
 30
0.0
 40
0.0300091127299203
 50
314.1876262776984277
 51
340.9113121743299075
  0
ARC
  5
9012
  8
0
 10
607.9695757509836085
 20
74.6449038234502495
 30
0.0
 40
0.0300110797000147
 50
259.7417061821112725
 51
314.1880661508538992
  0
LINE
  5
9013
  8
0
 10
607.9642311982084948
 20
74.6153724729836227
 30
0.0
 11
607.7283520107313279
 21
74.6569643378635135
 31
0.0
  0
LINE
  5
9014
  8
0
 10
607.7035556221302386
 20
74.6889290908781618
 30
0.0
 11
607.7102565869527098
 21
74.7759981974483026
 31
0.0
  0
LINE
  5
9015
  8
0
 10
607.5933070197251027
 20
72.6632140972441931
 30
0.0
 11
607.9383304960458645
 21
74.6199394655875778
 31
0.0
  0
LINE
  5
9016
  8
0
 10
607.5854033741778721
 20
73.7010391469079309
 30
0.0
 11
607.7531866384855448
 21
74.6525853229408938
 31
0.0
  0
ARC
  5
9018
  8
0
 10
601.4110198028855621
 20
75.7461549354940615
 30
0.0
 40
0.8053907150419972
 50
243.0369305297477069
 51
269.7109694788211982
  0
ARC
  5
9019
  8
0
 10
601.5317840928360056
 20
76.4467167234307539
 30
0.0
 40
1.5111068394314311
 50
265.2616025564786923
 51
293.2864828078937762
  0
ARC
  5
901A
  8
0
 10
604.0140279001116141
 20
72.2436981726740157
 30
0.0
 40
3.3877662933244661
 50
110.8169667118802977
 51
123.8052958685712071
  0
ARC
  5
901B
  8
0
 10
603.5058648954508271
 20
73.4693450194570943
 30
0.0
 40
2.0619129647129029
 50
54.227208901237411
 51
109.7216383365672954
  0
ARC
  5
901C
  8
0
 10
602.3596348145997581
 20
71.7281068033408644
 30
0.0
 40
4.145638229011734
 50
44.8563151579872468
 51
55.442085225810871
  0
ARC
  5
901D
  8
0
 10
607.4857325588856156
 20
76.8764466826161907
 30
0.0
 40
3.1196087070153609
 50
225.4798054663988012
 51
237.9612313146189138
  0
ARC
  5
901E
  8
0
 10
606.0180280496897467
 20
74.5513211185444931
 30
0.0
 40
0.3701721629621147
 50
239.6168031215831036
 51
320.8984332873105814
  0
ARC
  5
901F
  8
0
 10
604.988217178215109
 20
75.284213074487468
 30
0.0
 40
1.6335653905226399
 50
323.7319285374775859
 51
355.8871709527238067
  0
ARC
  5
9020
  8
0
 10
609.1539099718321495
 20
73.7372752504005007
 30
0.0
 40
1.7784694669496579
 50
124.9078126440622043
 51
144.266496010223392
  0
ARC
  5
9021
  8
0
 10
608.45805420807676
 20
74.6295455977355857
 30
0.0
 40
0.6513067514718843
 50
94.9356072754041236
 51
119.6181535343091014
  0
ARC
  5
9022
  8
0
 10
608.4781999344577343
 20
74.3637480898730701
 30
0.0
 40
0.9178562094278667
 50
78.4802009940428178
 51
94.7609988906388168
  0
ENDSEC
  0
EOF
