  0
SECTION
  2
HEADER
  9
$ACADVER
  1
AC1009
  9
$INSBASE
 10
3547.0251239859799171
 20
143.9220675087312884
 30
0.0
  9
$EXTMIN
 10
3542.4655022061260752
 20
139.8461171808521044
 30
0.0
  9
$EXTMAX
 10
3547.0359756115690288
 20
147.9951359084089972
 30
0.0
  9
$LIMMIN
 10
0.0
 20
0.0
  9
$LIMMAX
 10
11.6929133858000007
 20
8.2677165353999982
  9
$ORTHOMODE
 70
     0
  9
$REGENMODE
 70
     1
  9
$FILLMODE
 70
     1
  9
$QTEXTMODE
 70
     0
  9
$MIRRTEXT
 70
     0
  9
$DRAGMODE
 70
     2
  9
$LTSCALE
 40
0.6431102362
  9
$OSMODE
 70
  4095
  9
$ATTMODE
 70
     1
  9
$TEXTSIZE
 40
0.2
  9
$TRACEWID
 40
0.05
  9
$TEXTSTYLE
  7
STANDARD
  9
$CLAYER
  8
0
  9
$CELTYPE
  6
BYLAYER
  9
$CECOLOR
 62
   256
  9
$DIMSCALE
 40
1.0
  9
$DIMASZ
 40
0.1875
  9
$DIMEXO
 40
0.0625
  9
$DIMDLI
 40
0.4443307087
  9
$DIMRND
 40
0.0
  9
$DIMDLE
 40
0.0
  9
$DIMEXE
 40
0.125
  9
$DIMTP
 40
0.01
  9
$DIMTM
 40
0.01
  9
$DIMTXT
 40
2.0
  9
$DIMCEN
 40
0.1052362205
  9
$DIMTSZ
 40
0.0
  9
$DIMTOL
 70
     1
  9
$DIMLIM
 70
     0
  9
$DIMTIH
 70
     1
  9
$DIMTOH
 70
     1
  9
$DIMSE1
 70
     0
  9
$DIMSE2
 70
     0
  9
$DIMTAD
 70
     0
  9
$DIMZIN
 70
     0
  9
$DIMBLK
  1

  9
$DIMASO
 70
     1
  9
$DIMSHO
 70
     1
  9
$DIMPOST
  1
\X
  9
$DIMAPOST
  1

  9
$DIMALT
 70
     1
  9
$DIMALTD
 70
     2
  9
$DIMALTF
 40
25.3999999999999986
  9
$DIMLFAC
 40
1.0
  9
$DIMTOFL
 70
     0
  9
$DIMTVP
 40
0.0
  9
$DIMTIX
 70
     0
  9
$DIMSOXD
 70
     0
  9
$DIMSAH
 70
     0
  9
$DIMBLK1
  1

  9
$DIMBLK2
  1

  9
$DIMSTYLE
  2
STANDARD
  9
$DIMCLRD
 70
     0
  9
$DIMCLRE
 70
     0
  9
$DIMCLRT
 70
     0
  9
$DIMTFAC
 40
1.0
  9
$DIMGAP
 40
0.09
  9
$LUNITS
 70
     2
  9
$LUPREC
 70
     4
  9
$SKETCHINC
 40
0.1
  9
$FILLETRAD
 40
0.0
  9
$AUNITS
 70
     0
  9
$AUPREC
 70
     0
  9
$MENU
  1
.
  9
$ELEVATION
 40
0.0
  9
$PELEVATION
 40
0.0
  9
$THICKNESS
 40
0.0
  9
$LIMCHECK
 70
     0
  9
$BLIPMODE
 70
     0
  9
$CHAMFERA
 40
0.0
  9
$CHAMFERB
 40
0.0
  9
$SKPOLY
 70
     0
  9
$TDCREATE
 40
2458060.468368056230247
  9
$TDUPDATE
 40
2459097.7664467599242926
  9
$TDINDWG
 40
0.5584792824
  9
$TDUSRTIMER
 40
0.5584792824
  9
$USRTIMER
 70
     1
  9
$ANGBASE
 50
0.0
  9
$ANGDIR
 70
     0
  9
$PDMODE
 70
     0
  9
$PDSIZE
 40
0.3125
  9
$PLINEWID
 40
0.0
  9
$COORDS
 70
     1
  9
$SPLFRAME
 70
     0
  9
$SPLINETYPE
 70
     6
  9
$SPLINESEGS
 70
     8
  9
$ATTDIA
 70
     1
  9
$ATTREQ
 70
     1
  9
$HANDLING
 70
     1
  9
$HANDSEED
  5
10CE3
  9
$SURFTAB1
 70
     6
  9
$SURFTAB2
 70
     6
  9
$SURFTYPE
 70
     6
  9
$SURFU
 70
     6
  9
$SURFV
 70
     6
  9
$UCSNAME
  2

  9
$UCSORG
 10
0.0
 20
0.0
 30
0.0
  9
$UCSXDIR
 10
1.0
 20
0.0
 30
0.0
  9
$UCSYDIR
 10
0.0
 20
1.0
 30
0.0
  9
$PUCSNAME
  2

  9
$PUCSORG
 10
0.0
 20
0.0
 30
0.0
  9
$PUCSXDIR
 10
1.0
 20
0.0
 30
0.0
  9
$PUCSYDIR
 10
0.0
 20
1.0
 30
0.0
  9
$USERI1
 70
     0
  9
$USERI2
 70
     0
  9
$USERI3
 70
     0
  9
$USERI4
 70
     0
  9
$USERI5
 70
     0
  9
$USERR1
 40
0.0
  9
$USERR2
 40
0.0
  9
$USERR3
 40
0.0
  9
$USERR4
 40
0.0
  9
$USERR5
 40
0.0
  9
$WORLDVIEW
 70
     1
  9
$SHADEDGE
 70
     3
  9
$SHADEDIF
 70
    70
  9
$TILEMODE
 70
     1
  9
$MAXACTVP
 70
    64
  9
$PLIMCHECK
 70
     0
  9
$PEXTMIN
 10
1.0000000000000000E+20
 20
1.0000000000000000E+20
 30
1.0000000000000000E+20
  9
$PEXTMAX
 10
-1.0000000000000000E+20
 20
-1.0000000000000000E+20
 30
-1.0000000000000000E+20
  9
$PLIMMIN
 10
0.0
 20
0.0
  9
$PLIMMAX
 10
12.0
 20
9.0
  9
$UNITMODE
 70
     0
  9
$VISRETAIN
 70
     1
  9
$PLINEGEN
 70
     0
  9
$PSLTSCALE
 70
     1
  0
ENDSEC
  0
SECTION
  2
TABLES
  0
TABLE
  2
VPORT
 70
     1
  0
VPORT
  2
*ACTIVE
 70
     0
 10
0.0
 20
0.0
 11
1.0
 21
1.0
 12
241.0576236744718983
 22
-51.3408850312572298
 13
0.0
 23
0.0
 14
1.0
 24
1.0
 15
0.0
 25
0.0
 16
0.0
 26
0.0
 36
96.5995694866707311
 17
3303.693115234375
 27
195.2615115758877096
 37
0.0
 40
8.2168330304214123
 41
2.6486111111111108
 42
50.0
 43
0.0
 44
0.0
 50
0.0
 51
0.0
 71
     0
 72
   100
 73
     1
 74
     1
 75
     0
 76
     0
 77
     0
 78
     0
  0
ENDTAB
  0
TABLE
  2
LTYPE
 70
     2
  0
LTYPE
  2
CONTINUOUS
 70
     0
  3
Solid line
 72
    65
 73
     0
 40
0.0
  0
LTYPE
  2
PHANTOM2
 70
     0
  3
___ _ _ ___ _ _ ___ _ _ ___ _ _
 72
    65
 73
     6
 40
1.25
 49
0.625
 49
-0.125
 49
0.125
 49
-0.125
 49
0.125
 49
-0.125
  0
ENDTAB
  0
TABLE
  2
LAYER
 70
     2
  0
LAYER
  2
0
 70
     0
 62
   255
  6
CONTINUOUS
  0
LAYER
  2
DEFPOINTS
 70
     0
 62
     7
  6
CONTINUOUS
  0
ENDTAB
  0
TABLE
  2
STYLE
 70
     1
  0
STYLE
  2
STANDARD
 70
     0
 40
0.0
 41
0.8
 50
0.0
 71
     0
 42
0.2
  3
txt
  4

  0
ENDTAB
  0
TABLE
  2
VIEW
 70
     0
  0
ENDTAB
  0
TABLE
  2
UCS
 70
     0
  0
ENDTAB
  0
TABLE
  2
APPID
 70
     9
  0
APPID
  2
ACAD
 70
     0
  0
APPID
  2
ACAD_MLEADERVER
 70
     0
  0
APPID
  2
ACAD_EXEMPT_FROM_CAD_STANDARDS
 70
     0
  0
APPID
  2
ACAD_NAV_VCDISPLAY
 70
     0
  0
APPID
  2
ACAECLAYERSTANDARD
 70
     0
  0
APPID
  2
ACCMTRANSPARENCY
 70
     0
  0
APPID
  2
ACAD_DSTYLE_DIMJAG
 70
     0
  0
APPID
  2
ACAD_DSTYLE_DIMTALN
 70
     0
  0
APPID
  2
ACDBATTR
 70
     0
  0
ENDTAB
  0
TABLE
  2
DIMSTYLE
 70
     1
  0
DIMSTYLE
  2
STANDARD
 70
     0
  3

  4

  5

  6

  7

 40
1.0
 41
0.1875
 42
0.0625
 43
0.38
 44
0.125
 45
0.0
 46
0.0
 47
0.01
 48
0.01
140
0.15625
141
0.09
142
0.0
143
25.3999999999999986
144
1.0
145
0.0
146
1.0
147
0.09
 71
     1
 72
     0
 73
     1
 74
     1
 75
     0
 76
     0
 77
     0
 78
     4
170
     0
171
     2
172
     0
173
     0
174
     0
175
     0
176
     0
177
     0
178
     0
  0
ENDTAB
  0
ENDSEC
  0
SECTION
  2
BLOCKS
  0
BLOCK
  8
0
  2
$MODEL_SPACE
 70
     0
 10
0.0
 20
0.0
 30
0.0
  3
$MODEL_SPACE
  1

  0
ENDBLK
  5
21
  8
0
  0
BLOCK
 67
     1
  8
0
  2
$PAPER_SPACE
 70
     0
 10
0.0
 20
0.0
 30
0.0
  3
$PAPER_SPACE
  1

  0
ENDBLK
  5
1D
 67
     1
  8
0
  0
BLOCK
  8
0
  2
_FILLED
 70
     0
 10
0.0
 20
0.0
 30
0.0
  3
_FILLED
  1

  0
SOLID
  5
9E2C
  8
0
  6
BYBLOCK
 62
     0
 10
0.0
 20
0.0
 30
0.0
 11
-1.0
 21
0.1666666667
 31
0.0
 12
-1.0
 22
-0.1666666667
 32
0.0
 13
-1.0
 23
-0.1666666667
 33
0.0
  0
ENDBLK
  5
9E2D
  8
0
  6
BYBLOCK
 62
     0
  0
BLOCK
  8
0
  2
A$C6B0F1CD5
 70
     2
 10
0.0
 20
0.0
 30
0.0
  3
A$C6B0F1CD5
  1

  0
ATTDEF
  5
B779
  8
DEFPOINTS
 10
0.0005209962714616
 20
0.000347009907216
 30
0.0
 40
0.001
  1
BATH FAUCET
  3

  2
PRODUCT
 70
     0
1001
ACDBATTR
1070
     0
1070
     1
  0
ATTDEF
  5
B77A
  8
DEFPOINTS
 10
0.0005209962714616
 20
0.0020136765738812
 30
0.0
 40
0.001
  1
SINGULIER
  3

  2
TRADENAME
 70
     0
1001
ACDBATTR
1070
     0
1070
     1
  0
ATTDEF
  5
B77B
  8
DEFPOINTS
 10
0.0005209962714616
 20
0.0036803432405463
 30
0.0
 40
0.001
  1
K-10873W
  3

  2
MODELNUMBER
 70
     0
1001
ACDBATTR
1070
     0
1070
     1
  0
ENDBLK
  5
B77F
  8
0
  0
ENDSEC
  0
SECTION
  2
ENTITIES
  0
ATTDEF
  5
F62A
  8
DEFPOINTS
 10
3547.0253089448988248
 20
143.9257823230059898
 30
0.0
 40
0.001
  1
K-10243IN-4FP
  3

  2
MODELNUMBER
 70
     0
1001
ACDBATTR
1070
     0
1070
     1
  0
ATTDEF
  5
F62B
  8
DEFPOINTS
 10
3547.0253089448988248
 20
143.9241156563392963
 30
0.0
 40
0.001
  1
FAIRFAX
  3

  2
TRADENAME
 70
     0
1001
ACDBATTR
1070
     0
1070
     1
  0
ATTDEF
  5
F62C
  8
DEFPOINTS
 10
3547.0253089448988248
 20
143.922448989672688
 30
0.0
 40
0.001
  1
VALVE TRIM
  3

  2
PRODUCT
 70
     0
1001
ACDBATTR
1070
     0
1070
     1
  0
LINE
  5
10945
  8
0
 10
3547.0251239859799171
 20
139.848999109053608
 30
0.0
 11
3547.0251239859799171
 21
147.9951359084089972
 31
0.0
  0
LINE
  5
10946
  8
0
 10
3547.0251239859799171
 20
147.9951359084089972
 30
0.0
 11
3546.6664936020802088
 21
147.9790720414536054
 31
0.0
  0
ARC
  5
10947
  8
0
 10
3546.6682746457017856
 20
147.9393097376668038
 30
0.0
 40
0.0398021722876022
 50
92.5646933965530962
 51
176.1604194620769874
  0
ARC
  5
10948
  8
0
 10
3610.0093910786258675
 20
144.2608147195502113
 30
0.0
 40
63.4876402123332397
 50
176.6759938137963104
 51
178.4804779771017138
  0
ARC
  5
10949
  8
0
 10
3487.3816706105521916
 20
145.874492641132889
 30
0.0
 40
59.1624470577363368
 50
358.1990916247651739
 51
0.0678091578673212
  0
ARC
  5
1094A
  8
0
 10
3607.6872533098421627
 20
143.7728234204008118
 30
0.0
 40
61.1728384472377229
 50
179.7729677167776003
 51
181.718374337334609
  0
ARC
  5
1094B
  8
0
 10
3613.3471233949371708
 20
143.7408838477622055
 30
0.0
 40
66.8295097125504896
 50
181.5454939004717119
 51
183.3019765559654957
  0
ARC
  5
1094C
  8
0
 10
3546.6678675973939789
 20
139.8938591802217104
 30
0.0
 40
0.0393700800920431
 50
183.2801032294021013
 51
267.9999996402166857
  0
LINE
  5
1094D
  8
0
 10
3546.6664936011670761
 20
139.8545130833273049
 30
0.0
 11
3546.9070137497801625
 21
139.8461171808521044
 31
0.0
  0
LINE
  5
1094E
  8
0
 10
3546.9070137497801625
 20
139.8461171808521044
 30
0.0
 11
3546.9070137497801625
 21
139.8527846748536092
 31
0.0
  0
LINE
  5
1094F
  8
0
 10
3546.9070137497801625
 20
139.8527846748536092
 30
0.0
 11
3547.0251239859799171
 21
139.848999109053608
 31
0.0
  0
LINE
  5
10950
  8
0
 10
3546.6281964645800144
 20
139.8979477721022135
 30
0.0
 11
3546.6281964645800144
 21
147.9356792105394902
 31
0.0
  0
LINE
  5
10951
  8
0
 10
3544.7477867855800469
 20
145.9443516217536114
 30
0.0
 11
3546.5440764235540883
 21
145.9443516217536114
 31
0.0
  0
ARC
  5
10952
  8
0
 10
3544.7477867855800469
 20
145.9325405981535937
 30
0.0
 40
0.0118110236
 50
90.0
 51
180.0000000000129887
  0
LINE
  5
10953
  8
0
 10
3544.7359757619801712
 20
145.9325399132536063
 30
0.0
 11
3544.7359757619801712
 21
144.0270294721536004
 31
0.0
  0
ARC
  5
10954
  8
0
 10
3544.7477874706000875
 20
144.0270294721536004
 30
0.0
 40
0.011811708619863
 50
180.0000000000032117
 51
269.9966771321434749
  0
LINE
  5
10955
  8
0
 10
3544.7477867855800469
 20
144.0152177635536077
 30
0.0
 11
3546.5148950993088874
 21
144.0152177635536077
 31
0.0
  0
LINE
  5
10956
  8
0
 10
3544.7359757619801712
 20
144.03490280295361
 30
0.0
 11
3544.5708981730808773
 21
144.03490280295361
 31
0.0
  0
LINE
  5
10957
  8
0
 10
3544.5708981730808773
 20
143.9090842344535872
 30
0.0
 11
3544.5708981730808773
 21
146.0504851508536035
 31
0.0
  0
ARC
  5
10958
  8
0
 10
3544.5408981730802225
 20
146.0504851508536035
 30
0.0
 40
0.0300000000000011
 50
0.0000000000016284
 51
54.6790791348897116
  0
ARC
  5
10959
  8
0
 10
3543.9998502469597952
 20
145.2869270882069941
 30
0.0
 40
0.9658171687841715
 50
54.6790791348897116
 51
61.4882290179425226
  0
ARC
  5
1095A
  8
0
 10
3544.3135803043828673
 20
145.8644629938063133
 30
0.0
 40
0.3085696726410289
 50
61.4882290179196289
 51
89.5643140611089876
  0
ARC
  5
1095B
  8
0
 10
3544.3160953875039922
 20
145.9048975828731045
 30
0.0
 40
0.2681262154483655
 50
90.0360482347022781
 51
124.9560192538902044
  0
ARC
  5
1095C
  8
0
 10
3544.425570668121054
 20
145.7548170529404956
 30
0.0
 40
0.4538699992450823
 50
125.4277534274798001
 51
143.9353240868304056
  0
ARC
  5
1095D
  8
0
 10
3545.1309447614030432
 20
145.2411152432453889
 30
0.0
 40
1.3264765318573479
 50
143.9353240868304056
 51
152.9717811474440055
  0
ARC
  5
1095E
  8
0
 10
3543.2795252991568304
 20
146.1856094414447114
 30
0.0
 40
0.7519419331333238
 50
322.68499317015511
 51
332.9717811474440055
  0
ARC
  5
1095F
  8
0
 10
3543.629770948121859
 20
145.8932403835368916
 30
0.0
 40
0.2968418631060493
 50
304.68911635934478
 51
326.5884498770449227
  0
ARC
  5
10960
  8
0
 10
3543.7165287572761372
 20
145.782304207188588
 30
0.0
 40
0.1564635023633177
 50
275.1058534282046253
 51
301.6848033515468046
  0
ARC
  5
10961
  8
0
 10
3543.715613090872921
 20
145.7821082477479138
 30
0.0
 40
0.1563525739428624
 50
243.1508014712325974
 51
275.4464629337081192
  0
ARC
  5
10962
  8
0
 10
3543.7647827412579318
 20
145.8502388646934094
 30
0.0
 40
0.2397039028303578
 50
222.6562165172232994
 51
240.0183878969068019
  0
ARC
  5
10963
  8
0
 10
3543.2531526257412224
 20
145.3624146531541896
 30
0.0
 40
0.4672704507137739
 50
44.1378958497712333
 51
48.7821430936510225
  0
ARC
  5
10964
  8
0
 10
3543.5192572007131275
 20
145.6668686838220879
 30
0.0
 40
0.0629161176197647
 50
48.3763145948262405
 51
89.8978005937246678
  0
ARC
  5
10965
  8
0
 10
3543.5193016323401025
 20
145.6673303895557012
 30
0.0
 40
0.0624543485916458
 50
89.9378066920708079
 51
122.8219006826193009
  0
ARC
  5
10966
  8
0
 10
3543.5192668856170712
 20
145.6672960947622073
 30
0.0
 40
0.0624643530791296
 50
122.7780663831485981
 51
180.0104680961044039
  0
LINE
  5
10967
  8
0
 10
3543.4568025335797756
 20
145.6672846823535963
 30
0.0
 11
3543.4568025335797756
 21
144.2922847030534967
 31
0.0
  0
ARC
  5
10968
  8
0
 10
3543.5193772450011238
 20
144.292307972464414
 30
0.0
 40
0.0625747157468502
 50
180.021306354237197
 51
215.2099198791424897
  0
ARC
  5
10969
  8
0
 10
3543.519265992506007
 20
144.2922294636123013
 30
0.0
 40
0.062438551297051
 50
215.2099198791424897
 51
265.2532191051840869
  0
ARC
  5
1096A
  8
0
 10
3543.5192593252218103
 20
144.2921491706966037
 30
0.0
 40
0.0623579820411776
 50
265.2532191051840869
 51
308.3129595520064754
  0
ARC
  5
1096B
  8
0
 10
3543.3242668630700791
 20
144.5242751423938898
 30
0.0
 40
0.3654923202041289
 50
309.7381048239207075
 51
316.2979289624987018
  0
ARC
  5
1096C
  8
0
 10
3543.7606818145218313
 20
144.1152036639587095
 30
0.0
 40
0.2327134171923094
 50
120.8342069326009067
 51
137.7230742343946019
  0
ARC
  5
1096D
  8
0
 10
3543.7151596548951602
 20
144.179482832061808
 30
0.0
 40
0.1543094617416962
 50
89.2063601774940054
 51
118.5533726580024023
  0
ARC
  5
1096E
  8
0
 10
3543.7162409961579215
 20
144.1766190464107069
 30
0.0
 40
0.1571619920904658
 50
55.1582359217979104
 51
89.6150062645483843
  0
ARC
  5
1096F
  8
0
 10
3543.6740771099180165
 20
144.1196039280490879
 30
0.0
 40
0.2280539650703343
 50
41.8485741262868984
 51
54.6477459021328968
  0
ARC
  5
10970
  8
0
 10
3542.9300690826080427
 20
143.540936138473711
 30
0.0
 40
1.1701644540513829
 50
29.0970035536841785
 51
38.6486037449790913
  0
ARC
  5
10971
  8
0
 10
3544.7745383385981768
 20
144.5044294234434119
 30
0.0
 40
0.9117286656861114
 50
205.6355035319571982
 51
224.7358675659507128
  0
ARC
  5
10972
  8
0
 10
3544.3177958957849114
 20
144.0631061790282956
 30
0.0
 40
0.2767717475014439
 50
226.3871295139462063
 51
291.5200983273347788
  0
ARC
  5
10973
  8
0
 10
3544.1772300615562017
 20
144.3931282822414062
 30
0.0
 40
0.6354252148373415
 50
292.3952814995528229
 51
306.8425869281285827
  0
ARC
  5
10974
  8
0
 10
3544.5408981730802225
 20
143.9090842344535872
 30
0.0
 40
0.0300000000000004
 50
305.3209208651102813
 51
0.0
  0
ARC
  5
10975
  8
0
 10
3543.332292556180164
 20
145.5279955470535924
 30
0.0
 40
0.1598204623999484
 50
75.2102811359809209
 51
90.0
  0
ARC
  5
10976
  8
0
 10
3543.332292556180164
 20
145.5279955470535072
 30
0.0
 40
0.1598204624000375
 50
51.504514423274081
 51
75.2102811359809209
  0
ARC
  5
10977
  8
0
 10
3543.332292556180164
 20
145.5279955470537061
 30
0.0
 40
0.1598204623998923
 50
38.8252679294065004
 51
51.504514423274081
  0
ARC
  5
10978
  8
0
 10
3543.332292556180164
 20
145.5279955470535924
 30
0.0
 40
0.1598204623999884
 50
90.0
 51
123.9742811670646034
  0
ARC
  5
10979
  8
0
 10
3543.332292556180164
 20
145.5279955470535924
 30
0.0
 40
0.1598204624000146
 50
123.9742811670646034
 51
156.549372030169593
  0
ARC
  5
1097A
  8
0
 10
3543.332292556180164
 20
145.5279955470535924
 30
0.0
 40
0.1598204623999937
 50
156.549372030169593
 51
177.5671396049027067
  0
LINE
  5
1097B
  8
0
 10
3543.172616148086945
 20
145.5347797124535987
 30
0.0
 11
3543.1723065366300034
 21
144.4886966152035939
 31
0.0
  0
ARC
  5
1097C
  8
0
 10
3542.5291465783448075
 20
144.4770430557250052
 30
0.0
 40
0.6432655263491848
 50
356.1997081569459738
 51
1.0380414859583551
  0
ARC
  5
1097D
  8
0
 10
3542.9197887251730208
 20
144.4510946343986859
 30
0.0
 40
0.251762515573165
 50
354.0299995669706163
 51
356.1997081569459738
  0
ARC
  5
1097E
  8
0
 10
3542.8129776712939929
 20
144.4665347783333118
 30
0.0
 40
0.3596252538995713
 50
339.3158036085395111
 51
353.3533119057976819
  0
ARC
  5
1097F
  8
0
 10
3541.7048549447740697
 20
144.9044913693662124
 30
0.0
 40
1.5511218527227799
 50
335.9255840481012001
 51
338.6391159473664061
  0
ARC
  5
10980
  8
0
 10
3550.3647113378228823
 20
140.2928218111925105
 30
0.0
 40
8.2645301416131041
 50
151.2200626976544129
 51
157.1509338604664094
  0
ARC
  5
10981
  8
0
 10
3547.7508677489618094
 20
141.3801157448743027
 30
0.0
 40
5.433606330808507
 50
157.0139238108197048
 51
162.311404588745404
  0
ARC
  5
10982
  8
0
 10
3544.3276761721331241
 20
142.4029416554880925
 30
0.0
 40
1.8626346877441551
 50
160.2916893484043896
 51
178.1521142875407122
  0
ARC
  5
10983
  8
0
 10
3544.6049165843678566
 20
142.416388244185498
 30
0.0
 40
2.1394143782426829
 50
178.7514723690466099
 51
188.3753385808495011
  0
ARC
  5
10984
  8
0
 10
3543.5729213439708474
 20
142.3079668151924011
 30
0.0
 40
1.1034730547584131
 50
190.6113226562584089
 51
213.8295323886368067
  0
ARC
  5
10985
  8
0
 10
3543.1252412945182186
 20
142.0368681095463899
 30
0.0
 40
0.581156328149443
 50
216.1996156322593095
 51
236.8726657604898946
  0
ARC
  5
10986
  8
0
 10
3542.9851111313259935
 20
141.8446218460194928
 30
0.0
 40
0.3437965379092571
 50
238.9213483104919078
 51
246.0798011519152055
  0
ARC
  5
10987
  8
0
 10
3542.9199427324338103
 20
141.6977008515212049
 30
0.0
 40
0.183070999059019
 50
246.0798011519152055
 51
257.6893501964975144
  0
ARC
  5
10988
  8
0
 10
3542.9025149073750072
 20
141.6218877090159936
 30
0.0
 40
0.105288821024743
 50
258.1588813523803765
 51
270.1397810435508973
  0
ARC
  5
10989
  8
0
 10
3542.8923497629239137
 20
141.8353298554312971
 30
0.0
 40
0.3189010005961184
 50
271.872818169794698
 51
274.5976535136521761
  0
ARC
  5
1098A
  8
0
 10
3542.9068424492470513
 20
141.6551103791923936
 30
0.0
 40
0.1380997351894412
 50
274.5976535136521761
 51
290.2763552348391158
  0
ARC
  5
1098B
  8
0
 10
3542.9351961912889237
 20
141.5828066940954955
 30
0.0
 40
0.0604702262391943
 50
288.8170611460616897
 51
334.9796092264094227
  0
ARC
  5
1098C
  8
0
 10
3542.8913281856271169
 20
141.5990159510608066
 30
0.0
 40
0.1071468440618047
 50
337.0470614212590021
 51
359.1288335199648145
  0
ARC
  5
1098D
  8
0
 10
3541.7434360794150052
 20
141.5570726600595037
 30
0.0
 40
1.255673888945587
 50
1.8398339203790151
 51
11.8497825764170504
  0
ARC
  5
1098E
  8
0
 10
3430.6902475389720166
 20
121.1107246515140048
 30
0.0
 40
114.1750166971506957
 50
10.4476669952561494
 51
10.6365598576558007
  0
ARC
  5
1098F
  8
0
 10
3545.0835430102238206
 20
142.5507188972800918
 30
0.0
 40
2.210526365556877
 50
182.411394501029207
 51
189.5235796210814954
  0
ARC
  5
10990
  8
0
 10
3545.0242848232719552
 20
142.5284410016695062
 30
0.0
 40
2.1504741559807692
 50
166.6308494546948111
 51
181.8847839624208973
  0
ARC
  5
10991
  8
0
 10
3546.8406886864140688
 20
142.099224289111504
 30
0.0
 40
4.0169003848711551
 50
155.0696375935507092
 51
166.6652419515812085
  0
ARC
  5
10992
  8
0
 10
3545.3400517068362205
 20
142.798326703699189
 30
0.0
 40
2.3614088829967921
 50
149.1877070117469088
 51
155.1040300904373055
  0
ARC
  5
10993
  8
0
 10
3548.0156785088970537
 20
141.2025548543894047
 30
0.0
 40
5.4767686662254089
 50
147.2629020061378071
 51
149.1877070117469088
  0
ARC
  5
10994
  8
0
 10
3543.116887689334817
 20
144.3440036268156916
 30
0.0
 40
0.3428168346731175
 50
328.3876654902439896
 51
347.8334181500629256
  0
ARC
  5
10995
  8
0
 10
3543.0551433711630125
 20
144.3341389186595904
 30
0.0
 40
0.401734637948075
 50
351.0663596461045017
 51
358.8893483205084181
  0
ARC
  5
10996
  8
0
 10
3543.1668514461739505
 20
145.3341138432039088
 30
0.0
 40
0.2006993852888501
 50
91.0471213099504837
 51
95.3704464395049598
  0
ARC
  5
10997
  8
0
 10
3543.1609889433111675
 20
145.3579471150590905
 30
0.0
 40
0.1764588837143714
 50
94.1994732414613765
 51
137.5344669405864124
  0
ARC
  5
10998
  8
0
 10
3543.4893827133919331
 20
145.127539265286913
 30
0.0
 40
0.5765952822845791
 50
142.6833332191723116
 51
161.4660960599130988
  0
ARC
  5
10999
  8
0
 10
3543.8769062773540099
 20
144.9760636851403035
 30
0.0
 40
0.9923796204082767
 50
160.2859552238556091
 51
179.7851643451402026
  0
ARC
  5
1099A
  8
0
 10
3543.8769062524579567
 20
144.9835056958949053
 30
0.0
 40
0.9923795954959771
 50
180.2148354136074033
 51
199.7140450271544125
  0
ARC
  5
1099B
  8
0
 10
3543.6209043402509451
 20
144.8898133032951137
 30
0.0
 40
0.7197799780911555
 50
199.5671975613516906
 51
212.0338847227438919
  0
ARC
  5
1099C
  8
0
 10
3543.1641477979778756
 20
144.6066427356676911
 30
0.0
 40
0.1823856490957576
 50
212.731197873298612
 51
243.3018415400034939
  0
ARC
  5
1099D
  8
0
 10
3543.1645409945408574
 20
144.6156061960325019
 30
0.0
 40
0.1906055861876297
 50
244.4068864165577111
 51
260.5227248999120775
  0
ARC
  5
1099E
  8
0
 10
3543.1668774709892205
 20
144.6259203270768126
 30
0.0
 40
0.2011645690062344
 50
260.3500385576267036
 51
268.9478867077668838
  0
LINE
  5
1099F
  8
0
 10
3543.1631837256800281
 20
145.5347797124535987
 30
0.0
 11
3543.1631837256800281
 21
144.424789672853592
 31
0.0
  0
LINE
  5
109A0
  8
0
 10
3543.1631837256800281
 20
144.4497265340309013
 30
0.0
 11
3543.1718343089210066
 21
144.4497846926535942
 31
0.0
  0
LINE
  5
109A1
  8
0
 10
3543.1723013919231562
 20
144.4713142101535936
 30
0.0
 11
3543.1631837256800281
 21
144.4713142101535936
 31
0.0
  0
LINE
  5
109A2
  8
0
 10
3543.1723032028548914
 20
144.4774328002536095
 30
0.0
 11
3543.1631837256800281
 21
144.4774328002536095
 31
0.0
  0
LINE
  5
109A3
  8
0
 10
3543.1723056807791181
 20
144.4858049520533996
 30
0.0
 11
3543.1631837256800281
 21
144.4858049520533996
 31
0.0
  0
LINE
  5
109A4
  8
0
 10
3543.1723175040810929
 20
144.5257523008035889
 30
0.0
 11
3543.1631837256800281
 21
144.5257523008035889
 31
0.0
  0
LINE
  5
109A5
  8
0
 10
3543.1723347566608027
 20
144.5840435325870033
 30
0.0
 11
3543.1631837256800281
 21
144.5840435325870033
 31
0.0
  0
LINE
  5
109A6
  8
0
 10
3543.17233515855105
 20
144.5854013955535891
 30
0.0
 11
3543.1631837256800281
 21
144.5854013955535891
 31
0.0
  0
LINE
  5
109A7
  8
0
 10
3543.1723765602068852
 20
144.7252850191036089
 30
0.0
 11
3543.1631837256800281
 21
144.7252850191036089
 31
0.0
  0
LINE
  5
109A8
  8
0
 10
3543.1723773000408073
 20
144.7277846926535858
 30
0.0
 11
3543.1631837256800281
 21
144.7277846926535858
 31
0.0
  0
LINE
  5
109A9
  8
0
 10
3543.1724398349811054
 20
144.9390712674995996
 30
0.0
 11
3543.1631837256800281
 21
144.9390712674995996
 31
0.0
  0
LINE
  5
109AA
  8
0
 10
3543.172463935111864
 20
145.0204982890211909
 30
0.0
 11
3543.1631837256800281
 21
145.0204982890211909
 31
0.0
  0
LINE
  5
109AB
  8
0
 10
3543.1725264700021398
 20
145.2317846926536049
 30
0.0
 11
3543.1631837256800281
 21
145.2317846926536049
 31
0.0
  0
LINE
  5
109AC
  8
0
 10
3543.1725272098351525
 20
145.2342843661035943
 30
0.0
 11
3543.1631837256800281
 21
145.2342843661035943
 31
0.0
  0
LINE
  5
109AD
  8
0
 10
3543.1725686114909877
 20
145.3741679897536017
 30
0.0
 11
3543.1631837256800281
 21
145.3741679897536017
 31
0.0
  0
LINE
  5
109AE
  8
0
 10
3543.1725690133430362
 20
145.3755257245036034
 30
0.0
 11
3543.1631837256800281
 21
145.3755257245036034
 31
0.0
  0
LINE
  5
109AF
  8
0
 10
3543.1725862659832273
 20
145.433817157653607
 30
0.0
 11
3543.1631837256800281
 21
145.433817157653607
 31
0.0
  0
LINE
  5
109B0
  8
0
 10
3543.1725956482919173
 20
145.4655171293536
 30
0.0
 11
3543.1631837256800281
 21
145.4655171293536
 31
0.0
  0
LINE
  5
109B1
  8
0
 10
3543.1725985584789669
 20
145.475349769753592
 30
0.0
 11
3543.1631837256800281
 21
145.475349769753592
 31
0.0
  0
LINE
  5
109B2
  8
0
 10
3543.1726010549818966
 20
145.483784692653586
 30
0.0
 11
3543.1631837256800281
 21
145.483784692653586
 31
0.0
  0
LINE
  5
109B3
  8
0
 10
3544.7359757619801712
 20
145.9246665824535967
 30
0.0
 11
3544.5708981730808773
 21
145.9246665824535967
 31
0.0
  0
LINE
  5
109B4
  8
0
 10
3546.5205990479607863
 20
142.903013039153592
 30
0.0
 11
3545.1493618997801605
 21
142.903013039153592
 31
0.0
  0
LINE
  5
109B5
  8
0
 10
3545.1493618997801605
 20
142.903013039153592
 30
0.0
 11
3545.1296766009809289
 21
142.8833277529535906
 31
0.0
  0
LINE
  5
109B6
  8
0
 10
3545.1296766009809289
 20
142.8833277529535906
 30
0.0
 11
3545.1296766009809289
 21
141.9581313961535898
 31
0.0
  0
LINE
  5
109B7
  8
0
 10
3545.1296766009809289
 20
141.9581313961535898
 30
0.0
 11
3545.1493617929800166
 21
141.9384461100536043
 31
0.0
  0
LINE
  5
109B8
  8
0
 10
3545.1493617929800166
 20
141.9384461100536043
 30
0.0
 11
3546.5419245955799852
 21
141.9384461100536043
 31
0.0
  0
LINE
  5
109B9
  8
0
 10
3545.1296765493798375
 20
142.8053752438536037
 30
0.0
 11
3544.6962120687799143
 21
142.8140445334996116
 31
0.0
  0
ARC
  5
109BA
  8
0
 10
3544.6966056910100633
 20
142.833725644900511
 30
0.0
 40
0.019685047229715
 50
180.0011355357094942
 51
268.8542371573415721
  0
LINE
  5
109BB
  8
0
 10
3544.6769206669800951
 20
142.8202196513535966
 30
0.0
 11
3544.6769198968468118
 21
142.871413491686809
 31
0.0
  0
ARC
  5
109BC
  8
0
 10
3544.6573297933568938
 20
142.8714131034338095
 30
0.0
 40
0.0195901034935717
 50
0.0011355357095346
 51
88.2659290446990354
  0
ARC
  5
109BD
  8
0
 10
3544.2665918468460404
 20
132.9694953168977065
 30
0.0
 40
9.9292134910923764
 50
87.7412703057149486
 51
88.086236868704674
  0
LINE
  5
109BE
  8
0
 10
3544.598180486379988
 20
142.893170519453605
 30
0.0
 11
3544.5615064842800166
 21
142.891889835053604
 31
0.0
  0
ARC
  5
109BF
  8
0
 10
3544.5628804843518083
 20
142.8525436217867934
 30
0.0
 40
0.0393701965276826
 50
92.0000000410914964
 51
180.1527192788369121
  0
LINE
  5
109C0
  8
0
 10
3544.5235104276798666
 20
142.8524386824535952
 30
0.0
 11
3544.523510373706813
 21
141.9928663480783086
 31
0.0
  0
ARC
  5
109C1
  8
0
 10
3544.5635583696939648
 20
141.9896905946557126
 30
0.0
 40
0.0401737151785493
 50
175.4660080508118085
 51
267.0723254327951963
  0
LINE
  5
109C2
  8
0
 10
3544.5615064840180821
 20
141.9495693140628134
 30
0.0
 11
3544.5981756794831199
 21
141.9482887975140954
 31
0.0
  0
ARC
  5
109C3
  8
0
 10
3437.2578941199471956
 20
3217.1230637738080986
 30
0.0
 40
3077.0475837555359249
 50
271.9991218787845924
 51
272.0002350667948008
  0
ARC
  5
109C4
  8
0
 10
3544.6572356044798653
 20
141.9700479181533979
 30
0.0
 40
0.019685039399779
 50
272.0000000085289003
 51
359.9934838468316229
  0
LINE
  5
109C5
  8
0
 10
3544.6769208558589526
 20
141.9701341573947104
 30
0.0
 11
3544.676920664679983
 21
142.0212394722535976
 31
0.0
  0
ARC
  5
109C6
  8
0
 10
3546.5847877201990741
 20
142.1692850874302962
 30
0.0
 40
1.9136024157871581
 50
182.9578566553560108
 51
184.4371147153173069
  0
ARC
  5
109C7
  8
0
 10
3545.2981061268319536
 20
142.0574711479042946
 30
0.0
 40
0.6245082134174906
 50
174.4561684235796122
 51
178.8008586183929935
  0
ARC
  5
109C8
  8
0
 10
3544.4559613610190354
 20
142.1353529640632871
 30
0.0
 40
0.2212547566799269
 50
355.4505471103989862
 51
2.9694559938545888
  0
LINE
  5
109C9
  8
0
 10
3544.6769190373461242
 20
142.1468147538664084
 30
0.0
 11
3544.6769207107799957
 21
142.7111942123536039
 31
0.0
  0
ARC
  5
109CA
  8
0
 10
3543.9580426698748852
 20
142.6870199559940886
 30
0.0
 40
0.719284389941398
 50
1.9260048548746891
 51
5.3071975274596142
  0
ARC
  5
109CB
  8
0
 10
3544.9272376032381544
 20
142.7693469216679887
 30
0.0
 40
0.2534867121791697
 50
173.2273702441441117
 51
183.5727577795663024
  0
ARC
  5
109CC
  8
0
 10
3544.451810490157186
 20
142.8247156023454068
 30
0.0
 40
0.2251550694181968
 50
353.5033774232917949
 51
358.8558279445279027
  0
LINE
  5
109CD
  8
0
 10
3545.1493618997801605
 20
142.903013039153592
 30
0.0
 11
3545.1493617929800166
 21
141.9384461100536043
 31
0.0
  0
LINE
  5
109CE
  8
0
 10
3545.1296766009809289
 20
142.0360839062855973
 30
0.0
 11
3544.6962120686798698
 21
142.0274146156534982
 31
0.0
  0
ARC
  5
109CF
  8
0
 10
3544.6966058559241901
 20
142.0077227461621021
 30
0.0
 40
0.0196958064689747
 50
91.1456169890238357
 51
178.1145392220163899
  0
ENDSEC
  0
EOF
