  0
SECTION
  2
HEADER
  9
$ACADVER
  1
AC1009
  9
$INSBASE
 10
120.7823163645900024
 20
-28.3787121096401016
 30
0.0
  9
$EXTMIN
 10
118.0230888281634947
 20
-33.5067316884523692
 30
0.0
  9
$EXTMAX
 10
123.5415439010165954
 20
-28.3737215996981291
 30
0.0
  9
$LIMMIN
 10
0.0
 20
0.0
  9
$LIMMAX
 10
11.6929133858000007
 20
8.2677165353999982
  9
$ORTHOMODE
 70
     0
  9
$REGENMODE
 70
     1
  9
$FILLMODE
 70
     1
  9
$QTEXTMODE
 70
     0
  9
$MIRRTEXT
 70
     0
  9
$DRAGMODE
 70
     2
  9
$LTSCALE
 40
0.6431102362
  9
$OSMODE
 70
  2047
  9
$ATTMODE
 70
     1
  9
$TEXTSIZE
 40
0.2
  9
$TRACEWID
 40
0.05
  9
$TEXTSTYLE
  7
STANDARD
  9
$CLAYER
  8
0
  9
$CELTYPE
  6
BYLAYER
  9
$CECOLOR
 62
   256
  9
$DIMSCALE
 40
1.0
  9
$DIMASZ
 40
0.1875
  9
$DIMEXO
 40
0.0625
  9
$DIMDLI
 40
0.4443307087
  9
$DIMRND
 40
0.0
  9
$DIMDLE
 40
0.0
  9
$DIMEXE
 40
0.125
  9
$DIMTP
 40
0.01
  9
$DIMTM
 40
0.01
  9
$DIMTXT
 40
1.0
  9
$DIMCEN
 40
0.1052362205
  9
$DIMTSZ
 40
0.0
  9
$DIMTOL
 70
     1
  9
$DIMLIM
 70
     0
  9
$DIMTIH
 70
     1
  9
$DIMTOH
 70
     1
  9
$DIMSE1
 70
     0
  9
$DIMSE2
 70
     0
  9
$DIMTAD
 70
     0
  9
$DIMZIN
 70
     0
  9
$DIMBLK
  1

  9
$DIMASO
 70
     1
  9
$DIMSHO
 70
     1
  9
$DIMPOST
  1
\X
  9
$DIMAPOST
  1

  9
$DIMALT
 70
     1
  9
$DIMALTD
 70
     2
  9
$DIMALTF
 40
25.3999999999999986
  9
$DIMLFAC
 40
1.0
  9
$DIMTOFL
 70
     0
  9
$DIMTVP
 40
0.0
  9
$DIMTIX
 70
     0
  9
$DIMSOXD
 70
     0
  9
$DIMSAH
 70
     0
  9
$DIMBLK1
  1

  9
$DIMBLK2
  1

  9
$DIMSTYLE
  2
STANDARD
  9
$DIMCLRD
 70
     0
  9
$DIMCLRE
 70
     0
  9
$DIMCLRT
 70
     0
  9
$DIMTFAC
 40
1.0
  9
$DIMGAP
 40
0.09
  9
$LUNITS
 70
     2
  9
$LUPREC
 70
     4
  9
$SKETCHINC
 40
0.1
  9
$FILLETRAD
 40
0.0
  9
$AUNITS
 70
     0
  9
$AUPREC
 70
     0
  9
$MENU
  1
.
  9
$ELEVATION
 40
0.0
  9
$PELEVATION
 40
0.0
  9
$THICKNESS
 40
0.0
  9
$LIMCHECK
 70
     0
  9
$BLIPMODE
 70
     0
  9
$CHAMFERA
 40
0.0
  9
$CHAMFERB
 40
0.0
  9
$SKPOLY
 70
     0
  9
$TDCREATE
 40
2458172.4620254631154239
  9
$TDUPDATE
 40
2459038.8301273151300848
  9
$TDINDWG
 40
0.094612419
  9
$TDUSRTIMER
 40
0.094612419
  9
$USRTIMER
 70
     1
  9
$ANGBASE
 50
0.0
  9
$ANGDIR
 70
     0
  9
$PDMODE
 70
     0
  9
$PDSIZE
 40
0.3125
  9
$PLINEWID
 40
0.0
  9
$COORDS
 70
     1
  9
$SPLFRAME
 70
     0
  9
$SPLINETYPE
 70
     6
  9
$SPLINESEGS
 70
     8
  9
$ATTDIA
 70
     1
  9
$ATTREQ
 70
     1
  9
$HANDLING
 70
     1
  9
$HANDSEED
  5
AD0E
  9
$SURFTAB1
 70
     6
  9
$SURFTAB2
 70
     6
  9
$SURFTYPE
 70
     6
  9
$SURFU
 70
     6
  9
$SURFV
 70
     6
  9
$UCSNAME
  2

  9
$UCSORG
 10
0.0
 20
0.0
 30
0.0
  9
$UCSXDIR
 10
1.0
 20
0.0
 30
0.0
  9
$UCSYDIR
 10
0.0
 20
1.0
 30
0.0
  9
$PUCSNAME
  2

  9
$PUCSORG
 10
0.0
 20
0.0
 30
0.0
  9
$PUCSXDIR
 10
1.0
 20
0.0
 30
0.0
  9
$PUCSYDIR
 10
0.0
 20
1.0
 30
0.0
  9
$USERI1
 70
     0
  9
$USERI2
 70
     0
  9
$USERI3
 70
     0
  9
$USERI4
 70
     0
  9
$USERI5
 70
     0
  9
$USERR1
 40
0.0
  9
$USERR2
 40
0.0
  9
$USERR3
 40
0.0
  9
$USERR4
 40
0.0
  9
$USERR5
 40
0.0
  9
$WORLDVIEW
 70
     1
  9
$SHADEDGE
 70
     3
  9
$SHADEDIF
 70
    70
  9
$TILEMODE
 70
     1
  9
$MAXACTVP
 70
    64
  9
$PLIMCHECK
 70
     0
  9
$PEXTMIN
 10
1.0000000000000000E+20
 20
1.0000000000000000E+20
 30
1.0000000000000000E+20
  9
$PEXTMAX
 10
-1.0000000000000000E+20
 20
-1.0000000000000000E+20
 30
-1.0000000000000000E+20
  9
$PLIMMIN
 10
0.0
 20
0.0
  9
$PLIMMAX
 10
12.0
 20
9.0
  9
$UNITMODE
 70
     0
  9
$VISRETAIN
 70
     1
  9
$PLINEGEN
 70
     0
  9
$PSLTSCALE
 70
     1
  0
ENDSEC
  0
SECTION
  2
TABLES
  0
TABLE
  2
VPORT
 70
     1
  0
VPORT
  2
*ACTIVE
 70
     0
 10
0.0
 20
0.0
 11
1.0
 21
1.0
 12
-3.8328771435198661
 22
-36.3211103896458525
 13
0.0
 23
0.0
 14
1.0
 24
1.0
 15
0.0
 25
0.0
 16
0.0
 26
0.0
 36
30.6214257250603907
 17
124.6111586000725993
 27
5.3122741703778242
 37
0.0
 40
14.3460340129625408
 41
2.6486111111111108
 42
50.0
 43
0.0
 44
0.0
 50
0.0
 51
0.0
 71
     0
 72
   100
 73
     1
 74
     1
 75
     0
 76
     0
 77
     0
 78
     1
  0
ENDTAB
  0
TABLE
  2
LTYPE
 70
     2
  0
LTYPE
  2
CONTINUOUS
 70
     0
  3
Solid line
 72
    65
 73
     0
 40
0.0
  0
LTYPE
  2
PHANTOM2
 70
     0
  3
___ _ _ ___ _ _ ___ _ _ ___ _ _
 72
    65
 73
     6
 40
1.25
 49
0.625
 49
-0.125
 49
0.125
 49
-0.125
 49
0.125
 49
-0.125
  0
ENDTAB
  0
TABLE
  2
LAYER
 70
     2
  0
LAYER
  2
0
 70
     0
 62
   255
  6
CONTINUOUS
  0
LAYER
  2
DEFPOINTS
 70
     0
 62
     7
  6
CONTINUOUS
  0
ENDTAB
  0
TABLE
  2
STYLE
 70
     1
  0
STYLE
  2
STANDARD
 70
     0
 40
0.0
 41
0.8
 50
0.0
 71
     0
 42
0.2
  3
txt
  4

  0
ENDTAB
  0
TABLE
  2
VIEW
 70
     0
  0
ENDTAB
  0
TABLE
  2
UCS
 70
     0
  0
ENDTAB
  0
TABLE
  2
APPID
 70
     9
  0
APPID
  2
ACAD
 70
     0
  0
APPID
  2
ACAD_MLEADERVER
 70
     0
  0
APPID
  2
ACAD_EXEMPT_FROM_CAD_STANDARDS
 70
     0
  0
APPID
  2
ACAD_DSTYLE_DIMJAG
 70
     0
  0
APPID
  2
ACAD_DSTYLE_DIMTALN
 70
     0
  0
APPID
  2
ACAD_NAV_VCDISPLAY
 70
     0
  0
APPID
  2
ACAECLAYERSTANDARD
 70
     0
  0
APPID
  2
ACCMTRANSPARENCY
 70
     0
  0
APPID
  2
ACDBATTR
 70
     0
  0
ENDTAB
  0
TABLE
  2
DIMSTYLE
 70
     1
  0
DIMSTYLE
  2
STANDARD
 70
     0
  3

  4

  5

  6

  7

 40
1.0
 41
0.1875
 42
0.0625
 43
0.38
 44
0.125
 45
0.0
 46
0.0
 47
0.01
 48
0.01
140
0.15625
141
0.09
142
0.0
143
25.3999999999999986
144
1.0
145
0.0
146
1.0
147
0.09
 71
     1
 72
     0
 73
     1
 74
     1
 75
     0
 76
     0
 77
     0
 78
     4
170
     0
171
     2
172
     0
173
     0
174
     0
175
     0
176
     0
177
     0
178
     0
  0
ENDTAB
  0
ENDSEC
  0
SECTION
  2
BLOCKS
  0
BLOCK
  8
0
  2
$MODEL_SPACE
 70
     0
 10
0.0
 20
0.0
 30
0.0
  3
$MODEL_SPACE
  1

  0
ENDBLK
  5
21
  8
0
  0
BLOCK
 67
     1
  8
0
  2
$PAPER_SPACE
 70
     0
 10
0.0
 20
0.0
 30
0.0
  3
$PAPER_SPACE
  1

  0
ENDBLK
  5
1D
 67
     1
  8
0
  0
ENDSEC
  0
SECTION
  2
ENTITIES
  0
ATTDEF
  5
7D01
  8
DEFPOINTS
 10
120.7826529536396976
 20
-28.3747215996981303
 30
0.0
 40
0.001
  1
K-10282T-E2
  3

  2
MODELNUMBER
 70
     0
1001
ACDBATTR
1070
     0
1070
     1
  0
ATTDEF
  5
7D02
  8
DEFPOINTS
 10
120.7826529536396976
 20
-28.3763882663647884
 30
0.0
 40
0.001
  1
FINIAL
  3

  2
TRADENAME
 70
     0
1001
ACDBATTR
1070
     0
1070
     1
  0
ATTDEF
  5
7D03
  8
DEFPOINTS
 10
120.7826529536396976
 20
-28.3780549330314606
 30
0.0
 40
0.001
  1
SHOWERHEAD
  3

  2
PRODUCT
 70
     0
1001
ACDBATTR
1070
     0
1070
     1
  0
ARC
  5
A3C4
  8
0
 10
120.7687568479094011
 20
-33.1937636677050634
 30
0.0
 40
3.6589679056530442
 50
89.787373582531302
 51
114.8487335457155041
  0
ARC
  5
A3C5
  8
0
 10
120.1155114822776966
 20
-31.8802989324864505
 30
0.0
 40
2.1929737420999769
 50
113.7822029648222042
 51
153.4491866419716075
  0
ARC
  5
A3C6
  8
0
 10
119.5224466479293
 20
-31.51236125905859
 30
0.0
 40
1.499357819765748
 50
155.8971079322749063
 51
189.3313269425918008
  0
ARC
  5
A3C7
  8
0
 10
120.833503978318106
 20
-29.4982537516954508
 30
0.0
 40
4.0088047522006089
 50
248.7480439641790895
 51
269.2683819459787173
  0
ARC
  5
A3C8
  8
0
 10
120.2785892571391031
 20
-30.946338658411161
 30
0.0
 40
2.458068371931335
 50
219.7867165783189876
 51
248.5683500042852074
  0
ARC
  5
A3C9
  8
0
 10
119.6059382048006938
 20
-31.5065062369629487
 30
0.0
 40
1.582712927398888
 50
189.050403995940286
 51
219.7867165783189876
  0
ARC
  5
A3CA
  8
0
 10
120.7582415663794961
 20
-30.3697360950188404
 30
0.0
 40
2.9284524514645929
 50
239.689648933282399
 51
270.4710337254891783
  0
ARC
  5
A3CB
  8
0
 10
120.0892763345001981
 20
-31.4893015034163888
 30
0.0
 40
1.624358994808174
 50
199.8255358550653966
 51
240.1303637333766119
  0
ARC
  5
A3CC
  8
0
 10
119.6563504561307951
 20
-31.6888467540570602
 30
0.0
 40
1.150142576835917
 50
164.1849334746594025
 51
197.788209832989196
  0
ARC
  5
A3CD
  8
0
 10
120.0838853305097018
 20
-31.8790392413131904
 30
0.0
 40
1.61469642766521
 50
119.1151533850551942
 51
161.8254532193984971
  0
ARC
  5
A3CE
  8
0
 10
120.7897706440210044
 20
-33.1317174868249182
 30
0.0
 40
3.0525592813299118
 50
90.1399151124776097
 51
119.2499381596011006
  0
ARC
  5
A3CF
  8
0
 10
120.7773157295097946
 20
-29.8196378950658811
 30
0.0
 40
0.9050849519166613
 50
89.6834366297949259
 51
113.2362382353808954
  0
ARC
  5
A3D0
  8
0
 10
120.6487721364252934
 20
-29.542905629725599
 30
0.0
 40
0.6001527077762259
 50
112.3827531369040003
 51
145.9988609370045936
  0
ARC
  5
A3D1
  8
0
 10
120.4994533693783012
 20
-29.4289328028094594
 30
0.0
 40
0.4127750480255937
 50
147.5239716596202868
 51
165.1473458792501106
  0
ARC
  5
A3D2
  8
0
 10
118.5810427744409026
 20
-28.9314432771273005
 30
0.0
 40
1.569099372166384
 50
334.04330576395148
 51
345.5448750737097043
  0
ARC
  5
A3D3
  8
0
 10
120.7763193921256999
 20
-32.1023942779655727
 30
0.0
 40
0.5920916599357137
 50
89.4196724758393486
 51
117.4862292627135929
  0
ARC
  5
A3D4
  8
0
 10
120.6697649636302998
 20
-31.8975849554503093
 30
0.0
 40
0.3612222058688562
 50
117.4862292627134934
 51
159.3799793973838064
  0
ARC
  5
A3D5
  8
0
 10
120.5590324712787975
 20
-31.8359617487236903
 30
0.0
 40
0.2366202668067431
 50
163.9076402394811112
 51
208.8288214470377113
  0
ARC
  5
A3D6
  8
0
 10
120.6847152852138976
 20
-31.7540125621266291
 30
0.0
 40
0.3864039636313023
 50
210.4881821258614139
 51
248.8440987147830015
  0
ARC
  5
A3D7
  8
0
 10
120.7789004306491023
 20
-31.5507814034202916
 30
0.0
 40
0.6101018739695245
 50
247.4832149856906085
 51
270.3209467220585793
  0
ARC
  5
A3D8
  8
0
 10
120.509532684685297
 20
-32.5364659000466716
 30
0.0
 40
2.855387382700648
 50
103.3963705834205058
 51
132.531890968559992
  0
ARC
  5
A3D9
  8
0
 10
120.873726689082801
 20
-34.176714109299823
 30
0.0
 40
4.5354571387880087
 50
91.1548517123043496
 51
103.0712177884043967
  0
ARC
  5
A3DA
  8
0
 10
119.6830635582249016
 20
-31.635072148213311
 30
0.0
 40
1.632455766625065
 50
132.5430002331592902
 51
177.8202040549321907
  0
ARC
  5
A3DB
  8
0
 10
119.3826917486297958
 20
-31.6236391014120493
 30
0.0
 40
1.3318664478551281
 50
177.8202040549321907
 51
213.9408876398640871
  0
ARC
  5
A3DC
  8
0
 10
120.7809082702587062
 20
-29.0400135366949108
 30
0.0
 40
0.6613029261649827
 50
89.8780015631051157
 51
111.2201409295756065
  0
ARC
  5
A3DD
  8
0
 10
120.7156685532522999
 20
-28.8719907151854009
 30
0.0
 40
0.4810589547731818
 50
111.220140929575507
 51
134.6555212189147994
  0
ARC
  5
A3DE
  8
0
 10
120.5882970372528007
 20
-28.7441469631764583
 30
0.0
 40
0.3005967004966317
 50
134.5123596063779132
 51
175.841517289695588
  0
LINE
  5
A3DF
  8
0
 10
120.2884917222425969
 20
-28.7223490400223298
 30
0.0
 11
120.2884917222425969
 21
-29.0629251136550018
 31
0.0
  0
LINE
  5
A3E0
  8
0
 10
120.4851522731012068
 20
-28.5605176372124916
 30
0.0
 11
120.4851522730939024
 21
-28.8226001182215086
 31
0.0
  0
ARC
  5
A3E1
  8
0
 10
120.114449849730903
 20
-28.77250909284664
 30
0.0
 40
0.3740713802341502
 50
324.8314690800308995
 51
352.3045397518941968
  0
ARC
  5
A3E2
  8
0
 10
120.5367996157326047
 20
-28.7999475883216398
 30
0.0
 40
0.2449370316816345
 50
102.1727360803292015
 51
179.3642229480265939
  0
LINE
  5
A3E3
  8
0
 10
120.4851522731012068
 20
-28.5605176372124916
 30
0.0
 11
120.2918776634636941
 21
-28.7972297241173791
 31
0.0
  0
LINE
  5
A3E4
  8
0
 10
120.2918776634636941
 20
-28.7972297241173791
 30
0.0
 11
120.2918840823441968
 21
-29.0603974023291514
 31
0.0
  0
ARC
  5
A3E5
  8
0
 10
120.7958758812706037
 20
-33.1937636677050634
 30
0.0
 40
3.6589679056530442
 50
65.1512664542837427
 51
90.2126264174686838
  0
ARC
  5
A3E6
  8
0
 10
121.4491212469023935
 20
-31.8802989324864505
 30
0.0
 40
2.1929737420999769
 50
26.5508133580283392
 51
66.21779703517781
  0
ARC
  5
A3E7
  8
0
 10
122.0421860812508044
 20
-31.51236125905859
 30
0.0
 40
1.499357819765748
 50
350.6686730574082276
 51
24.1028920677251293
  0
ARC
  5
A3E8
  8
0
 10
120.775049059253206
 20
-29.724377197937951
 30
0.0
 40
3.782361472101972
 50
270.1100863001839798
 51
291.8734877896574744
  0
ARC
  5
A3E9
  8
0
 10
121.2860434720409017
 20
-30.946338658411161
 30
0.0
 40
2.458068371931335
 50
291.4316499957139968
 51
320.2132834216811261
  0
ARC
  5
A3EA
  8
0
 10
121.9586945243792968
 20
-31.5065062369629487
 30
0.0
 40
1.582712927398888
 50
320.2132834216811261
 51
350.9495960040595151
  0
ARC
  5
A3EB
  8
0
 10
120.806391162800594
 20
-30.3697360950188404
 30
0.0
 40
2.9284524514645929
 50
269.5289662745100259
 51
300.3103510667174874
  0
ARC
  5
A3EC
  8
0
 10
121.4753563946798067
 20
-31.4893015034163888
 30
0.0
 40
1.624358994808174
 50
299.869636266622706
 51
340.1744641449344044
  0
ARC
  5
A3ED
  8
0
 10
121.9082822730491955
 20
-31.6888467540570602
 30
0.0
 40
1.150142576835917
 50
342.2117901670106903
 51
15.8150665253405904
  0
ARC
  5
A3EE
  8
0
 10
121.4807473986704025
 20
-31.8790392413131904
 30
0.0
 40
1.61469642766521
 50
18.1745467806015384
 51
60.8848466149447916
  0
ARC
  5
A3EF
  8
0
 10
120.6976601179747064
 20
-33.4261000787296325
 30
0.0
 40
3.3480032344538562
 50
62.0590589045234111
 51
88.5510878233985892
  0
ARC
  5
A3F0
  8
0
 10
120.7873169996701961
 20
-29.8196378950658811
 30
0.0
 40
0.9050849519166613
 50
66.7637617646190762
 51
90.3165633702050457
  0
ARC
  5
A3F1
  8
0
 10
120.9158605927546972
 20
-29.542905629725599
 30
0.0
 40
0.6001527077762259
 50
34.0011390629953567
 51
67.617246863096014
  0
ARC
  5
A3F2
  8
0
 10
121.0651793598018031
 20
-29.4289328028094594
 30
0.0
 40
0.4127750480255937
 50
14.8526541207496603
 51
32.4760283403797274
  0
ARC
  5
A3F3
  8
0
 10
122.9835899547392017
 20
-28.9314432771273005
 30
0.0
 40
1.569099372166384
 50
194.4551249262902104
 51
205.9566942360482926
  0
ARC
  5
A3F4
  8
0
 10
120.788313337054305
 20
-32.1023942779655727
 30
0.0
 40
0.5920916599357137
 50
62.5137707372863716
 51
90.5803275241614756
  0
ARC
  5
A3F5
  8
0
 10
120.894867765549705
 20
-31.8975849554503093
 30
0.0
 40
0.3612222058688562
 50
20.6200206026161297
 51
62.5137707372863716
  0
ARC
  5
A3F6
  8
0
 10
121.0056002579013068
 20
-31.8359617487236903
 30
0.0
 40
0.2366202668067431
 50
331.1711785529623171
 51
16.0923597605189315
  0
ARC
  5
A3F7
  8
0
 10
120.8799174439662067
 20
-31.7540125621266291
 30
0.0
 40
0.3864039636313023
 50
291.1559012852169985
 51
329.5118178741386146
  0
ARC
  5
A3F8
  8
0
 10
120.7857322985309025
 20
-31.5507814034202916
 30
0.0
 40
0.6101018739695245
 50
269.679053277941307
 51
292.5167850143093915
  0
ARC
  5
A3F9
  8
0
 10
121.0551000444947931
 20
-32.5364659000466716
 30
0.0
 40
2.855387382700648
 50
47.4681090314399725
 51
76.60362941657948
  0
ARC
  5
A3FA
  8
0
 10
120.6909060400973033
 20
-34.176714109299823
 30
0.0
 40
4.5354571387880087
 50
76.9287822115963706
 51
88.8451482876964604
  0
ARC
  5
A3FB
  8
0
 10
121.8815691709552027
 20
-31.635072148213311
 30
0.0
 40
1.632455766625065
 50
2.179795945067768
 51
47.4569997668407026
  0
ARC
  5
A3FC
  8
0
 10
122.1819409805501948
 20
-31.6236391014120493
 30
0.0
 40
1.3318664478551281
 50
326.0591123601358845
 51
2.179795945067768
  0
ARC
  5
A3FD
  8
0
 10
120.7837244589213981
 20
-29.0400135366949108
 30
0.0
 40
0.6613029261649827
 50
68.7798590704235977
 51
90.1219984368948843
  0
ARC
  5
A3FE
  8
0
 10
120.8489641759278044
 20
-28.8719907151854009
 30
0.0
 40
0.4810589547731818
 50
45.3444787810852219
 51
68.7798590704244361
  0
ARC
  5
A3FF
  8
0
 10
120.9763356919273036
 20
-28.7441469631764583
 30
0.0
 40
0.3005967004966317
 50
4.1584827103044324
 51
45.487640393622037
  0
LINE
  5
A400
  8
0
 10
121.2761410069374932
 20
-28.7223490400223298
 30
0.0
 11
121.2761410069374932
 21
-29.0629251136550018
 31
0.0
  0
ARC
  5
A402
  8
0
 10
120.7766087399477044
 20
-33.327449898282083
 30
0.0
 40
3.7493473806475741
 50
89.9127553070541978
 51
107.3269380831281978
  0
ARC
  5
A403
  8
0
 10
120.4985858143427038
 20
-32.500252124827
 30
0.0
 40
2.8769483428940621
 50
106.9475981004576965
 51
129.2588916947063922
  0
ARC
  5
A404
  8
0
 10
119.8270375998684045
 20
-31.6977306598895794
 30
0.0
 40
1.830627718349598
 50
128.879551712035493
 51
160.6428042138433909
  0
ARC
  5
A405
  8
0
 10
119.3602675582590962
 20
-31.533746834331879
 30
0.0
 40
1.3358904478832381
 50
160.6428042138433909
 51
185.2293788245497126
  0
ARC
  5
A406
  8
0
 10
120.7872843043406021
 20
-33.3274509557000584
 30
0.0
 40
3.7493473806475728
 50
72.661711587236951
 51
90.0758943633107947
  0
ARC
  5
A407
  8
0
 10
121.0654710928837972
 20
-32.5003082749907009
 30
0.0
 40
2.8769483428940621
 50
50.7297579756589485
 51
73.0410515699079497
  0
ARC
  5
A408
  8
0
 10
121.7371782741823978
 20
-31.6979198599192884
 30
0.0
 40
1.830627718349598
 50
19.3458454565216194
 51
51.1090979583298335
  0
ARC
  5
A409
  8
0
 10
122.1963684663325012
 20
-31.5358138479826593
 30
0.0
 40
1.3436646429918
 50
354.8646628443220266
 51
19.3101462468781584
  0
ARC
  5
A40A
  8
0
 10
120.5849682836196024
 20
-30.4425750144696003
 30
0.0
 40
0.0208795163170247
 50
93.3370469815975241
 51
135.8231124468441919
  0
ARC
  5
A40B
  8
0
 10
120.5793321245585048
 20
-30.4370985111477808
 30
0.0
 40
0.0130208664586923
 50
135.8231124468422877
 51
170.3177093776407105
  0
ARC
  5
A40C
  8
0
 10
120.5804828434893068
 20
-30.4372948410918092
 30
0.0
 40
0.0141882136669251
 50
170.3177093776347135
 51
239.9233959392755082
  0
ARC
  5
A40D
  8
0
 10
120.5872197301538051
 20
-30.4256621565684995
 30
0.0
 40
0.0276308693252965
 50
239.9233959392728082
 51
269.0873498852171792
  0
ARC
  5
A40E
  8
0
 10
120.5870880872249984
 20
-30.4339259437305003
 30
0.0
 40
0.0193660336875146
 50
269.0873498852171792
 51
328.6199300627341131
  0
ARC
  5
A40F
  8
0
 10
120.5930064011881058
 20
-30.4375356729071491
 30
0.0
 40
0.0124337479970251
 50
328.6199300627362163
 51
41.0939130425097616
  0
ARC
  5
A410
  8
0
 10
120.5854517643461037
 20
-30.4441245894425805
 30
0.0
 40
0.0224580364468308
 50
41.0939130425089232
 51
94.3383588053239635
  0
ARC
  5
A411
  8
0
 10
120.5838232117838942
 20
-30.4431452911194
 30
0.0
 40
0.0563345438779192
 50
85.4148006329620699
 51
157.5203356221271918
  0
ARC
  5
A412
  8
0
 10
120.5697828865963999
 20
-30.4316027086407708
 30
0.0
 40
0.0393062691072688
 50
165.2653930802588889
 51
208.6488770547393869
  0
ARC
  5
A413
  8
0
 10
120.5847608274863063
 20
-30.4210537533290299
 30
0.0
 40
0.0575455985621572
 50
210.7167697712934
 51
272.3544484492562106
  0
ARC
  5
A414
  8
0
 10
120.5884095475697961
 20
-30.4223066336517682
 30
0.0
 40
0.056258808283494
 50
268.6915356913472124
 51
328.1217801360376143
  0
ARC
  5
A415
  8
0
 10
120.6016059285444015
 20
-30.4321640239164104
 30
0.0
 40
0.0398715991608819
 50
330.1360321196959831
 51
62.03309837041121
  0
ARC
  5
A416
  8
0
 10
120.5858658870490956
 20
-30.4512178228237715
 30
0.0
 40
0.0642739045012947
 50
57.6014746125756503
 51
87.805839086943763
  0
ARC
  5
A417
  8
0
 10
120.584013923605994
 20
-30.4401628550259105
 30
0.0
 40
0.0886044800564175
 50
88.5943161231071343
 51
141.3497144687364084
  0
ARC
  5
A418
  8
0
 10
120.5645265532297969
 20
-30.4196990796581801
 30
0.0
 40
0.0607240893827736
 50
144.9474613438129893
 51
238.7996856343069112
  0
ARC
  5
A419
  8
0
 10
120.5881521770762959
 20
-30.3900891494844103
 30
0.0
 40
0.0984106553289854
 50
235.9634126799149101
 51
286.0698666186505079
  0
ARC
  5
A41A
  8
0
 10
120.6006516987632011
 20
-30.416583986821891
 30
0.0
 40
0.0696483403501343
 50
282.219394984700898
 51
356.5017464874068764
  0
ARC
  5
A41B
  8
0
 10
120.5922110980057056
 20
-30.4298300378251305
 30
0.0
 40
0.0784765147087815
 50
6.5826355828603553
 51
94.4021564177029262
  0
ARC
  5
A41C
  8
0
 10
120.5836644241984033
 20
-30.4270599504514294
 30
0.0
 40
0.066910127656693
 50
90.6618320330815664
 51
141.9036086172480111
  0
ARC
  5
A41D
  8
0
 10
120.5582023424049964
 20
-30.4070977175735102
 30
0.0
 40
0.0345557098636452
 50
141.9036086172474995
 51
194.9434152272488916
  0
ARC
  5
A41E
  8
0
 10
120.6113063167877044
 20
-30.3929247460363214
 30
0.0
 40
0.0895184719616329
 50
194.9434152272488916
 51
205.4537070393168108
  0
ARC
  5
A41F
  8
0
 10
120.586846692937101
 20
-30.4353964198760387
 30
0.0
 40
0.0753460135098222
 50
54.1058216580743974
 51
93.0090118957102447
  0
ARC
  5
A420
  8
0
 10
120.6024740139570071
 20
-30.4138035038646883
 30
0.0
 40
0.0486914232084985
 50
20.0761028234346384
 51
54.105821658074511
  0
ARC
  5
A421
  8
0
 10
120.6049504985722933
 20
-30.4103991263404083
 30
0.0
 40
0.0452577210265095
 50
323.0137843649113165
 51
17.1029591936898306
  0
ARC
  5
A422
  8
0
 10
120.5335760702656955
 20
-30.7816708635292997
 30
0.0
 40
0.0208795163170247
 50
93.3370469815975241
 51
135.8231124468441919
  0
ARC
  5
A423
  8
0
 10
120.5279399112045979
 20
-30.7761943602074801
 30
0.0
 40
0.0130208664586923
 50
135.8231124468422877
 51
170.3177093776407105
  0
ARC
  5
A424
  8
0
 10
120.5290906301353999
 20
-30.7763906901515192
 30
0.0
 40
0.0141882136669251
 50
170.3177093776347135
 51
239.9233959392755082
  0
ARC
  5
A425
  8
0
 10
120.5358275167998983
 20
-30.7647580056281988
 30
0.0
 40
0.0276308693252965
 50
239.9233959392728082
 51
269.0873498852171792
  0
ARC
  5
A426
  8
0
 10
120.5356958738710063
 20
-30.7730217927901997
 30
0.0
 40
0.0193660336875146
 50
269.0873498852171792
 51
328.6199300627341131
  0
ARC
  5
A427
  8
0
 10
120.5416141878340994
 20
-30.7766315219668485
 30
0.0
 40
0.0124337479970251
 50
328.6199300627362163
 51
41.0939130425097616
  0
ARC
  5
A428
  8
0
 10
120.5340595509921968
 20
-30.7832204385022798
 30
0.0
 40
0.0224580364468308
 50
41.0939130425089232
 51
94.3383588053239635
  0
ARC
  5
A429
  8
0
 10
120.5324309984300015
 20
-30.7822411401790994
 30
0.0
 40
0.0563345438779192
 50
85.4148006329620699
 51
157.5203356221271918
  0
ARC
  5
A42A
  8
0
 10
120.518390673242493
 20
-30.7706985577004701
 30
0.0
 40
0.0393062691072688
 50
165.2653930802588889
 51
208.6488770547393869
  0
ARC
  5
A42B
  8
0
 10
120.5333686141323
 20
-30.7601496023887293
 30
0.0
 40
0.0575455985621572
 50
210.7167697712934
 51
272.3544484492562106
  0
ARC
  5
A42C
  8
0
 10
120.5370173342159035
 20
-30.7614024827114712
 30
0.0
 40
0.056258808283494
 50
268.6915356913472124
 51
328.1217801360376143
  0
ARC
  5
A42D
  8
0
 10
120.5502137151904947
 20
-30.7712598729761098
 30
0.0
 40
0.0398715991608819
 50
330.1360321196959831
 51
62.03309837041121
  0
ARC
  5
A42E
  8
0
 10
120.5344736736951035
 20
-30.7903136718834709
 30
0.0
 40
0.0642739045012947
 50
57.6014746125756503
 51
87.805839086943763
  0
ARC
  5
A42F
  8
0
 10
120.5326217102520019
 20
-30.7792587040856205
 30
0.0
 40
0.0886044800564175
 50
88.5943161231071343
 51
141.3497144687364084
  0
ARC
  5
A430
  8
0
 10
120.5131343398758048
 20
-30.7587949287178795
 30
0.0
 40
0.0607240893827736
 50
144.9474613438129893
 51
238.7996856343069112
  0
ARC
  5
A431
  8
0
 10
120.5367599637224032
 20
-30.7291849985441203
 30
0.0
 40
0.0984106553289854
 50
235.9634126799149101
 51
286.0698666186505079
  0
ARC
  5
A432
  8
0
 10
120.5492594854091948
 20
-30.7556798358815797
 30
0.0
 40
0.0696483403501343
 50
282.219394984700898
 51
356.5017464874068764
  0
ARC
  5
A433
  8
0
 10
120.5408188846517987
 20
-30.7689258868848299
 30
0.0
 40
0.0784765147087815
 50
6.5826355828603553
 51
94.4021564177029262
  0
ARC
  5
A434
  8
0
 10
120.5322722108444964
 20
-30.7661557995111394
 30
0.0
 40
0.066910127656693
 50
90.6618320330815664
 51
141.9036086172480111
  0
ARC
  5
A435
  8
0
 10
120.5068101290510043
 20
-30.7461935666331989
 30
0.0
 40
0.0345557098636452
 50
141.9036086172474995
 51
194.9434152272488916
  0
ARC
  5
A436
  8
0
 10
120.5599141034337975
 20
-30.7320205950960315
 30
0.0
 40
0.0895184719616329
 50
194.9434152272488916
 51
205.4537070393168108
  0
ARC
  5
A437
  8
0
 10
120.5354544795831941
 20
-30.7744922689357416
 30
0.0
 40
0.0753460135098222
 50
54.1058216580743974
 51
93.0090118957102447
  0
ARC
  5
A438
  8
0
 10
120.5510818006031002
 20
-30.7528993529243984
 30
0.0
 40
0.0486914232084985
 50
20.0761028234346384
 51
54.105821658074511
  0
ARC
  5
A439
  8
0
 10
120.5535582852184007
 20
-30.7494949754001112
 30
0.0
 40
0.0452577210265095
 50
323.0137843649113165
 51
17.1029591936898306
  0
ARC
  5
A43A
  8
0
 10
120.7793750335067955
 20
-31.0822661413851797
 30
0.0
 40
0.0208795163170247
 50
93.3370469815975241
 51
135.8231124468441919
  0
ARC
  5
A43B
  8
0
 10
120.7737388744456979
 20
-31.0767896380633601
 30
0.0
 40
0.0130208664586923
 50
135.8231124468422877
 51
170.3177093776407105
  0
ARC
  5
A43C
  8
0
 10
120.7748895933764999
 20
-31.0769859680073992
 30
0.0
 40
0.0141882136669251
 50
170.3177093776347135
 51
239.9233959392755082
  0
ARC
  5
A43D
  8
0
 10
120.7816264800409982
 20
-31.0653532834840789
 30
0.0
 40
0.0276308693252965
 50
239.9233959392728082
 51
269.0873498852171792
  0
ARC
  5
A43E
  8
0
 10
120.7814948371122057
 20
-31.0736170706460797
 30
0.0
 40
0.0193660336875146
 50
269.0873498852171792
 51
328.6199300627341131
  0
ARC
  5
A43F
  8
0
 10
120.7874131510751994
 20
-31.0772267998227285
 30
0.0
 40
0.0124337479970251
 50
328.6199300627362163
 51
41.0939130425097616
  0
ARC
  5
A440
  8
0
 10
120.7798585142332968
 20
-31.0838157163581599
 30
0.0
 40
0.0224580364468308
 50
41.0939130425089232
 51
94.3383588053239635
  0
ARC
  5
A441
  8
0
 10
120.7782299616711015
 20
-31.0828364180349794
 30
0.0
 40
0.0563345438779192
 50
85.4148006329620699
 51
157.5203356221271918
  0
ARC
  5
A442
  8
0
 10
120.7641896364837066
 20
-31.0712938355563502
 30
0.0
 40
0.0393062691072688
 50
165.2653930802588889
 51
208.6488770547393869
  0
ARC
  5
A443
  8
0
 10
120.7791675773734994
 20
-31.0607448802446093
 30
0.0
 40
0.0575455985621572
 50
210.7167697712934
 51
272.3544484492562106
  0
ARC
  5
A444
  8
0
 10
120.7828162974570034
 20
-31.0619977605673512
 30
0.0
 40
0.056258808283494
 50
268.6915356913472124
 51
328.1217801360376143
  0
ARC
  5
A445
  8
0
 10
120.7960126784315946
 20
-31.0718551508319898
 30
0.0
 40
0.0398715991608819
 50
330.1360321196959831
 51
62.03309837041121
  0
ARC
  5
A446
  8
0
 10
120.7802726369362034
 20
-31.0909089497393509
 30
0.0
 40
0.0642739045012947
 50
57.6014746125756503
 51
87.805839086943763
  0
ARC
  5
A447
  8
0
 10
120.7784206734932013
 20
-31.0798539819414898
 30
0.0
 40
0.0886044800564175
 50
88.5943161231071343
 51
141.3497144687364084
  0
ARC
  5
A448
  8
0
 10
120.7589333031169048
 20
-31.0593902065737595
 30
0.0
 40
0.0607240893827736
 50
144.9474613438129893
 51
238.7996856343069112
  0
ARC
  5
A449
  8
0
 10
120.7825589269635032
 20
-31.0297802763999897
 30
0.0
 40
0.0984106553289854
 50
235.9634126799149101
 51
286.0698666186505079
  0
ARC
  5
A44A
  8
0
 10
120.7950584486502947
 20
-31.0562751137374597
 30
0.0
 40
0.0696483403501343
 50
282.219394984700898
 51
356.5017464874068764
  0
ARC
  5
A44B
  8
0
 10
120.7866178478928987
 20
-31.0695211647407099
 30
0.0
 40
0.0784765147087815
 50
6.5826355828603553
 51
94.4021564177029262
  0
ARC
  5
A44C
  8
0
 10
120.7780711740855963
 20
-31.0667510773670088
 30
0.0
 40
0.066910127656693
 50
90.6618320330815664
 51
141.9036086172480111
  0
ARC
  5
A44D
  8
0
 10
120.7526090922922037
 20
-31.0467888444890896
 30
0.0
 40
0.0345557098636452
 50
141.9036086172474995
 51
194.9434152272488916
  0
ARC
  5
A44E
  8
0
 10
120.805713066674997
 20
-31.0326158729519008
 30
0.0
 40
0.0895184719616329
 50
194.9434152272488916
 51
205.4537070393168108
  0
ARC
  5
A44F
  8
0
 10
120.7812534428242941
 20
-31.0750875467916217
 30
0.0
 40
0.0753460135098222
 50
54.1058216580743974
 51
93.0090118957102447
  0
ARC
  5
A450
  8
0
 10
120.7968807638442001
 20
-31.0534946307802713
 30
0.0
 40
0.0486914232084985
 50
20.0761028234346384
 51
54.105821658074511
  0
ARC
  5
A451
  8
0
 10
120.7993572484595006
 20
-31.0500902532559806
 30
0.0
 40
0.0452577210265095
 50
323.0137843649113165
 51
17.1029591936898306
  0
ARC
  5
A452
  8
0
 10
120.1899788875370945
 20
-30.5002152538777516
 30
0.0
 40
0.0208795163170247
 50
93.3370469815975241
 51
135.8231124468441919
  0
ARC
  5
A453
  8
0
 10
120.1843427284759969
 20
-30.4947387505559284
 30
0.0
 40
0.0130208664586923
 50
135.8231124468422877
 51
170.3177093776407105
  0
ARC
  5
A454
  8
0
 10
120.1854934474066994
 20
-30.494935080499971
 30
0.0
 40
0.0141882136669251
 50
170.3177093776347135
 51
239.9233959392755082
  0
ARC
  5
A455
  8
0
 10
120.1922303340712972
 20
-30.4833023959766507
 30
0.0
 40
0.0276308693252965
 50
239.9233959392728082
 51
269.0873498852171792
  0
ARC
  5
A456
  8
0
 10
120.1920986911424052
 20
-30.4915661831386515
 30
0.0
 40
0.0193660336875146
 50
269.0873498852171792
 51
328.6199300627341131
  0
ARC
  5
A457
  8
0
 10
120.1980170051054984
 20
-30.4951759123153003
 30
0.0
 40
0.0124337479970251
 50
328.6199300627362163
 51
41.0939130425097616
  0
ARC
  5
A458
  8
0
 10
120.1904623682634963
 20
-30.5017648288507317
 30
0.0
 40
0.0224580364468308
 50
41.0939130425089232
 51
94.3383588053239635
  0
ARC
  5
A459
  8
0
 10
120.1888338157014005
 20
-30.5007855305275513
 30
0.0
 40
0.0563345438779192
 50
85.4148006329620699
 51
157.5203356221271918
  0
ARC
  5
A45A
  8
0
 10
120.1747934905139061
 20
-30.4892429480489184
 30
0.0
 40
0.0393062691072688
 50
165.2653930802588889
 51
208.6488770547393869
  0
ARC
  5
A45B
  8
0
 10
120.1897714314036989
 20
-30.4786939927371812
 30
0.0
 40
0.0575455985621572
 50
210.7167697712934
 51
272.3544484492562106
  0
ARC
  5
A45C
  8
0
 10
120.1934201514873024
 20
-30.4799468730599195
 30
0.0
 40
0.056258808283494
 50
268.6915356913472124
 51
328.1217801360376143
  0
ARC
  5
A45D
  8
0
 10
120.2066165324618936
 20
-30.4898042633245616
 30
0.0
 40
0.0398715991608819
 50
330.1360321196959831
 51
62.03309837041121
  0
ARC
  5
A45E
  8
0
 10
120.1908764909665024
 20
-30.5088580622319192
 30
0.0
 40
0.0642739045012947
 50
57.6014746125756503
 51
87.805839086943763
  0
ARC
  5
A45F
  8
0
 10
120.1890245275234008
 20
-30.4978030944340617
 30
0.0
 40
0.0886044800564175
 50
88.5943161231071343
 51
141.3497144687364084
  0
ARC
  5
A460
  8
0
 10
120.1695371571472037
 20
-30.4773393190663313
 30
0.0
 40
0.0607240893827736
 50
144.9474613438129893
 51
238.7996856343069112
  0
ARC
  5
A461
  8
0
 10
120.1931627809938021
 20
-30.4477293888925615
 30
0.0
 40
0.0984106553289854
 50
235.9634126799149101
 51
286.0698666186505079
  0
ARC
  5
A462
  8
0
 10
120.2056623026805937
 20
-30.4742242262300316
 30
0.0
 40
0.0696483403501343
 50
282.219394984700898
 51
356.5017464874068764
  0
ARC
  5
A463
  8
0
 10
120.1972217019231977
 20
-30.4874702772332817
 30
0.0
 40
0.0784765147087815
 50
6.5826355828603553
 51
94.4021564177029262
  0
ARC
  5
A464
  8
0
 10
120.1886750281157958
 20
-30.4847001898595913
 30
0.0
 40
0.066910127656693
 50
90.6618320330815664
 51
141.9036086172480111
  0
ARC
  5
A465
  8
0
 10
120.1632129463224032
 20
-30.4647379569816508
 30
0.0
 40
0.0345557098636452
 50
141.9036086172474995
 51
194.9434152272488916
  0
ARC
  5
A466
  8
0
 10
120.2163169207051965
 20
-30.4505649854444798
 30
0.0
 40
0.0895184719616329
 50
194.9434152272488916
 51
205.4537070393168108
  0
ARC
  5
A467
  8
0
 10
120.1918572968545931
 20
-30.4930366592841899
 30
0.0
 40
0.0753460135098222
 50
54.1058216580743974
 51
93.0090118957102447
  0
ARC
  5
A468
  8
0
 10
120.2074846178744991
 20
-30.4714437432728502
 30
0.0
 40
0.0486914232084985
 50
20.0761028234346384
 51
54.105821658074511
  0
ARC
  5
A469
  8
0
 10
120.2099611024897996
 20
-30.4680393657485595
 30
0.0
 40
0.0452577210265095
 50
323.0137843649113165
 51
17.1029591936898306
  0
ARC
  5
A46A
  8
0
 10
119.8407561870371012
 20
-30.6109454296777486
 30
0.0
 40
0.0208795163170247
 50
93.3370469815975241
 51
135.8231124468441919
  0
ARC
  5
A46B
  8
0
 10
119.8351200279760036
 20
-30.605468926355929
 30
0.0
 40
0.0130208664586923
 50
135.8231124468422877
 51
170.3177093776407105
  0
ARC
  5
A46C
  8
0
 10
119.8362707469067061
 20
-30.6056652562999609
 30
0.0
 40
0.0141882136669251
 50
170.3177093776347135
 51
239.9233959392755082
  0
ARC
  5
A46D
  8
0
 10
119.8430076335713039
 20
-30.5940325717766513
 30
0.0
 40
0.0276308693252965
 50
239.9233959392728082
 51
269.0873498852171792
  0
ARC
  5
A46E
  8
0
 10
119.8428759906423977
 20
-30.6022963589386485
 30
0.0
 40
0.0193660336875146
 50
269.0873498852171792
 51
328.6199300627341131
  0
ARC
  5
A46F
  8
0
 10
119.8487943046055051
 20
-30.6059060881153009
 30
0.0
 40
0.0124337479970251
 50
328.6199300627362163
 51
41.0939130425097616
  0
ARC
  5
A470
  8
0
 10
119.841239667763503
 20
-30.6124950046507287
 30
0.0
 40
0.0224580364468308
 50
41.0939130425089232
 51
94.3383588053239635
  0
ARC
  5
A471
  8
0
 10
119.839611115201393
 20
-30.6115157063275483
 30
0.0
 40
0.0563345438779192
 50
85.4148006329620699
 51
157.5203356221271918
  0
ARC
  5
A472
  8
0
 10
119.8255707900138987
 20
-30.599973123848919
 30
0.0
 40
0.0393062691072688
 50
165.2653930802588889
 51
208.6488770547393869
  0
ARC
  5
A473
  8
0
 10
119.8405487309037056
 20
-30.5894241685371817
 30
0.0
 40
0.0575455985621572
 50
210.7167697712934
 51
272.3544484492562106
  0
ARC
  5
A474
  8
0
 10
119.8441974509872949
 20
-30.59067704885992
 30
0.0
 40
0.056258808283494
 50
268.6915356913472124
 51
328.1217801360376143
  0
ARC
  5
A475
  8
0
 10
119.8573938319619003
 20
-30.6005344391245586
 30
0.0
 40
0.0398715991608819
 50
330.1360321196959831
 51
62.03309837041121
  0
ARC
  5
A476
  8
0
 10
119.8416537904664949
 20
-30.6195882380319198
 30
0.0
 40
0.0642739045012947
 50
57.6014746125756503
 51
87.805839086943763
  0
ARC
  5
A477
  8
0
 10
119.8398018270233933
 20
-30.6085332702340587
 30
0.0
 40
0.0886044800564175
 50
88.5943161231071343
 51
141.3497144687364084
  0
ARC
  5
A478
  8
0
 10
119.8203144566471963
 20
-30.5880694948663283
 30
0.0
 40
0.0607240893827736
 50
144.9474613438129893
 51
238.7996856343069112
  0
ARC
  5
A479
  8
0
 10
119.8439400804937947
 20
-30.5584595646925585
 30
0.0
 40
0.0984106553289854
 50
235.9634126799149101
 51
286.0698666186505079
  0
ARC
  5
A47A
  8
0
 10
119.8564396021806004
 20
-30.5849544020300392
 30
0.0
 40
0.0696483403501343
 50
282.219394984700898
 51
356.5017464874068764
  0
ARC
  5
A47B
  8
0
 10
119.8479990014232044
 20
-30.5982004530332787
 30
0.0
 40
0.0784765147087815
 50
6.5826355828603553
 51
94.4021564177029262
  0
ARC
  5
A47C
  8
0
 10
119.8394523276158026
 20
-30.5954303656595883
 30
0.0
 40
0.066910127656693
 50
90.6618320330815664
 51
141.9036086172480111
  0
ARC
  5
A47D
  8
0
 10
119.8139902458223958
 20
-30.5754681327816513
 30
0.0
 40
0.0345557098636452
 50
141.9036086172474995
 51
194.9434152272488916
  0
ARC
  5
A47E
  8
0
 10
119.8670942202052032
 20
-30.5612951612444697
 30
0.0
 40
0.0895184719616329
 50
194.9434152272488916
 51
205.4537070393168108
  0
ARC
  5
A47F
  8
0
 10
119.8426345963545998
 20
-30.6037668350841905
 30
0.0
 40
0.0753460135098222
 50
54.1058216580743974
 51
93.0090118957102447
  0
ARC
  5
A480
  8
0
 10
119.8582619173745059
 20
-30.5821739190728401
 30
0.0
 40
0.0486914232084985
 50
20.0761028234346384
 51
54.105821658074511
  0
ARC
  5
A481
  8
0
 10
119.8607384019898063
 20
-30.5787695415485601
 30
0.0
 40
0.0452577210265095
 50
323.0137843649113165
 51
17.1029591936898306
  0
ARC
  5
A482
  8
0
 10
120.0461688366370936
 20
-30.9031887914777492
 30
0.0
 40
0.0208795163170247
 50
93.3370469815975241
 51
135.8231124468441919
  0
ARC
  5
A483
  8
0
 10
120.040532677575996
 20
-30.8977122881559296
 30
0.0
 40
0.0130208664586923
 50
135.8231124468422877
 51
170.3177093776407105
  0
ARC
  5
A484
  8
0
 10
120.041683396506798
 20
-30.8979086180999616
 30
0.0
 40
0.0141882136669251
 50
170.3177093776347135
 51
239.9233959392755082
  0
ARC
  5
A485
  8
0
 10
120.0484202831712963
 20
-30.8862759335766484
 30
0.0
 40
0.0276308693252965
 50
239.9233959392728082
 51
269.0873498852171792
  0
ARC
  5
A486
  8
0
 10
120.0482886402424043
 20
-30.8945397207386492
 30
0.0
 40
0.0193660336875146
 50
269.0873498852171792
 51
328.6199300627341131
  0
ARC
  5
A487
  8
0
 10
120.0542069542054975
 20
-30.8981494499152909
 30
0.0
 40
0.0124337479970251
 50
328.6199300627362163
 51
41.0939130425097616
  0
ARC
  5
A488
  8
0
 10
120.0466523173634954
 20
-30.9047383664507294
 30
0.0
 40
0.0224580364468308
 50
41.0939130425089232
 51
94.3383588053239635
  0
ARC
  5
A489
  8
0
 10
120.0450237648013996
 20
-30.9037590681275383
 30
0.0
 40
0.0563345438779192
 50
85.4148006329620699
 51
157.5203356221271918
  0
ARC
  5
A48A
  8
0
 10
120.0309834396139053
 20
-30.8922164856489196
 30
0.0
 40
0.0393062691072688
 50
165.2653930802588889
 51
208.6488770547393869
  0
ARC
  5
A48B
  8
0
 10
120.045961380503698
 20
-30.8816675303371788
 30
0.0
 40
0.0575455985621572
 50
210.7167697712934
 51
272.3544484492562106
  0
ARC
  5
A48C
  8
0
 10
120.0496101005873015
 20
-30.88292041065991
 30
0.0
 40
0.056258808283494
 50
268.6915356913472124
 51
328.1217801360376143
  0
ARC
  5
A48D
  8
0
 10
120.0628064815619069
 20
-30.8927778009245593
 30
0.0
 40
0.0398715991608819
 50
330.1360321196959831
 51
62.03309837041121
  0
ARC
  5
A48E
  8
0
 10
120.0470664400665015
 20
-30.9118315998319204
 30
0.0
 40
0.0642739045012947
 50
57.6014746125756503
 51
87.805839086943763
  0
ARC
  5
A48F
  8
0
 10
120.0452144766233999
 20
-30.9007766320340593
 30
0.0
 40
0.0886044800564175
 50
88.5943161231071343
 51
141.3497144687364084
  0
ARC
  5
A490
  8
0
 10
120.0257271062472029
 20
-30.880312856666329
 30
0.0
 40
0.0607240893827736
 50
144.9474613438129893
 51
238.7996856343069112
  0
ARC
  5
A491
  8
0
 10
120.0493527300938013
 20
-30.8507029264925592
 30
0.0
 40
0.0984106553289854
 50
235.9634126799149101
 51
286.0698666186505079
  0
ARC
  5
A492
  8
0
 10
120.061852251780607
 20
-30.8771977638300292
 30
0.0
 40
0.0696483403501343
 50
282.219394984700898
 51
356.5017464874068764
  0
ARC
  5
A493
  8
0
 10
120.0534116510231968
 20
-30.8904438148332794
 30
0.0
 40
0.0784765147087815
 50
6.5826355828603553
 51
94.4021564177029262
  0
ARC
  5
A494
  8
0
 10
120.044864977215795
 20
-30.8876737274595889
 30
0.0
 40
0.066910127656693
 50
90.6618320330815664
 51
141.9036086172480111
  0
ARC
  5
A495
  8
0
 10
120.0194028954224024
 20
-30.8677114945816484
 30
0.0
 40
0.0345557098636452
 50
141.9036086172474995
 51
194.9434152272488916
  0
ARC
  5
A496
  8
0
 10
120.0725068698051956
 20
-30.8535385230444703
 30
0.0
 40
0.0895184719616329
 50
194.9434152272488916
 51
205.4537070393168108
  0
ARC
  5
A497
  8
0
 10
120.0480472459546064
 20
-30.8960101968841911
 30
0.0
 40
0.0753460135098222
 50
54.1058216580743974
 51
93.0090118957102447
  0
ARC
  5
A498
  8
0
 10
120.0636745669744982
 20
-30.8744172808728408
 30
0.0
 40
0.0486914232084985
 50
20.0761028234346384
 51
54.105821658074511
  0
ARC
  5
A499
  8
0
 10
120.0661510515897987
 20
-30.8710129033485607
 30
0.0
 40
0.0452577210265095
 50
323.0137843649113165
 51
17.1029591936898306
  0
ARC
  5
A49A
  8
0
 10
120.2497601914370051
 20
-31.1811293145777491
 30
0.0
 40
0.0208795163170247
 50
93.3370469815975241
 51
135.8231124468441919
  0
ARC
  5
A49B
  8
0
 10
120.244124032376007
 20
-31.1756528112559295
 30
0.0
 40
0.0130208664586923
 50
135.8231124468422877
 51
170.3177093776407105
  0
ARC
  5
A49C
  8
0
 10
120.2452747513066953
 20
-31.1758491411999614
 30
0.0
 40
0.0141882136669251
 50
170.3177093776347135
 51
239.9233959392755082
  0
ARC
  5
A49D
  8
0
 10
120.2520116379712931
 20
-31.1642164566766517
 30
0.0
 40
0.0276308693252965
 50
239.9233959392728082
 51
269.0873498852171792
  0
ARC
  5
A49E
  8
0
 10
120.2518799950424011
 20
-31.172480243838649
 30
0.0
 40
0.0193660336875146
 50
269.0873498852171792
 51
328.6199300627341131
  0
ARC
  5
A49F
  8
0
 10
120.2577983090054943
 20
-31.1760899730152907
 30
0.0
 40
0.0124337479970251
 50
328.6199300627362163
 51
41.0939130425097616
  0
ARC
  5
A4A0
  8
0
 10
120.2502436721635064
 20
-31.1826788895507292
 30
0.0
 40
0.0224580364468308
 50
41.0939130425089232
 51
94.3383588053239635
  0
ARC
  5
A4A1
  8
0
 10
120.2486151196013964
 20
-31.1816995912275416
 30
0.0
 40
0.0563345438779192
 50
85.4148006329620699
 51
157.5203356221271918
  0
ARC
  5
A4A2
  8
0
 10
120.2345747944139021
 20
-31.1701570087489195
 30
0.0
 40
0.0393062691072688
 50
165.2653930802588889
 51
208.6488770547393869
  0
ARC
  5
A4A3
  8
0
 10
120.2495527353036948
 20
-31.1596080534371787
 30
0.0
 40
0.0575455985621572
 50
210.7167697712934
 51
272.3544484492562106
  0
ARC
  5
A4A4
  8
0
 10
120.2532014553872983
 20
-31.1608609337599098
 30
0.0
 40
0.056258808283494
 50
268.6915356913472124
 51
328.1217801360376143
  0
ARC
  5
A4A5
  8
0
 10
120.2663978363619037
 20
-31.1707183240245591
 30
0.0
 40
0.0398715991608819
 50
330.1360321196959831
 51
62.03309837041121
  0
ARC
  5
A4A6
  8
0
 10
120.2506577948664983
 20
-31.1897721229319203
 30
0.0
 40
0.0642739045012947
 50
57.6014746125756503
 51
87.805839086943763
  0
ARC
  5
A4A7
  8
0
 10
120.2488058314233967
 20
-31.1787171551340592
 30
0.0
 40
0.0886044800564175
 50
88.5943161231071343
 51
141.3497144687364084
  0
ARC
  5
A4A8
  8
0
 10
120.2293184610471997
 20
-31.1582533797663288
 30
0.0
 40
0.0607240893827736
 50
144.9474613438129893
 51
238.7996856343069112
  0
ARC
  5
A4A9
  8
0
 10
120.252944084893798
 20
-31.128643449592559
 30
0.0
 40
0.0984106553289854
 50
235.9634126799149101
 51
286.0698666186505079
  0
ARC
  5
A4AA
  8
0
 10
120.2654436065806038
 20
-31.1551382869300291
 30
0.0
 40
0.0696483403501343
 50
282.219394984700898
 51
356.5017464874068764
  0
ARC
  5
A4AB
  8
0
 10
120.2570030058231936
 20
-31.1683843379332792
 30
0.0
 40
0.0784765147087815
 50
6.5826355828603553
 51
94.4021564177029262
  0
ARC
  5
A4AC
  8
0
 10
120.248456332015806
 20
-31.1656142505595888
 30
0.0
 40
0.066910127656693
 50
90.6618320330815664
 51
141.9036086172480111
  0
ARC
  5
A4AD
  8
0
 10
120.2229942502223992
 20
-31.1456520176816483
 30
0.0
 40
0.0345557098636452
 50
141.9036086172474995
 51
194.9434152272488916
  0
ARC
  5
A4AE
  8
0
 10
120.2760982246052066
 20
-31.1314790461444701
 30
0.0
 40
0.0895184719616329
 50
194.9434152272488916
 51
205.4537070393168108
  0
ARC
  5
A4AF
  8
0
 10
120.2516386007546032
 20
-31.173950719984191
 30
0.0
 40
0.0753460135098222
 50
54.1058216580743974
 51
93.0090118957102447
  0
ARC
  5
A4B0
  8
0
 10
120.267265921774495
 20
-31.1523578039728513
 30
0.0
 40
0.0486914232084985
 50
20.0761028234346384
 51
54.105821658074511
  0
ARC
  5
A4B1
  8
0
 10
120.2697424063897955
 20
-31.1489534264485606
 30
0.0
 40
0.0452577210265095
 50
323.0137843649113165
 51
17.1029591936898306
  0
ARC
  5
A4B2
  8
0
 10
120.4613748431672064
 20
-31.4628759017352309
 30
0.0
 40
0.0208795163170247
 50
93.3370469815975241
 51
135.8231124468441919
  0
ARC
  5
A4B3
  8
0
 10
120.4557386841060946
 20
-31.4573993984134113
 30
0.0
 40
0.0130208664586923
 50
135.8231124468422877
 51
170.3177093776407105
  0
ARC
  5
A4B4
  8
0
 10
120.4568894030368966
 20
-31.4575957283574503
 30
0.0
 40
0.0141882136669251
 50
170.3177093776347135
 51
239.9233959392755082
  0
ARC
  5
A4B5
  8
0
 10
120.463626289701395
 20
-31.44596304383413
 30
0.0
 40
0.0276308693252965
 50
239.9233959392728082
 51
269.0873498852171792
  0
ARC
  5
A4B6
  8
0
 10
120.463494646772503
 20
-31.4542268309961308
 30
0.0
 40
0.0193660336875146
 50
269.0873498852171792
 51
328.6199300627341131
  0
ARC
  5
A4B7
  8
0
 10
120.4694129607356956
 20
-31.4578365601727796
 30
0.0
 40
0.0124337479970251
 50
328.6199300627362163
 51
41.0939130425097616
  0
ARC
  5
A4B8
  8
0
 10
120.4618583238936935
 20
-31.464425476708211
 30
0.0
 40
0.0224580364468308
 50
41.0939130425089232
 51
94.3383588053239635
  0
ARC
  5
A4B9
  8
0
 10
120.4602297713314982
 20
-31.4634461783850305
 30
0.0
 40
0.0563345438779192
 50
85.4148006329620699
 51
157.5203356221271918
  0
ARC
  5
A4BA
  8
0
 10
120.4461894461441034
 20
-31.4519035959064013
 30
0.0
 40
0.0393062691072688
 50
165.2653930802588889
 51
208.6488770547393869
  0
ARC
  5
A4BB
  8
0
 10
120.4611673870338961
 20
-31.4413546405946605
 30
0.0
 40
0.0575455985621572
 50
210.7167697712934
 51
272.3544484492562106
  0
ARC
  5
A4BC
  8
0
 10
120.4648161071174002
 20
-31.4426075209173987
 30
0.0
 40
0.056258808283494
 50
268.6915356913472124
 51
328.1217801360376143
  0
ARC
  5
A4BD
  8
0
 10
120.4780124880921051
 20
-31.4524649111820409
 30
0.0
 40
0.0398715991608819
 50
330.1360321196959831
 51
62.03309837041121
  0
ARC
  5
A4BE
  8
0
 10
120.4622724465966996
 20
-31.4715187100894092
 30
0.0
 40
0.0642739045012947
 50
57.6014746125756503
 51
87.805839086943763
  0
ARC
  5
A4BF
  8
0
 10
120.4604204831535981
 20
-31.460463742291541
 30
0.0
 40
0.0886044800564175
 50
88.5943161231071343
 51
141.3497144687364084
  0
ARC
  5
A4C0
  8
0
 10
120.440933112777401
 20
-31.4399999669238106
 30
0.0
 40
0.0607240893827736
 50
144.9474613438129893
 51
238.7996856343069112
  0
ARC
  5
A4C1
  8
0
 10
120.4645587366239994
 20
-31.4103900367500408
 30
0.0
 40
0.0984106553289854
 50
235.9634126799149101
 51
286.0698666186505079
  0
ARC
  5
A4C2
  8
0
 10
120.4770582583108052
 20
-31.4368848740875215
 30
0.0
 40
0.0696483403501343
 50
282.219394984700898
 51
356.5017464874068764
  0
ARC
  5
A4C3
  8
0
 10
120.4686176575532954
 20
-31.450130925090761
 30
0.0
 40
0.0784765147087815
 50
6.5826355828603553
 51
94.4021564177029262
  0
ARC
  5
A4C4
  8
0
 10
120.4600709837459931
 20
-31.4473608377170706
 30
0.0
 40
0.066910127656693
 50
90.6618320330815664
 51
141.9036086172480111
  0
ARC
  5
A4C5
  8
0
 10
120.4346089019526005
 20
-31.4273986048391407
 30
0.0
 40
0.0345557098636452
 50
141.9036086172474995
 51
194.9434152272488916
  0
ARC
  5
A4C6
  8
0
 10
120.4877128763352943
 20
-31.413225633301959
 30
0.0
 40
0.0895184719616329
 50
194.9434152272488916
 51
205.4537070393168108
  0
ARC
  5
A4C7
  8
0
 10
120.4632532524847051
 20
-31.4556973071416692
 30
0.0
 40
0.0753460135098222
 50
54.1058216580743974
 51
93.0090118957102447
  0
ARC
  5
A4C8
  8
0
 10
120.4788805735045969
 20
-31.4341043911303295
 30
0.0
 40
0.0486914232084985
 50
20.0761028234346384
 51
54.105821658074511
  0
ARC
  5
A4C9
  8
0
 10
120.4813570581198974
 20
-31.4307000136060388
 30
0.0
 40
0.0452577210265095
 50
323.0137843649113165
 51
17.1029591936898306
  0
ARC
  5
A4CA
  8
0
 10
119.8632092190300966
 20
-31.4513634989365407
 30
0.0
 40
0.0208795163170247
 50
93.3370469815975241
 51
135.8231124468441919
  0
ARC
  5
A4CB
  8
0
 10
119.857573059968999
 20
-31.4458869956147318
 30
0.0
 40
0.0130208664586923
 50
135.8231124468422877
 51
170.3177093776407105
  0
ARC
  5
A4CC
  8
0
 10
119.858723778899801
 20
-31.4460833255587602
 30
0.0
 40
0.0141882136669251
 50
170.3177093776347135
 51
239.9233959392755082
  0
ARC
  5
A4CD
  8
0
 10
119.8654606655642993
 20
-31.4344506410354505
 30
0.0
 40
0.0276308693252965
 50
239.9233959392728082
 51
269.0873498852171792
  0
ARC
  5
A4CE
  8
0
 10
119.8653290226353931
 20
-31.4427144281974513
 30
0.0
 40
0.0193660336875146
 50
269.0873498852171792
 51
328.6199300627341131
  0
ARC
  5
A4CF
  8
0
 10
119.8712473365985005
 20
-31.4463241573740895
 30
0.0
 40
0.0124337479970251
 50
328.6199300627362163
 51
41.0939130425097616
  0
ARC
  5
A4D0
  8
0
 10
119.8636926997564984
 20
-31.4529130739095315
 30
0.0
 40
0.0224580364468308
 50
41.0939130425089232
 51
94.3383588053239635
  0
ARC
  5
A4D1
  8
0
 10
119.8620641471944026
 20
-31.4519337755863404
 30
0.0
 40
0.0563345438779192
 50
85.4148006329620699
 51
157.5203356221271918
  0
ARC
  5
A4D2
  8
0
 10
119.8480238220068941
 20
-31.4403911931077182
 30
0.0
 40
0.0393062691072688
 50
165.2653930802588889
 51
208.6488770547393869
  0
ARC
  5
A4D3
  8
0
 10
119.8630017628967011
 20
-31.429842237795981
 30
0.0
 40
0.0575455985621572
 50
210.7167697712934
 51
272.3544484492562106
  0
ARC
  5
A4D4
  8
0
 10
119.8666504829803046
 20
-31.4310951181187086
 30
0.0
 40
0.056258808283494
 50
268.6915356913472124
 51
328.1217801360376143
  0
ARC
  5
A4D5
  8
0
 10
119.8798468639548958
 20
-31.4409525083833614
 30
0.0
 40
0.0398715991608819
 50
330.1360321196959831
 51
62.03309837041121
  0
ARC
  5
A4D6
  8
0
 10
119.8641068224595045
 20
-31.4600063072907083
 30
0.0
 40
0.0642739045012947
 50
57.6014746125756503
 51
87.805839086943763
  0
ARC
  5
A4D7
  8
0
 10
119.862254859016403
 20
-31.4489513394928615
 30
0.0
 40
0.0886044800564175
 50
88.5943161231071343
 51
141.3497144687364084
  0
ARC
  5
A4D8
  8
0
 10
119.8427674886402059
 20
-31.4284875641251311
 30
0.0
 40
0.0607240893827736
 50
144.9474613438129893
 51
238.7996856343069112
  0
ARC
  5
A4D9
  8
0
 10
119.8663931124868043
 20
-31.3988776339513613
 30
0.0
 40
0.0984106553289854
 50
235.9634126799149101
 51
286.0698666186505079
  0
ARC
  5
A4DA
  8
0
 10
119.8788926341735959
 20
-31.4253724712888314
 30
0.0
 40
0.0696483403501343
 50
282.219394984700898
 51
356.5017464874068764
  0
ARC
  5
A4DB
  8
0
 10
119.8704520334161998
 20
-31.4386185222920709
 30
0.0
 40
0.0784765147087815
 50
6.5826355828603553
 51
94.4021564177029262
  0
ARC
  5
A4DC
  8
0
 10
119.8619053596088975
 20
-31.4358484349183804
 30
0.0
 40
0.066910127656693
 50
90.6618320330815664
 51
141.9036086172480111
  0
ARC
  5
A4DD
  8
0
 10
119.8364432778154054
 20
-31.4158862020404506
 30
0.0
 40
0.0345557098636452
 50
141.9036086172474995
 51
194.9434152272488916
  0
ARC
  5
A4DE
  8
0
 10
119.8895472521981986
 20
-31.4017132305032689
 30
0.0
 40
0.0895184719616329
 50
194.9434152272488916
 51
205.4537070393168108
  0
ARC
  5
A4DF
  8
0
 10
119.8650876283475952
 20
-31.4441849043429897
 30
0.0
 40
0.0753460135098222
 50
54.1058216580743974
 51
93.0090118957102447
  0
ARC
  5
A4E0
  8
0
 10
119.8807149493675013
 20
-31.4225919883316394
 30
0.0
 40
0.0486914232084985
 50
20.0761028234346384
 51
54.105821658074511
  0
ARC
  5
A4E1
  8
0
 10
119.8831914339828018
 20
-31.4191876108073593
 30
0.0
 40
0.0452577210265095
 50
323.0137843649113165
 51
17.1029591936898306
  0
ARC
  5
A4E2
  8
0
 10
119.666729414637004
 20
-31.1321865292777495
 30
0.0
 40
0.0208795163170247
 50
93.3370469815975241
 51
135.8231124468441919
  0
ARC
  5
A4E3
  8
0
 10
119.6610932555760058
 20
-31.12671002595593
 30
0.0
 40
0.0130208664586923
 50
135.8231124468422877
 51
170.3177093776407105
  0
ARC
  5
A4E4
  8
0
 10
119.6622439745066941
 20
-31.1269063558999584
 30
0.0
 40
0.0141882136669251
 50
170.3177093776347135
 51
239.9233959392755082
  0
ARC
  5
A4E5
  8
0
 10
119.6689808611713062
 20
-31.1152736713766487
 30
0.0
 40
0.0276308693252965
 50
239.9233959392728082
 51
269.0873498852171792
  0
ARC
  5
A4E6
  8
0
 10
119.6688492182424
 20
-31.1235374585386495
 30
0.0
 40
0.0193660336875146
 50
269.0873498852171792
 51
328.6199300627341131
  0
ARC
  5
A4E7
  8
0
 10
119.6747675322054931
 20
-31.1271471877152983
 30
0.0
 40
0.0124337479970251
 50
328.6199300627362163
 51
41.0939130425097616
  0
ARC
  5
A4E8
  8
0
 10
119.6672128953635053
 20
-31.1337361042507297
 30
0.0
 40
0.0224580364468308
 50
41.0939130425089232
 51
94.3383588053239635
  0
ARC
  5
A4E9
  8
0
 10
119.6655843428013952
 20
-31.1327568059275492
 30
0.0
 40
0.0563345438779192
 50
85.4148006329620699
 51
157.5203356221271918
  0
ARC
  5
A4EA
  8
0
 10
119.6515440176139009
 20
-31.12121422344892
 30
0.0
 40
0.0393062691072688
 50
165.2653930802588889
 51
208.6488770547393869
  0
ARC
  5
A4EB
  8
0
 10
119.6665219585036937
 20
-31.1106652681371791
 30
0.0
 40
0.0575455985621572
 50
210.7167697712934
 51
272.3544484492562106
  0
ARC
  5
A4EC
  8
0
 10
119.6701706785872972
 20
-31.1119181484599103
 30
0.0
 40
0.056258808283494
 50
268.6915356913472124
 51
328.1217801360376143
  0
ARC
  5
A4ED
  8
0
 10
119.6833670595619026
 20
-31.1217755387245596
 30
0.0
 40
0.0398715991608819
 50
330.1360321196959831
 51
62.03309837041121
  0
ARC
  5
A4EE
  8
0
 10
119.6676270180664972
 20
-31.1408293376319207
 30
0.0
 40
0.0642739045012947
 50
57.6014746125756503
 51
87.805839086943763
  0
ARC
  5
A4EF
  8
0
 10
119.6657750546233956
 20
-31.1297743698340703
 30
0.0
 40
0.0886044800564175
 50
88.5943161231071343
 51
141.3497144687364084
  0
ARC
  5
A4F0
  8
0
 10
119.6462876842471985
 20
-31.1093105944663293
 30
0.0
 40
0.0607240893827736
 50
144.9474613438129893
 51
238.7996856343069112
  0
ARC
  5
A4F1
  8
0
 10
119.6699133080937969
 20
-31.0797006642925702
 30
0.0
 40
0.0984106553289854
 50
235.9634126799149101
 51
286.0698666186505079
  0
ARC
  5
A4F2
  8
0
 10
119.6824128297806027
 20
-31.1061955016300296
 30
0.0
 40
0.0696483403501343
 50
282.219394984700898
 51
356.5017464874068764
  0
ARC
  5
A4F3
  8
0
 10
119.6739722290232066
 20
-31.1194415526332797
 30
0.0
 40
0.0784765147087815
 50
6.5826355828603553
 51
94.4021564177029262
  0
ARC
  5
A4F4
  8
0
 10
119.6654255552158048
 20
-31.1166714652595893
 30
0.0
 40
0.066910127656693
 50
90.6618320330815664
 51
141.9036086172480111
  0
ARC
  5
A4F5
  8
0
 10
119.639963473422398
 20
-31.0967092323816487
 30
0.0
 40
0.0345557098636452
 50
141.9036086172474995
 51
194.9434152272488916
  0
ARC
  5
A4F6
  8
0
 10
119.6930674478052055
 20
-31.0825362608444813
 30
0.0
 40
0.0895184719616329
 50
194.9434152272488916
 51
205.4537070393168108
  0
ARC
  5
A4F7
  8
0
 10
119.6686078239546021
 20
-31.1250079346841915
 30
0.0
 40
0.0753460135098222
 50
54.1058216580743974
 51
93.0090118957102447
  0
ARC
  5
A4F8
  8
0
 10
119.6842351449744939
 20
-31.1034150186728517
 30
0.0
 40
0.0486914232084985
 50
20.0761028234346384
 51
54.105821658074511
  0
ARC
  5
A4F9
  8
0
 10
119.6867116295897944
 20
-31.1000106411485611
 30
0.0
 40
0.0452577210265095
 50
323.0137843649113165
 51
17.1029591936898306
  0
ARC
  5
A4FA
  8
0
 10
119.2662314102400956
 20
-30.9764339326658913
 30
0.0
 40
0.0208795163170247
 50
93.3370469815975241
 51
135.8231124468441919
  0
ARC
  5
A4FB
  8
0
 10
119.260595251178998
 20
-30.9709574293440717
 30
0.0
 40
0.0130208664586923
 50
135.8231124468422877
 51
170.3177093776407105
  0
ARC
  5
A4FC
  8
0
 10
119.2617459701097005
 20
-30.9711537592881001
 30
0.0
 40
0.0141882136669251
 50
170.3177093776347135
 51
239.9233959392755082
  0
ARC
  5
A4FD
  8
0
 10
119.2684828567742983
 20
-30.9595210747647904
 30
0.0
 40
0.0276308693252965
 50
239.9233959392728082
 51
269.0873498852171792
  0
ARC
  5
A4FE
  8
0
 10
119.2683512138454063
 20
-30.9677848619267913
 30
0.0
 40
0.0193660336875146
 50
269.0873498852171792
 51
328.6199300627341131
  0
ARC
  5
A4FF
  8
0
 10
119.2742695278084994
 20
-30.9713945911034401
 30
0.0
 40
0.0124337479970251
 50
328.6199300627362163
 51
41.0939130425097616
  0
ARC
  5
A500
  8
0
 10
119.2667148909664974
 20
-30.9779835076388714
 30
0.0
 40
0.0224580364468308
 50
41.0939130425089232
 51
94.3383588053239635
  0
ARC
  5
A501
  8
0
 10
119.2650863384044015
 20
-30.9770042093156803
 30
0.0
 40
0.0563345438779192
 50
85.4148006329620699
 51
157.5203356221271918
  0
ARC
  5
A502
  8
0
 10
119.251046013216893
 20
-30.9654616268370617
 30
0.0
 40
0.0393062691072688
 50
165.2653930802588889
 51
208.6488770547393869
  0
ARC
  5
A503
  8
0
 10
119.2660239541067
 20
-30.9549126715253209
 30
0.0
 40
0.0575455985621572
 50
210.7167697712934
 51
272.3544484492562106
  0
ARC
  5
A504
  8
0
 10
119.2696726741903035
 20
-30.9561655518480592
 30
0.0
 40
0.056258808283494
 50
268.6915356913472124
 51
328.1217801360376143
  0
ARC
  5
A505
  8
0
 10
119.2828690551648947
 20
-30.9660229421127013
 30
0.0
 40
0.0398715991608819
 50
330.1360321196959831
 51
62.03309837041121
  0
ARC
  5
A506
  8
0
 10
119.2671290136695035
 20
-30.9850767410200589
 30
0.0
 40
0.0642739045012947
 50
57.6014746125756503
 51
87.805839086943763
  0
ARC
  5
A507
  8
0
 10
119.2652770502264019
 20
-30.9740217732222085
 30
0.0
 40
0.0886044800564175
 50
88.5943161231071343
 51
141.3497144687364084
  0
ARC
  5
A508
  8
0
 10
119.2457896798502048
 20
-30.953557997854471
 30
0.0
 40
0.0607240893827736
 50
144.9474613438129893
 51
238.7996856343069112
  0
ARC
  5
A509
  8
0
 10
119.2694153036968032
 20
-30.9239480676807013
 30
0.0
 40
0.0984106553289854
 50
235.9634126799149101
 51
286.0698666186505079
  0
ARC
  5
A50A
  8
0
 10
119.2819148253835948
 20
-30.9504429050181713
 30
0.0
 40
0.0696483403501343
 50
282.219394984700898
 51
356.5017464874068764
  0
ARC
  5
A50B
  8
0
 10
119.2734742246261987
 20
-30.9636889560214215
 30
0.0
 40
0.0784765147087815
 50
6.5826355828603553
 51
94.4021564177029262
  0
ARC
  5
A50C
  8
0
 10
119.2649275508187969
 20
-30.960918868647731
 30
0.0
 40
0.066910127656693
 50
90.6618320330815664
 51
141.9036086172480111
  0
ARC
  5
A50D
  8
0
 10
119.2394654690254043
 20
-30.9409566357697905
 30
0.0
 40
0.0345557098636452
 50
141.9036086172474995
 51
194.9434152272488916
  0
ARC
  5
A50E
  8
0
 10
119.2925694434081976
 20
-30.9267836642326195
 30
0.0
 40
0.0895184719616329
 50
194.9434152272488916
 51
205.4537070393168108
  0
ARC
  5
A50F
  8
0
 10
119.2681098195575942
 20
-30.9692553380723297
 30
0.0
 40
0.0753460135098222
 50
54.1058216580743974
 51
93.0090118957102447
  0
ARC
  5
A510
  8
0
 10
119.2837371405775002
 20
-30.9476624220609899
 30
0.0
 40
0.0486914232084985
 50
20.0761028234346384
 51
54.105821658074511
  0
ARC
  5
A511
  8
0
 10
119.2862136251928007
 20
-30.9442580445366993
 30
0.0
 40
0.0452577210265095
 50
323.0137843649113165
 51
17.1029591936898306
  0
ARC
  5
A512
  8
0
 10
119.0663031879067972
 20
-31.214152552189379
 30
0.0
 40
0.0208795163170247
 50
93.3370469815975241
 51
135.8231124468441919
  0
ARC
  5
A513
  8
0
 10
119.0606670288456996
 20
-31.2086760488675594
 30
0.0
 40
0.0130208664586923
 50
135.8231124468422877
 51
170.3177093776407105
  0
ARC
  5
A514
  8
0
 10
119.0618177477764021
 20
-31.2088723788115985
 30
0.0
 40
0.0141882136669251
 50
170.3177093776347135
 51
239.9233959392755082
  0
ARC
  5
A515
  8
0
 10
119.068554634441
 20
-31.1972396942882817
 30
0.0
 40
0.0276308693252965
 50
239.9233959392728082
 51
269.0873498852171792
  0
ARC
  5
A516
  8
0
 10
119.0684229915120937
 20
-31.205503481450279
 30
0.0
 40
0.0193660336875146
 50
269.0873498852171792
 51
328.6199300627341131
  0
ARC
  5
A517
  8
0
 10
119.0743413054752011
 20
-31.2091132106269313
 30
0.0
 40
0.0124337479970251
 50
328.6199300627362163
 51
41.0939130425097616
  0
ARC
  5
A518
  8
0
 10
119.066786668633199
 20
-31.2157021271623591
 30
0.0
 40
0.0224580364468308
 50
41.0939130425089232
 51
94.3383588053239635
  0
ARC
  5
A519
  8
0
 10
119.0651581160711032
 20
-31.2147228288391787
 30
0.0
 40
0.0563345438779192
 50
85.4148006329620699
 51
157.5203356221271918
  0
ARC
  5
A51A
  8
0
 10
119.0511177908835947
 20
-31.2031802463605494
 30
0.0
 40
0.0393062691072688
 50
165.2653930802588889
 51
208.6488770547393869
  0
ARC
  5
A51B
  8
0
 10
119.0660957317734017
 20
-31.1926312910488193
 30
0.0
 40
0.0575455985621572
 50
210.7167697712934
 51
272.3544484492562106
  0
ARC
  5
A51C
  8
0
 10
119.0697444518570052
 20
-31.1938841713715505
 30
0.0
 40
0.056258808283494
 50
268.6915356913472124
 51
328.1217801360376143
  0
ARC
  5
A51D
  8
0
 10
119.0829408328315964
 20
-31.2037415616361891
 30
0.0
 40
0.0398715991608819
 50
330.1360321196959831
 51
62.03309837041121
  0
ARC
  5
A51E
  8
0
 10
119.0672007913362052
 20
-31.2227953605435502
 30
0.0
 40
0.0642739045012947
 50
57.6014746125756503
 51
87.805839086943763
  0
ARC
  5
A51F
  8
0
 10
119.0653488278931036
 20
-31.2117403927456998
 30
0.0
 40
0.0886044800564175
 50
88.5943161231071343
 51
141.3497144687364084
  0
ARC
  5
A520
  8
0
 10
119.0458614575169065
 20
-31.1912766173779588
 30
0.0
 40
0.0607240893827736
 50
144.9474613438129893
 51
238.7996856343069112
  0
ARC
  5
A521
  8
0
 10
119.0694870813635049
 20
-31.161666687204189
 30
0.0
 40
0.0984106553289854
 50
235.9634126799149101
 51
286.0698666186505079
  0
ARC
  5
A522
  8
0
 10
119.0819866030502965
 20
-31.188161524541659
 30
0.0
 40
0.0696483403501343
 50
282.219394984700898
 51
356.5017464874068764
  0
ARC
  5
A523
  8
0
 10
119.0735460022929004
 20
-31.2014075755449092
 30
0.0
 40
0.0784765147087815
 50
6.5826355828603553
 51
94.4021564177029262
  0
ARC
  5
A524
  8
0
 10
119.0649993284854986
 20
-31.1986374881712187
 30
0.0
 40
0.066910127656693
 50
90.6618320330815664
 51
141.9036086172480111
  0
ARC
  5
A525
  8
0
 10
119.039537246692106
 20
-31.1786752552932889
 30
0.0
 40
0.0345557098636452
 50
141.9036086172474995
 51
194.9434152272488916
  0
ARC
  5
A526
  8
0
 10
119.0926412210748992
 20
-31.1645022837561108
 30
0.0
 40
0.0895184719616329
 50
194.9434152272488916
 51
205.4537070393168108
  0
ARC
  5
A527
  8
0
 10
119.0681815972242958
 20
-31.2069739575958209
 30
0.0
 40
0.0753460135098222
 50
54.1058216580743974
 51
93.0090118957102447
  0
ARC
  5
A528
  8
0
 10
119.0838089182442019
 20
-31.1853810415844812
 30
0.0
 40
0.0486914232084985
 50
20.0761028234346384
 51
54.105821658074511
  0
ARC
  5
A529
  8
0
 10
119.0862854028595024
 20
-31.1819766640601905
 30
0.0
 40
0.0452577210265095
 50
323.0137843649113165
 51
17.1029591936898306
  0
ARC
  5
A52A
  8
0
 10
119.4040422313512977
 20
-31.456085243447351
 30
0.0
 40
0.0208795163170247
 50
93.3370469815975241
 51
135.8231124468441919
  0
ARC
  5
A52B
  8
0
 10
119.3984060722902996
 20
-31.4506087401255314
 30
0.0
 40
0.0130208664586923
 50
135.8231124468422877
 51
170.3177093776407105
  0
ARC
  5
A52C
  8
0
 10
119.3995567912210021
 20
-31.4508050700695598
 30
0.0
 40
0.0141882136669251
 50
170.3177093776347135
 51
239.9233959392755082
  0
ARC
  5
A52D
  8
0
 10
119.4062936778855004
 20
-31.4391723855462502
 30
0.0
 40
0.0276308693252965
 50
239.9233959392728082
 51
269.0873498852171792
  0
ARC
  5
A52E
  8
0
 10
119.4061620349566937
 20
-31.447436172708251
 30
0.0
 40
0.0193660336875146
 50
269.0873498852171792
 51
328.6199300627341131
  0
ARC
  5
A52F
  8
0
 10
119.4120803489198011
 20
-31.4510459018848998
 30
0.0
 40
0.0124337479970251
 50
328.6199300627362163
 51
41.0939130425097616
  0
ARC
  5
A530
  8
0
 10
119.404525712077799
 20
-31.4576348184203312
 30
0.0
 40
0.0224580364468308
 50
41.0939130425089232
 51
94.3383588053239635
  0
ARC
  5
A531
  8
0
 10
119.4028971595157032
 20
-31.4566555200971507
 30
0.0
 40
0.0563345438779192
 50
85.4148006329620699
 51
157.5203356221271918
  0
ARC
  5
A532
  8
0
 10
119.3888568343281946
 20
-31.4451129376185214
 30
0.0
 40
0.0393062691072688
 50
165.2653930802588889
 51
208.6488770547393869
  0
ARC
  5
A533
  8
0
 10
119.4038347752180016
 20
-31.4345639823067913
 30
0.0
 40
0.0575455985621572
 50
210.7167697712934
 51
272.3544484492562106
  0
ARC
  5
A534
  8
0
 10
119.4074834953015056
 20
-31.4358168626295189
 30
0.0
 40
0.056258808283494
 50
268.6915356913472124
 51
328.1217801360376143
  0
ARC
  5
A535
  8
0
 10
119.4206798762761963
 20
-31.4456742528941611
 30
0.0
 40
0.0398715991608819
 50
330.1360321196959831
 51
62.03309837041121
  0
ARC
  5
A536
  8
0
 10
119.4049398347808051
 20
-31.4647280518015187
 30
0.0
 40
0.0642739045012947
 50
57.6014746125756503
 51
87.805839086943763
  0
ARC
  5
A537
  8
0
 10
119.4030878713377035
 20
-31.4536730840036682
 30
0.0
 40
0.0886044800564175
 50
88.5943161231071343
 51
141.3497144687364084
  0
ARC
  5
A538
  8
0
 10
119.3836005009615064
 20
-31.4332093086359308
 30
0.0
 40
0.0607240893827736
 50
144.9474613438129893
 51
238.7996856343069112
  0
ARC
  5
A539
  8
0
 10
119.4072261248081048
 20
-31.4035993784621716
 30
0.0
 40
0.0984106553289854
 50
235.9634126799149101
 51
286.0698666186505079
  0
ARC
  5
A53A
  8
0
 10
119.4197256464948964
 20
-31.430094215799631
 30
0.0
 40
0.0696483403501343
 50
282.219394984700898
 51
356.5017464874068764
  0
ARC
  5
A53B
  8
0
 10
119.4112850457375004
 20
-31.4433402668028812
 30
0.0
 40
0.0784765147087815
 50
6.5826355828603553
 51
94.4021564177029262
  0
ARC
  5
A53C
  8
0
 10
119.4027383719300985
 20
-31.4405701794291907
 30
0.0
 40
0.066910127656693
 50
90.6618320330815664
 51
141.9036086172480111
  0
ARC
  5
A53D
  8
0
 10
119.3772762901367059
 20
-31.4206079465512609
 30
0.0
 40
0.0345557098636452
 50
141.9036086172474995
 51
194.9434152272488916
  0
ARC
  5
A53E
  8
0
 10
119.4303802645194992
 20
-31.4064349750140792
 30
0.0
 40
0.0895184719616329
 50
194.9434152272488916
 51
205.4537070393168108
  0
ARC
  5
A53F
  8
0
 10
119.4059206406688958
 20
-31.4489066488537894
 30
0.0
 40
0.0753460135098222
 50
54.1058216580743974
 51
93.0090118957102447
  0
ARC
  5
A540
  8
0
 10
119.4215479616888018
 20
-31.4273137328424497
 30
0.0
 40
0.0486914232084985
 50
20.0761028234346384
 51
54.105821658074511
  0
ARC
  5
A541
  8
0
 10
119.4240244463040028
 20
-31.423909355318159
 30
0.0
 40
0.0452577210265095
 50
323.0137843649113165
 51
17.1029591936898306
  0
ARC
  5
A542
  8
0
 10
118.9443639577370959
 20
-31.4742879215777513
 30
0.0
 40
0.0208795163170247
 50
93.3370469815975241
 51
135.8231124468441919
  0
ARC
  5
A543
  8
0
 10
118.9387277986759983
 20
-31.4688114182559318
 30
0.0
 40
0.0130208664586923
 50
135.8231124468422877
 51
170.3177093776407105
  0
ARC
  5
A544
  8
0
 10
118.9398785176067008
 20
-31.4690077481999708
 30
0.0
 40
0.0141882136669251
 50
170.3177093776347135
 51
239.9233959392755082
  0
ARC
  5
A545
  8
0
 10
118.9466154042712986
 20
-31.4573750636766505
 30
0.0
 40
0.0276308693252965
 50
239.9233959392728082
 51
269.0873498852171792
  0
ARC
  5
A546
  8
0
 10
118.9464837613424066
 20
-31.4656388508386513
 30
0.0
 40
0.0193660336875146
 50
269.0873498852171792
 51
328.6199300627341131
  0
ARC
  5
A547
  8
0
 10
118.9524020753054998
 20
-31.4692485800153001
 30
0.0
 40
0.0124337479970251
 50
328.6199300627362163
 51
41.0939130425097616
  0
ARC
  5
A548
  8
0
 10
118.9448474384634977
 20
-31.4758374965507315
 30
0.0
 40
0.0224580364468308
 50
41.0939130425089232
 51
94.3383588053239635
  0
ARC
  5
A549
  8
0
 10
118.9432188859014019
 20
-31.474858198227551
 30
0.0
 40
0.0563345438779192
 50
85.4148006329620699
 51
157.5203356221271918
  0
ARC
  5
A54A
  8
0
 10
118.9291785607138934
 20
-31.4633156157489218
 30
0.0
 40
0.0393062691072688
 50
165.2653930802588889
 51
208.6488770547393869
  0
ARC
  5
A54B
  8
0
 10
118.9441565016037003
 20
-31.4527666604371809
 30
0.0
 40
0.0575455985621572
 50
210.7167697712934
 51
272.3544484492562106
  0
ARC
  5
A54C
  8
0
 10
118.9478052216873039
 20
-31.4540195407599192
 30
0.0
 40
0.056258808283494
 50
268.6915356913472124
 51
328.1217801360376143
  0
ARC
  5
A54D
  8
0
 10
118.961001602661895
 20
-31.4638769310245614
 30
0.0
 40
0.0398715991608819
 50
330.1360321196959831
 51
62.03309837041121
  0
ARC
  5
A54E
  8
0
 10
118.9452615611665038
 20
-31.482930729931919
 30
0.0
 40
0.0642739045012947
 50
57.6014746125756503
 51
87.805839086943763
  0
ARC
  5
A54F
  8
0
 10
118.9434095977234023
 20
-31.4718757621340615
 30
0.0
 40
0.0886044800564175
 50
88.5943161231071343
 51
141.3497144687364084
  0
ARC
  5
A550
  8
0
 10
118.9239222273472052
 20
-31.4514119867663311
 30
0.0
 40
0.0607240893827736
 50
144.9474613438129893
 51
238.7996856343069112
  0
ARC
  5
A551
  8
0
 10
118.9475478511938036
 20
-31.4218020565925613
 30
0.0
 40
0.0984106553289854
 50
235.9634126799149101
 51
286.0698666186505079
  0
ARC
  5
A552
  8
0
 10
118.9600473728805952
 20
-31.4482968939300314
 30
0.0
 40
0.0696483403501343
 50
282.219394984700898
 51
356.5017464874068764
  0
ARC
  5
A553
  8
0
 10
118.9516067721231991
 20
-31.4615429449332815
 30
0.0
 40
0.0784765147087815
 50
6.5826355828603553
 51
94.4021564177029262
  0
ARC
  5
A554
  8
0
 10
118.9430600983157973
 20
-31.4587728575595804
 30
0.0
 40
0.066910127656693
 50
90.6618320330815664
 51
141.9036086172480111
  0
ARC
  5
A555
  8
0
 10
118.9175980165224047
 20
-31.4388106246816506
 30
0.0
 40
0.0345557098636452
 50
141.9036086172474995
 51
194.9434152272488916
  0
ARC
  5
A556
  8
0
 10
118.9707019909051979
 20
-31.4246376531444795
 30
0.0
 40
0.0895184719616329
 50
194.9434152272488916
 51
205.4537070393168108
  0
ARC
  5
A557
  8
0
 10
118.9462423670545945
 20
-31.4671093269841897
 30
0.0
 40
0.0753460135098222
 50
54.1058216580743974
 51
93.0090118957102447
  0
ARC
  5
A558
  8
0
 10
118.9618696880745006
 20
-31.4455164109728393
 30
0.0
 40
0.0486914232084985
 50
20.0761028234346384
 51
54.105821658074511
  0
ARC
  5
A559
  8
0
 10
118.9643461726898011
 20
-31.4421120334485593
 30
0.0
 40
0.0452577210265095
 50
323.0137843649113165
 51
17.1029591936898306
  0
ARC
  5
A55A
  8
0
 10
119.3243729509149063
 20
-31.790257998304611
 30
0.0
 40
0.0208795163170247
 50
93.3370469815975241
 51
135.8231124468441919
  0
ARC
  5
A55B
  8
0
 10
119.3187367918537944
 20
-31.7847814949827914
 30
0.0
 40
0.0130208664586923
 50
135.8231124468422877
 51
170.3177093776407105
  0
ARC
  5
A55C
  8
0
 10
119.3198875107845964
 20
-31.7849778249268198
 30
0.0
 40
0.0141882136669251
 50
170.3177093776347135
 51
239.9233959392755082
  0
ARC
  5
A55D
  8
0
 10
119.3266243974490948
 20
-31.7733451404034994
 30
0.0
 40
0.0276308693252965
 50
239.9233959392728082
 51
269.0873498852171792
  0
ARC
  5
A55E
  8
0
 10
119.3264927545202028
 20
-31.7816089275655109
 30
0.0
 40
0.0193660336875146
 50
269.0873498852171792
 51
328.6199300627341131
  0
ARC
  5
A55F
  8
0
 10
119.3324110684832959
 20
-31.7852186567421491
 30
0.0
 40
0.0124337479970251
 50
328.6199300627362163
 51
41.0939130425097616
  0
ARC
  5
A560
  8
0
 10
119.3248564316413933
 20
-31.7918075732775804
 30
0.0
 40
0.0224580364468308
 50
41.0939130425089232
 51
94.3383588053239635
  0
ARC
  5
A561
  8
0
 10
119.323227879079198
 20
-31.7908282749544
 30
0.0
 40
0.0563345438779192
 50
85.4148006329620699
 51
157.5203356221271918
  0
ARC
  5
A562
  8
0
 10
119.3091875538917037
 20
-31.7792856924757814
 30
0.0
 40
0.0393062691072688
 50
165.2653930802588889
 51
208.6488770547393869
  0
ARC
  5
A563
  8
0
 10
119.3241654947814965
 20
-31.7687367371640406
 30
0.0
 40
0.0575455985621572
 50
210.7167697712934
 51
272.3544484492562106
  0
ARC
  5
A564
  8
0
 10
119.3278142148651
 20
-31.7699896174867717
 30
0.0
 40
0.056258808283494
 50
268.6915356913472124
 51
328.1217801360376143
  0
ARC
  5
A565
  8
0
 10
119.3410105958397054
 20
-31.7798470077514104
 30
0.0
 40
0.0398715991608819
 50
330.1360321196959831
 51
62.03309837041121
  0
ARC
  5
A566
  8
0
 10
119.3252705543443
 20
-31.7989008066587715
 30
0.0
 40
0.0642739045012947
 50
57.6014746125756503
 51
87.805839086943763
  0
ARC
  5
A567
  8
0
 10
119.3234185909011984
 20
-31.7878458388609211
 30
0.0
 40
0.0886044800564175
 50
88.5943161231071343
 51
141.3497144687364084
  0
ARC
  5
A568
  8
0
 10
119.3039312205250013
 20
-31.7673820634931801
 30
0.0
 40
0.0607240893827736
 50
144.9474613438129893
 51
238.7996856343069112
  0
ARC
  5
A569
  8
0
 10
119.3275568443715997
 20
-31.7377721333194209
 30
0.0
 40
0.0984106553289854
 50
235.9634126799149101
 51
286.0698666186505079
  0
ARC
  5
A56A
  8
0
 10
119.3400563660584055
 20
-31.764266970656891
 30
0.0
 40
0.0696483403501343
 50
282.219394984700898
 51
356.5017464874068764
  0
ARC
  5
A56B
  8
0
 10
119.3316157653009952
 20
-31.7775130216601411
 30
0.0
 40
0.0784765147087815
 50
6.5826355828603553
 51
94.4021564177029262
  0
ARC
  5
A56C
  8
0
 10
119.3230690914935934
 20
-31.77474293428644
 30
0.0
 40
0.066910127656693
 50
90.6618320330815664
 51
141.9036086172480111
  0
ARC
  5
A56D
  8
0
 10
119.2976070097002008
 20
-31.7547807014085102
 30
0.0
 40
0.0345557098636452
 50
141.9036086172474995
 51
194.9434152272488916
  0
ARC
  5
A56E
  8
0
 10
119.3507109840829941
 20
-31.7406077298713285
 30
0.0
 40
0.0895184719616329
 50
194.9434152272488916
 51
205.4537070393168108
  0
ARC
  5
A56F
  8
0
 10
119.3262513602324049
 20
-31.7830794037110387
 30
0.0
 40
0.0753460135098222
 50
54.1058216580743974
 51
93.0090118957102447
  0
ARC
  5
A570
  8
0
 10
119.3418786812522967
 20
-31.761486487699699
 30
0.0
 40
0.0486914232084985
 50
20.0761028234346384
 51
54.105821658074511
  0
ARC
  5
A571
  8
0
 10
119.3443551658675972
 20
-31.7580821101754083
 30
0.0
 40
0.0452577210265095
 50
323.0137843649113165
 51
17.1029591936898306
  0
ARC
  5
A572
  8
0
 10
119.7207037381491972
 20
-31.8409129901903007
 30
0.0
 40
0.0208795163170247
 50
93.3370469815975241
 51
135.8231124468441919
  0
ARC
  5
A573
  8
0
 10
119.7150675790880996
 20
-31.8354364868684812
 30
0.0
 40
0.0130208664586923
 50
135.8231124468422877
 51
170.3177093776407105
  0
ARC
  5
A574
  8
0
 10
119.7162182980189016
 20
-31.8356328168125202
 30
0.0
 40
0.0141882136669251
 50
170.3177093776347135
 51
239.9233959392755082
  0
ARC
  5
A575
  8
0
 10
119.7229551846833999
 20
-31.8240001322891999
 30
0.0
 40
0.0276308693252965
 50
239.9233959392728082
 51
269.0873498852171792
  0
ARC
  5
A576
  8
0
 10
119.7228235417544937
 20
-31.8322639194512007
 30
0.0
 40
0.0193660336875146
 50
269.0873498852171792
 51
328.6199300627341131
  0
ARC
  5
A577
  8
0
 10
119.7287418557176011
 20
-31.8358736486278495
 30
0.0
 40
0.0124337479970251
 50
328.6199300627362163
 51
41.0939130425097616
  0
ARC
  5
A578
  8
0
 10
119.7211872188756985
 20
-31.8424625651632809
 30
0.0
 40
0.0224580364468308
 50
41.0939130425089232
 51
94.3383588053239635
  0
ARC
  5
A579
  8
0
 10
119.7195586663135032
 20
-31.8414832668401004
 30
0.0
 40
0.0563345438779192
 50
85.4148006329620699
 51
157.5203356221271918
  0
ARC
  5
A57A
  8
0
 10
119.7055183411259947
 20
-31.8299406843614712
 30
0.0
 40
0.0393062691072688
 50
165.2653930802588889
 51
208.6488770547393869
  0
ARC
  5
A57B
  8
0
 10
119.7204962820158016
 20
-31.819391729049741
 30
0.0
 40
0.0575455985621572
 50
210.7167697712934
 51
272.3544484492562106
  0
ARC
  5
A57C
  8
0
 10
119.7241450020994051
 20
-31.8206446093724686
 30
0.0
 40
0.056258808283494
 50
268.6915356913472124
 51
328.1217801360376143
  0
ARC
  5
A57D
  8
0
 10
119.7373413830739963
 20
-31.8305019996371108
 30
0.0
 40
0.0398715991608819
 50
330.1360321196959831
 51
62.03309837041121
  0
ARC
  5
A57E
  8
0
 10
119.7216013415786051
 20
-31.8495557985444684
 30
0.0
 40
0.0642739045012947
 50
57.6014746125756503
 51
87.805839086943763
  0
ARC
  5
A57F
  8
0
 10
119.7197493781355035
 20
-31.8385008307466215
 30
0.0
 40
0.0886044800564175
 50
88.5943161231071343
 51
141.3497144687364084
  0
ARC
  5
A580
  8
0
 10
119.7002620077593065
 20
-31.8180370553788805
 30
0.0
 40
0.0607240893827736
 50
144.9474613438129893
 51
238.7996856343069112
  0
ARC
  5
A581
  8
0
 10
119.7238876316059049
 20
-31.7884271252051107
 30
0.0
 40
0.0984106553289854
 50
235.9634126799149101
 51
286.0698666186505079
  0
ARC
  5
A582
  8
0
 10
119.7363871532926964
 20
-31.8149219625425914
 30
0.0
 40
0.0696483403501343
 50
282.219394984700898
 51
356.5017464874068764
  0
ARC
  5
A583
  8
0
 10
119.7279465525353004
 20
-31.8281680135458309
 30
0.0
 40
0.0784765147087815
 50
6.5826355828603553
 51
94.4021564177029262
  0
ARC
  5
A584
  8
0
 10
119.7193998787278986
 20
-31.8253979261721405
 30
0.0
 40
0.066910127656693
 50
90.6618320330815664
 51
141.9036086172480111
  0
ARC
  5
A585
  8
0
 10
119.693937796934506
 20
-31.8054356932942106
 30
0.0
 40
0.0345557098636452
 50
141.9036086172474995
 51
194.9434152272488916
  0
ARC
  5
A586
  8
0
 10
119.7470417713172992
 20
-31.7912627217570289
 30
0.0
 40
0.0895184719616329
 50
194.9434152272488916
 51
205.4537070393168108
  0
ARC
  5
A587
  8
0
 10
119.7225821474666958
 20
-31.8337343955967391
 30
0.0
 40
0.0753460135098222
 50
54.1058216580743974
 51
93.0090118957102447
  0
ARC
  5
A588
  8
0
 10
119.7382094684866018
 20
-31.8121414795853994
 30
0.0
 40
0.0486914232084985
 50
20.0761028234346384
 51
54.105821658074511
  0
ARC
  5
A589
  8
0
 10
119.7406859531019023
 20
-31.8087371020611087
 30
0.0
 40
0.0452577210265095
 50
323.0137843649113165
 51
17.1029591936898306
  0
ARC
  5
A58A
  8
0
 10
120.137455982804795
 20
-31.8623407217674099
 30
0.0
 40
0.0208795163170247
 50
93.3370469815975241
 51
135.8231124468441919
  0
ARC
  5
A58B
  8
0
 10
120.1318198237436974
 20
-31.8568642184455904
 30
0.0
 40
0.0130208664586923
 50
135.8231124468422877
 51
170.3177093776407105
  0
ARC
  5
A58C
  8
0
 10
120.1329705426744994
 20
-31.8570605483896188
 30
0.0
 40
0.0141882136669251
 50
170.3177093776347135
 51
239.9233959392755082
  0
ARC
  5
A58D
  8
0
 10
120.1397074293389977
 20
-31.8454278638663091
 30
0.0
 40
0.0276308693252965
 50
239.9233959392728082
 51
269.0873498852171792
  0
ARC
  5
A58E
  8
0
 10
120.1395757864101057
 20
-31.8536916510283099
 30
0.0
 40
0.0193660336875146
 50
269.0873498852171792
 51
328.6199300627341131
  0
ARC
  5
A58F
  8
0
 10
120.1454941003731989
 20
-31.8573013802049587
 30
0.0
 40
0.0124337479970251
 50
328.6199300627362163
 51
41.0939130425097616
  0
ARC
  5
A590
  8
0
 10
120.1379394635311968
 20
-31.8638902967403901
 30
0.0
 40
0.0224580364468308
 50
41.0939130425089232
 51
94.3383588053239635
  0
ARC
  5
A591
  8
0
 10
120.136310910969101
 20
-31.862910998417199
 30
0.0
 40
0.0563345438779192
 50
85.4148006329620699
 51
157.5203356221271918
  0
ARC
  5
A592
  8
0
 10
120.1222705857816067
 20
-31.8513684159385804
 30
0.0
 40
0.0393062691072688
 50
165.2653930802588889
 51
208.6488770547393869
  0
ARC
  5
A593
  8
0
 10
120.1372485266713994
 20
-31.8408194606268395
 30
0.0
 40
0.0575455985621572
 50
210.7167697712934
 51
272.3544484492562106
  0
ARC
  5
A594
  8
0
 10
120.1408972467550029
 20
-31.8420723409495707
 30
0.0
 40
0.056258808283494
 50
268.6915356913472124
 51
328.1217801360376143
  0
ARC
  5
A595
  8
0
 10
120.1540936277295941
 20
-31.85192973121422
 30
0.0
 40
0.0398715991608819
 50
330.1360321196959831
 51
62.03309837041121
  0
ARC
  5
A596
  8
0
 10
120.1383535862342029
 20
-31.8709835301215811
 30
0.0
 40
0.0642739045012947
 50
57.6014746125756503
 51
87.805839086943763
  0
ARC
  5
A597
  8
0
 10
120.1365016227911013
 20
-31.8599285623237307
 30
0.0
 40
0.0886044800564175
 50
88.5943161231071343
 51
141.3497144687364084
  0
ARC
  5
A598
  8
0
 10
120.1170142524149043
 20
-31.8394647869559897
 30
0.0
 40
0.0607240893827736
 50
144.9474613438129893
 51
238.7996856343069112
  0
ARC
  5
A599
  8
0
 10
120.1406398762615026
 20
-31.8098548567822199
 30
0.0
 40
0.0984106553289854
 50
235.9634126799149101
 51
286.0698666186505079
  0
ARC
  5
A59A
  8
0
 10
120.1531393979482942
 20
-31.83634969411969
 30
0.0
 40
0.0696483403501343
 50
282.219394984700898
 51
356.5017464874068764
  0
ARC
  5
A59B
  8
0
 10
120.1446987971908982
 20
-31.8495957451229401
 30
0.0
 40
0.0784765147087815
 50
6.5826355828603553
 51
94.4021564177029262
  0
ARC
  5
A59C
  8
0
 10
120.1361521233834964
 20
-31.846825657749239
 30
0.0
 40
0.066910127656693
 50
90.6618320330815664
 51
141.9036086172480111
  0
ARC
  5
A59D
  8
0
 10
120.1106900415901038
 20
-31.8268634248713091
 30
0.0
 40
0.0345557098636452
 50
141.9036086172474995
 51
194.9434152272488916
  0
ARC
  5
A59E
  8
0
 10
120.163794015972897
 20
-31.8126904533341417
 30
0.0
 40
0.0895184719616329
 50
194.9434152272488916
 51
205.4537070393168108
  0
ARC
  5
A59F
  8
0
 10
120.1393343921222936
 20
-31.8551621271738483
 30
0.0
 40
0.0753460135098222
 50
54.1058216580743974
 51
93.0090118957102447
  0
ARC
  5
A5A0
  8
0
 10
120.1549617131421996
 20
-31.8335692111625015
 30
0.0
 40
0.0486914232084985
 50
20.0761028234346384
 51
54.105821658074511
  0
ARC
  5
A5A1
  8
0
 10
120.1574381977575001
 20
-31.8301648336382215
 30
0.0
 40
0.0452577210265095
 50
323.0137843649113165
 51
17.1029591936898306
  0
ARC
  5
A5A2
  8
0
 10
120.4567137696816985
 20
-32.2585111357034222
 30
0.0
 40
0.0208795163170247
 50
93.3370469815975241
 51
135.8231124468441919
  0
ARC
  5
A5A3
  8
0
 10
120.4510776106206009
 20
-32.2530346323815991
 30
0.0
 40
0.0130208664586923
 50
135.8231124468422877
 51
170.3177093776407105
  0
ARC
  5
A5A4
  8
0
 10
120.4522283295514029
 20
-32.253230962325631
 30
0.0
 40
0.0141882136669251
 50
170.3177093776347135
 51
239.9233959392755082
  0
ARC
  5
A5A5
  8
0
 10
120.4589652162159013
 20
-32.2415982778023178
 30
0.0
 40
0.0276308693252965
 50
239.9233959392728082
 51
269.0873498852171792
  0
ARC
  5
A5A6
  8
0
 10
120.458833573286995
 20
-32.2498620649643186
 30
0.0
 40
0.0193660336875146
 50
269.0873498852171792
 51
328.6199300627341131
  0
ARC
  5
A5A7
  8
0
 10
120.4647518872501024
 20
-32.253471794140971
 30
0.0
 40
0.0124337479970251
 50
328.6199300627362163
 51
41.0939130425097616
  0
ARC
  5
A5A8
  8
0
 10
120.4571972504081998
 20
-32.2600607106763988
 30
0.0
 40
0.0224580364468308
 50
41.0939130425089232
 51
94.3383588053239635
  0
ARC
  5
A5A9
  8
0
 10
120.4555686978460045
 20
-32.2590814123532112
 30
0.0
 40
0.0563345438779192
 50
85.4148006329620699
 51
157.5203356221271918
  0
ARC
  5
A5AA
  8
0
 10
120.4415283726585955
 20
-32.2475388298745926
 30
0.0
 40
0.0393062691072688
 50
165.2653930802588889
 51
208.6488770547393869
  0
ARC
  5
A5AB
  8
0
 10
120.4565063135484024
 20
-32.2369898745628518
 30
0.0
 40
0.0575455985621572
 50
210.7167697712934
 51
272.3544484492562106
  0
ARC
  5
A5AC
  8
0
 10
120.4601550336319065
 20
-32.2382427548855901
 30
0.0
 40
0.056258808283494
 50
268.6915356913472124
 51
328.1217801360376143
  0
ARC
  5
A5AD
  8
0
 10
120.4733514146064977
 20
-32.2481001451502394
 30
0.0
 40
0.0398715991608819
 50
330.1360321196959831
 51
62.03309837041121
  0
ARC
  5
A5AE
  8
0
 10
120.4576113731111064
 20
-32.2671539440575899
 30
0.0
 40
0.0642739045012947
 50
57.6014746125756503
 51
87.805839086943763
  0
ARC
  5
A5AF
  8
0
 10
120.4557594096680049
 20
-32.256098976259743
 30
0.0
 40
0.0886044800564175
 50
88.5943161231071343
 51
141.3497144687364084
  0
ARC
  5
A5B0
  8
0
 10
120.4362720392917936
 20
-32.2356352008919984
 30
0.0
 40
0.0607240893827736
 50
144.9474613438129893
 51
238.7996856343069112
  0
ARC
  5
A5B1
  8
0
 10
120.4598976631384062
 20
-32.2060252707182428
 30
0.0
 40
0.0984106553289854
 50
235.9634126799149101
 51
286.0698666186505079
  0
ARC
  5
A5B2
  8
0
 10
120.4723971848251978
 20
-32.2325201080557022
 30
0.0
 40
0.0696483403501343
 50
282.219394984700898
 51
356.5017464874068764
  0
ARC
  5
A5B3
  8
0
 10
120.4639565840678017
 20
-32.2457661590589524
 30
0.0
 40
0.0784765147087815
 50
6.5826355828603553
 51
94.4021564177029262
  0
ARC
  5
A5B4
  8
0
 10
120.4554099102604994
 20
-32.2429960716852477
 30
0.0
 40
0.066910127656693
 50
90.6618320330815664
 51
141.9036086172480111
  0
ARC
  5
A5B5
  8
0
 10
120.4299478284669931
 20
-32.2230338388073321
 30
0.0
 40
0.0345557098636452
 50
141.9036086172474995
 51
194.9434152272488916
  0
ARC
  5
A5B6
  8
0
 10
120.4830518028498005
 20
-32.2088608672701469
 30
0.0
 40
0.0895184719616329
 50
194.9434152272488916
 51
205.4537070393168108
  0
ARC
  5
A5B7
  8
0
 10
120.4585921789991971
 20
-32.2513325411098606
 30
0.0
 40
0.0753460135098222
 50
54.1058216580743974
 51
93.0090118957102447
  0
ARC
  5
A5B8
  8
0
 10
120.4742195000191032
 20
-32.2297396250985173
 30
0.0
 40
0.0486914232084985
 50
20.0761028234346384
 51
54.105821658074511
  0
ARC
  5
A5B9
  8
0
 10
120.4766959846344037
 20
-32.2263352475742266
 30
0.0
 40
0.0452577210265095
 50
323.0137843649113165
 51
17.1029591936898306
  0
ARC
  5
A5BA
  8
0
 10
119.8673392988441009
 20
-32.2162509133866166
 30
0.0
 40
0.0208795163170247
 50
93.3370469815975241
 51
135.8231124468441919
  0
ARC
  5
A5BB
  8
0
 10
119.8617031397830033
 20
-32.2107744100648006
 30
0.0
 40
0.0130208664586923
 50
135.8231124468422877
 51
170.3177093776407105
  0
ARC
  5
A5BC
  8
0
 10
119.8628538587138053
 20
-32.2109707400088325
 30
0.0
 40
0.0141882136669251
 50
170.3177093776347135
 51
239.9233959392755082
  0
ARC
  5
A5BD
  8
0
 10
119.8695907453783036
 20
-32.1993380554855193
 30
0.0
 40
0.0276308693252965
 50
239.9233959392728082
 51
269.0873498852171792
  0
ARC
  5
A5BE
  8
0
 10
119.8694591024493974
 20
-32.2076018426475201
 30
0.0
 40
0.0193660336875146
 50
269.0873498852171792
 51
328.6199300627341131
  0
ARC
  5
A5BF
  8
0
 10
119.8753774164125048
 20
-32.2112115718241583
 30
0.0
 40
0.0124337479970251
 50
328.6199300627362163
 51
41.0939130425097616
  0
ARC
  5
A5C0
  8
0
 10
119.8678227795705027
 20
-32.2178004883596003
 30
0.0
 40
0.0224580364468308
 50
41.0939130425089232
 51
94.3383588053239635
  0
ARC
  5
A5C1
  8
0
 10
119.8661942270084069
 20
-32.2168211900364128
 30
0.0
 40
0.0563345438779192
 50
85.4148006329620699
 51
157.5203356221271918
  0
ARC
  5
A5C2
  8
0
 10
119.8521539018208983
 20
-32.2052786075578013
 30
0.0
 40
0.0393062691072688
 50
165.2653930802588889
 51
208.6488770547393869
  0
ARC
  5
A5C3
  8
0
 10
119.8671318427107053
 20
-32.1947296522460604
 30
0.0
 40
0.0575455985621572
 50
210.7167697712934
 51
272.3544484492562106
  0
ARC
  5
A5C4
  8
0
 10
119.8707805627942946
 20
-32.1959825325687774
 30
0.0
 40
0.056258808283494
 50
268.6915356913472124
 51
328.1217801360376143
  0
ARC
  5
A5C5
  8
0
 10
119.8839769437689
 20
-32.2058399228334267
 30
0.0
 40
0.0398715991608819
 50
330.1360321196959831
 51
62.03309837041121
  0
ARC
  5
A5C6
  8
0
 10
119.8682369022734946
 20
-32.2248937217407914
 30
0.0
 40
0.0642739045012947
 50
57.6014746125756503
 51
87.805839086943763
  0
ARC
  5
A5C7
  8
0
 10
119.866384938830393
 20
-32.2138387539429374
 30
0.0
 40
0.0886044800564175
 50
88.5943161231071343
 51
141.3497144687364084
  0
ARC
  5
A5C8
  8
0
 10
119.8468975684541959
 20
-32.193374978575207
 30
0.0
 40
0.0607240893827736
 50
144.9474613438129893
 51
238.7996856343069112
  0
ARC
  5
A5C9
  8
0
 10
119.8705231923007943
 20
-32.1637650484014372
 30
0.0
 40
0.0984106553289854
 50
235.9634126799149101
 51
286.0698666186505079
  0
ARC
  5
A5CA
  8
0
 10
119.8830227139876001
 20
-32.1902598857388966
 30
0.0
 40
0.0696483403501343
 50
282.219394984700898
 51
356.5017464874068764
  0
ARC
  5
A5CB
  8
0
 10
119.8745821132302041
 20
-32.2035059367421468
 30
0.0
 40
0.0784765147087815
 50
6.5826355828603553
 51
94.4021564177029262
  0
ARC
  5
A5CC
  8
0
 10
119.8660354394228023
 20
-32.2007358493684634
 30
0.0
 40
0.066910127656693
 50
90.6618320330815664
 51
141.9036086172480111
  0
ARC
  5
A5CD
  8
0
 10
119.8405733576293954
 20
-32.1807736164905265
 30
0.0
 40
0.0345557098636452
 50
141.9036086172474995
 51
194.9434152272488916
  0
ARC
  5
A5CE
  8
0
 10
119.8936773320122029
 20
-32.1666006449533484
 30
0.0
 40
0.0895184719616329
 50
194.9434152272488916
 51
205.4537070393168108
  0
ARC
  5
A5CF
  8
0
 10
119.8692177081615995
 20
-32.2090723187930621
 30
0.0
 40
0.0753460135098222
 50
54.1058216580743974
 51
93.0090118957102447
  0
ARC
  5
A5D0
  8
0
 10
119.8848450291815055
 20
-32.1874794027817188
 30
0.0
 40
0.0486914232084985
 50
20.0761028234346384
 51
54.105821658074511
  0
ARC
  5
A5D1
  8
0
 10
119.887321513796806
 20
-32.1840750252574281
 30
0.0
 40
0.0452577210265095
 50
323.0137843649113165
 51
17.1029591936898306
  0
ARC
  5
A5D2
  8
0
 10
119.3994134874898947
 20
-32.1454671680010478
 30
0.0
 40
0.0208795163170247
 50
93.3370469815975241
 51
135.8231124468441919
  0
ARC
  5
A5D3
  8
0
 10
119.3937773284287971
 20
-32.1399906646792175
 30
0.0
 40
0.0130208664586923
 50
135.8231124468422877
 51
170.3177093776407105
  0
ARC
  5
A5D4
  8
0
 10
119.3949280473595991
 20
-32.1401869946232566
 30
0.0
 40
0.0141882136669251
 50
170.3177093776347135
 51
239.9233959392755082
  0
ARC
  5
A5D5
  8
0
 10
119.4016649340240974
 20
-32.1285543100999504
 30
0.0
 40
0.0276308693252965
 50
239.9233959392728082
 51
269.0873498852171792
  0
ARC
  5
A5D6
  8
0
 10
119.4015332910953049
 20
-32.1368180972619513
 30
0.0
 40
0.0193660336875146
 50
269.0873498852171792
 51
328.6199300627341131
  0
ARC
  5
A5D7
  8
0
 10
119.4074516050583981
 20
-32.1404278264385965
 30
0.0
 40
0.0124337479970251
 50
328.6199300627362163
 51
41.0939130425097616
  0
ARC
  5
A5D8
  8
0
 10
119.399896968216396
 20
-32.1470167429740314
 30
0.0
 40
0.0224580364468308
 50
41.0939130425089232
 51
94.3383588053239635
  0
ARC
  5
A5D9
  8
0
 10
119.3982684156543002
 20
-32.146037444650851
 30
0.0
 40
0.0563345438779192
 50
85.4148006329620699
 51
157.5203356221271918
  0
ARC
  5
A5DA
  8
0
 10
119.3842280904668058
 20
-32.1344948621722182
 30
0.0
 40
0.0393062691072688
 50
165.2653930802588889
 51
208.6488770547393869
  0
ARC
  5
A5DB
  8
0
 10
119.3992060313565986
 20
-32.1239459068604774
 30
0.0
 40
0.0575455985621572
 50
210.7167697712934
 51
272.3544484492562106
  0
ARC
  5
A5DC
  8
0
 10
119.4028547514401026
 20
-32.1251987871832085
 30
0.0
 40
0.056258808283494
 50
268.6915356913472124
 51
328.1217801360376143
  0
ARC
  5
A5DD
  8
0
 10
119.4160511324147933
 20
-32.1350561774478578
 30
0.0
 40
0.0398715991608819
 50
330.1360321196959831
 51
62.03309837041121
  0
ARC
  5
A5DE
  8
0
 10
119.4003110909194021
 20
-32.1541099763552225
 30
0.0
 40
0.0642739045012947
 50
57.6014746125756503
 51
87.805839086943763
  0
ARC
  5
A5DF
  8
0
 10
119.3984591274763005
 20
-32.1430550085573614
 30
0.0
 40
0.0886044800564175
 50
88.5943161231071343
 51
141.3497144687364084
  0
ARC
  5
A5E0
  8
0
 10
119.3789717571001034
 20
-32.1225912331896311
 30
0.0
 40
0.0607240893827736
 50
144.9474613438129893
 51
238.7996856343069112
  0
ARC
  5
A5E1
  8
0
 10
119.4025973809466024
 20
-32.0929813030158613
 30
0.0
 40
0.0984106553289854
 50
235.9634126799149101
 51
286.0698666186505079
  0
ARC
  5
A5E2
  8
0
 10
119.4150969026334934
 20
-32.1194761403533278
 30
0.0
 40
0.0696483403501343
 50
282.219394984700898
 51
356.5017464874068764
  0
ARC
  5
A5E3
  8
0
 10
119.4066563018759979
 20
-32.1327221913565779
 30
0.0
 40
0.0784765147087815
 50
6.5826355828603553
 51
94.4021564177029262
  0
ARC
  5
A5E4
  8
0
 10
119.3981096280686955
 20
-32.1299521039828804
 30
0.0
 40
0.066910127656693
 50
90.6618320330815664
 51
141.9036086172480111
  0
ARC
  5
A5E5
  8
0
 10
119.3726475462753029
 20
-32.1099898711049505
 30
0.0
 40
0.0345557098636452
 50
141.9036086172474995
 51
194.9434152272488916
  0
ARC
  5
A5E6
  8
0
 10
119.4257515206579967
 20
-32.0958168995677724
 30
0.0
 40
0.0895184719616329
 50
194.9434152272488916
 51
205.4537070393168108
  0
ARC
  5
A5E7
  8
0
 10
119.401291896807507
 20
-32.1382885734074932
 30
0.0
 40
0.0753460135098222
 50
54.1058216580743974
 51
93.0090118957102447
  0
ARC
  5
A5E8
  8
0
 10
119.4169192178272993
 20
-32.1166956573961428
 30
0.0
 40
0.0486914232084985
 50
20.0761028234346384
 51
54.105821658074511
  0
ARC
  5
A5E9
  8
0
 10
119.4193957024425998
 20
-32.1132912798718522
 30
0.0
 40
0.0452577210265095
 50
323.0137843649113165
 51
17.1029591936898306
  0
ARC
  5
A5EA
  8
0
 10
119.066497094735098
 20
-32.2875780688953782
 30
0.0
 40
0.0208795163170247
 50
93.3370469815975241
 51
135.8231124468441919
  0
ARC
  5
A5EB
  8
0
 10
119.0608609356740004
 20
-32.2821015655735621
 30
0.0
 40
0.0130208664586923
 50
135.8231124468422877
 51
170.3177093776407105
  0
ARC
  5
A5EC
  8
0
 10
119.0620116546048024
 20
-32.282297895517587
 30
0.0
 40
0.0141882136669251
 50
170.3177093776347135
 51
239.9233959392755082
  0
ARC
  5
A5ED
  8
0
 10
119.0687485412693007
 20
-32.2706652109942809
 30
0.0
 40
0.0276308693252965
 50
239.9233959392728082
 51
269.0873498852171792
  0
ARC
  5
A5EE
  8
0
 10
119.0686168983403945
 20
-32.2789289981562675
 30
0.0
 40
0.0193660336875146
 50
269.0873498852171792
 51
328.6199300627341131
  0
ARC
  5
A5EF
  8
0
 10
119.0745352123035019
 20
-32.2825387273329198
 30
0.0
 40
0.0124337479970251
 50
328.6199300627362163
 51
41.0939130425097616
  0
ARC
  5
A5F0
  8
0
 10
119.0669805754615993
 20
-32.2891276438683619
 30
0.0
 40
0.0224580364468308
 50
41.0939130425089232
 51
94.3383588053239635
  0
ARC
  5
A5F1
  8
0
 10
119.065352022899404
 20
-32.2881483455451814
 30
0.0
 40
0.0563345438779192
 50
85.4148006329620699
 51
157.5203356221271918
  0
ARC
  5
A5F2
  8
0
 10
119.0513116977118955
 20
-32.2766057630665486
 30
0.0
 40
0.0393062691072688
 50
165.2653930802588889
 51
208.6488770547393869
  0
ARC
  5
A5F3
  8
0
 10
119.0662896386017024
 20
-32.2660568077548078
 30
0.0
 40
0.0575455985621572
 50
210.7167697712934
 51
272.3544484492562106
  0
ARC
  5
A5F4
  8
0
 10
119.069938358685306
 20
-32.2673096880775532
 30
0.0
 40
0.056258808283494
 50
268.6915356913472124
 51
328.1217801360376143
  0
ARC
  5
A5F5
  8
0
 10
119.0831347396598971
 20
-32.2771670783421882
 30
0.0
 40
0.0398715991608819
 50
330.1360321196959831
 51
62.03309837041121
  0
ARC
  5
A5F6
  8
0
 10
119.0673946981645059
 20
-32.2962208772495529
 30
0.0
 40
0.0642739045012947
 50
57.6014746125756503
 51
87.805839086943763
  0
ARC
  5
A5F7
  8
0
 10
119.0655427347214044
 20
-32.2851659094516918
 30
0.0
 40
0.0886044800564175
 50
88.5943161231071343
 51
141.3497144687364084
  0
ARC
  5
A5F8
  8
0
 10
119.0460553643451931
 20
-32.2647021340839615
 30
0.0
 40
0.0607240893827736
 50
144.9474613438129893
 51
238.7996856343069112
  0
ARC
  5
A5F9
  8
0
 10
119.0696809881918057
 20
-32.2350922039101917
 30
0.0
 40
0.0984106553289854
 50
235.9634126799149101
 51
286.0698666186505079
  0
ARC
  5
A5FA
  8
0
 10
119.0821805098785973
 20
-32.2615870412476582
 30
0.0
 40
0.0696483403501343
 50
282.219394984700898
 51
356.5017464874068764
  0
ARC
  5
A5FB
  8
0
 10
119.0737399091212012
 20
-32.2748330922509084
 30
0.0
 40
0.0784765147087815
 50
6.5826355828603553
 51
94.4021564177029262
  0
ARC
  5
A5FC
  8
0
 10
119.0651932353138989
 20
-32.2720630048772108
 30
0.0
 40
0.066910127656693
 50
90.6618320330815664
 51
141.9036086172480111
  0
ARC
  5
A5FD
  8
0
 10
119.0397311535205063
 20
-32.2521007719992809
 30
0.0
 40
0.0345557098636452
 50
141.9036086172474995
 51
194.9434152272488916
  0
ARC
  5
A5FE
  8
0
 10
119.0928351279032
 20
-32.2379278004621028
 30
0.0
 40
0.0895184719616329
 50
194.9434152272488916
 51
205.4537070393168108
  0
ARC
  5
A5FF
  8
0
 10
119.0683755040525966
 20
-32.2803994743018166
 30
0.0
 40
0.0753460135098222
 50
54.1058216580743974
 51
93.0090118957102447
  0
ARC
  5
A600
  8
0
 10
119.0840028250725027
 20
-32.2588065582904804
 30
0.0
 40
0.0486914232084985
 50
20.0761028234346384
 51
54.105821658074511
  0
ARC
  5
A601
  8
0
 10
119.0864793096878032
 20
-32.2554021807661897
 30
0.0
 40
0.0452577210265095
 50
323.0137843649113165
 51
17.1029591936898306
  0
ARC
  5
A602
  8
0
 10
118.9441533407912033
 20
-32.0403489462956088
 30
0.0
 40
0.0208795163170247
 50
93.3370469815975241
 51
135.8231124468441919
  0
ARC
  5
A603
  8
0
 10
118.9385171817302052
 20
-32.0348724429737999
 30
0.0
 40
0.0130208664586923
 50
135.8231124468422877
 51
170.3177093776407105
  0
ARC
  5
A604
  8
0
 10
118.9396679006608935
 20
-32.0350687729178318
 30
0.0
 40
0.0141882136669251
 50
170.3177093776347135
 51
239.9233959392755082
  0
ARC
  5
A605
  8
0
 10
118.9464047873255055
 20
-32.0234360883945115
 30
0.0
 40
0.0276308693252965
 50
239.9233959392728082
 51
269.0873498852171792
  0
ARC
  5
A606
  8
0
 10
118.9462731443965993
 20
-32.0316998755565123
 30
0.0
 40
0.0193660336875146
 50
269.0873498852171792
 51
328.6199300627341131
  0
ARC
  5
A607
  8
0
 10
118.9521914583597066
 20
-32.0353096047331576
 30
0.0
 40
0.0124337479970251
 50
328.6199300627362163
 51
41.0939130425097616
  0
ARC
  5
A608
  8
0
 10
118.9446368215177046
 20
-32.0418985212685925
 30
0.0
 40
0.0224580364468308
 50
41.0939130425089232
 51
94.3383588053239635
  0
ARC
  5
A609
  8
0
 10
118.9430082689555945
 20
-32.0409192229454121
 30
0.0
 40
0.0563345438779192
 50
85.4148006329620699
 51
157.5203356221271918
  0
ARC
  5
A60A
  8
0
 10
118.9289679437681002
 20
-32.0293766404667792
 30
0.0
 40
0.0393062691072688
 50
165.2653930802588889
 51
208.6488770547393869
  0
ARC
  5
A60B
  8
0
 10
118.943945884657893
 20
-32.0188276851550384
 30
0.0
 40
0.0575455985621572
 50
210.7167697712934
 51
272.3544484492562106
  0
ARC
  5
A60C
  8
0
 10
118.9475946047414965
 20
-32.0200805654777767
 30
0.0
 40
0.056258808283494
 50
268.6915356913472124
 51
328.1217801360376143
  0
ARC
  5
A60D
  8
0
 10
118.9607909857161019
 20
-32.0299379557424189
 30
0.0
 40
0.0398715991608819
 50
330.1360321196959831
 51
62.03309837041121
  0
ARC
  5
A60E
  8
0
 10
118.9450509442206965
 20
-32.0489917546497765
 30
0.0
 40
0.0642739045012947
 50
57.6014746125756503
 51
87.805839086943763
  0
ARC
  5
A60F
  8
0
 10
118.9431989807775949
 20
-32.0379367868519296
 30
0.0
 40
0.0886044800564175
 50
88.5943161231071343
 51
141.3497144687364084
  0
ARC
  5
A610
  8
0
 10
118.9237116104013978
 20
-32.0174730114841921
 30
0.0
 40
0.0607240893827736
 50
144.9474613438129893
 51
238.7996856343069112
  0
ARC
  5
A611
  8
0
 10
118.9473372342479962
 20
-31.9878630813104294
 30
0.0
 40
0.0984106553289854
 50
235.9634126799149101
 51
286.0698666186505079
  0
ARC
  5
A612
  8
0
 10
118.959836755934802
 20
-32.014357918647903
 30
0.0
 40
0.0696483403501343
 50
282.219394984700898
 51
356.5017464874068764
  0
ARC
  5
A613
  8
0
 10
118.9513961551774059
 20
-32.027603969651139
 30
0.0
 40
0.0784765147087815
 50
6.5826355828603553
 51
94.4021564177029262
  0
ARC
  5
A614
  8
0
 10
118.9428494813700041
 20
-32.0248338822774485
 30
0.0
 40
0.066910127656693
 50
90.6618320330815664
 51
141.9036086172480111
  0
ARC
  5
A615
  8
0
 10
118.9173873995765973
 20
-32.0048716493995116
 30
0.0
 40
0.0345557098636452
 50
141.9036086172474995
 51
194.9434152272488916
  0
ARC
  5
A616
  8
0
 10
118.9704913739594048
 20
-31.9906986778623406
 30
0.0
 40
0.0895184719616329
 50
194.9434152272488916
 51
205.4537070393168108
  0
ARC
  5
A617
  8
0
 10
118.9460317501088014
 20
-32.0331703517020472
 30
0.0
 40
0.0753460135098222
 50
54.1058216580743974
 51
93.0090118957102447
  0
ARC
  5
A618
  8
0
 10
118.9616590711286932
 20
-32.011577435690711
 30
0.0
 40
0.0486914232084985
 50
20.0761028234346384
 51
54.105821658074511
  0
ARC
  5
A619
  8
0
 10
118.9641355557439937
 20
-32.0081730581664203
 30
0.0
 40
0.0452577210265095
 50
323.0137843649113165
 51
17.1029591936898306
  0
ARC
  5
A61A
  8
0
 10
118.899088750096297
 20
-31.7490255785868385
 30
0.0
 40
0.0208795163170247
 50
93.3370469815975241
 51
135.8231124468441919
  0
ARC
  5
A61B
  8
0
 10
118.8934525910351994
 20
-31.7435490752650189
 30
0.0
 40
0.0130208664586923
 50
135.8231124468422877
 51
170.3177093776407105
  0
ARC
  5
A61C
  8
0
 10
118.8946033099660013
 20
-31.7437454052090509
 30
0.0
 40
0.0141882136669251
 50
170.3177093776347135
 51
239.9233959392755082
  0
ARC
  5
A61D
  8
0
 10
118.9013401966304997
 20
-31.7321127206857412
 30
0.0
 40
0.0276308693252965
 50
239.9233959392728082
 51
269.0873498852171792
  0
ARC
  5
A61E
  8
0
 10
118.9012085537015935
 20
-31.7403765078477385
 30
0.0
 40
0.0193660336875146
 50
269.0873498852171792
 51
328.6199300627341131
  0
ARC
  5
A61F
  8
0
 10
118.9071268676647009
 20
-31.7439862370243908
 30
0.0
 40
0.0124337479970251
 50
328.6199300627362163
 51
41.0939130425097616
  0
ARC
  5
A620
  8
0
 10
118.8995722308227982
 20
-31.7505751535598293
 30
0.0
 40
0.0224580364468308
 50
41.0939130425089232
 51
94.3383588053239635
  0
ARC
  5
A621
  8
0
 10
118.897943678260603
 20
-31.7495958552366417
 30
0.0
 40
0.0563345438779192
 50
85.4148006329620699
 51
157.5203356221271918
  0
ARC
  5
A622
  8
0
 10
118.8839033530730944
 20
-31.7380532727580089
 30
0.0
 40
0.0393062691072688
 50
165.2653930802588889
 51
208.6488770547393869
  0
ARC
  5
A623
  8
0
 10
118.8988812939630009
 20
-31.7275043174462716
 30
0.0
 40
0.0575455985621572
 50
210.7167697712934
 51
272.3544484492562106
  0
ARC
  5
A624
  8
0
 10
118.9025300140465049
 20
-31.7287571977690099
 30
0.0
 40
0.056258808283494
 50
268.6915356913472124
 51
328.1217801360376143
  0
ARC
  5
A625
  8
0
 10
118.9157263950210961
 20
-31.7386145880336485
 30
0.0
 40
0.0398715991608819
 50
330.1360321196959831
 51
62.03309837041121
  0
ARC
  5
A626
  8
0
 10
118.8999863535258044
 20
-31.7576683869410097
 30
0.0
 40
0.0642739045012947
 50
57.6014746125756503
 51
87.805839086943763
  0
ARC
  5
A627
  8
0
 10
118.8981343900826033
 20
-31.7466134191431486
 30
0.0
 40
0.0886044800564175
 50
88.5943161231071343
 51
141.3497144687364084
  0
ARC
  5
A628
  8
0
 10
118.8786470197064062
 20
-31.7261496437754182
 30
0.0
 40
0.0607240893827736
 50
144.9474613438129893
 51
238.7996856343069112
  0
ARC
  5
A629
  8
0
 10
118.9022726435530046
 20
-31.6965397136016485
 30
0.0
 40
0.0984106553289854
 50
235.9634126799149101
 51
286.0698666186505079
  0
ARC
  5
A62A
  8
0
 10
118.9147721652397962
 20
-31.7230345509391185
 30
0.0
 40
0.0696483403501343
 50
282.219394984700898
 51
356.5017464874068764
  0
ARC
  5
A62B
  8
0
 10
118.9063315644824002
 20
-31.7362806019423687
 30
0.0
 40
0.0784765147087815
 50
6.5826355828603553
 51
94.4021564177029262
  0
ARC
  5
A62C
  8
0
 10
118.8977848906750978
 20
-31.7335105145686711
 30
0.0
 40
0.066910127656693
 50
90.6618320330815664
 51
141.9036086172480111
  0
ARC
  5
A62D
  8
0
 10
118.8723228088816057
 20
-31.7135482816907412
 30
0.0
 40
0.0345557098636452
 50
141.9036086172474995
 51
194.9434152272488916
  0
ARC
  5
A62E
  8
0
 10
118.925426783264399
 20
-31.6993753101535702
 30
0.0
 40
0.0895184719616329
 50
194.9434152272488916
 51
205.4537070393168108
  0
ARC
  5
A62F
  8
0
 10
118.9009671594137956
 20
-31.7418469839932804
 30
0.0
 40
0.0753460135098222
 50
54.1058216580743974
 51
93.0090118957102447
  0
ARC
  5
A630
  8
0
 10
118.9165944804337016
 20
-31.72025406798193
 30
0.0
 40
0.0486914232084985
 50
20.0761028234346384
 51
54.105821658074511
  0
ARC
  5
A631
  8
0
 10
118.9190709650490021
 20
-31.71684969045765
 30
0.0
 40
0.0452577210265095
 50
323.0137843649113165
 51
17.1029591936898306
  0
ARC
  5
A632
  8
0
 10
119.2653068794761992
 20
-32.5506964587782122
 30
0.0
 40
0.0208795163170247
 50
93.3370469815975241
 51
135.8231124468441919
  0
ARC
  5
A633
  8
0
 10
119.2596707204151016
 20
-32.5452199554564032
 30
0.0
 40
0.0130208664586923
 50
135.8231124468422877
 51
170.3177093776407105
  0
ARC
  5
A634
  8
0
 10
119.2608214393459036
 20
-32.5454162854004281
 30
0.0
 40
0.0141882136669251
 50
170.3177093776347135
 51
239.9233959392755082
  0
ARC
  5
A635
  8
0
 10
119.267558326010402
 20
-32.533783600877122
 30
0.0
 40
0.0276308693252965
 50
239.9233959392728082
 51
269.0873498852171792
  0
ARC
  5
A636
  8
0
 10
119.2674266830814958
 20
-32.5420473880391228
 30
0.0
 40
0.0193660336875146
 50
269.0873498852171792
 51
328.6199300627341131
  0
ARC
  5
A637
  8
0
 10
119.2733449970446031
 20
-32.5456571172157609
 30
0.0
 40
0.0124337479970251
 50
328.6199300627362163
 51
41.0939130425097616
  0
ARC
  5
A638
  8
0
 10
119.2657903602027005
 20
-32.552246033751203
 30
0.0
 40
0.0224580364468308
 50
41.0939130425089232
 51
94.3383588053239635
  0
ARC
  5
A639
  8
0
 10
119.2641618076405052
 20
-32.5512667354280083
 30
0.0
 40
0.0563345438779192
 50
85.4148006329620699
 51
157.5203356221271918
  0
ARC
  5
A63A
  8
0
 10
119.2501214824530962
 20
-32.5397241529493826
 30
0.0
 40
0.0393062691072688
 50
165.2653930802588889
 51
208.6488770547393869
  0
ARC
  5
A63B
  8
0
 10
119.2650994233429032
 20
-32.5291751976376418
 30
0.0
 40
0.0575455985621572
 50
210.7167697712934
 51
272.3544484492562106
  0
ARC
  5
A63C
  8
0
 10
119.268748143426393
 20
-32.5304280779603801
 30
0.0
 40
0.056258808283494
 50
268.6915356913472124
 51
328.1217801360376143
  0
ARC
  5
A63D
  8
0
 10
119.2819445244009984
 20
-32.5402854682250222
 30
0.0
 40
0.0398715991608819
 50
330.1360321196959831
 51
62.03309837041121
  0
ARC
  5
A63E
  8
0
 10
119.2662044829057066
 20
-32.5593392671323798
 30
0.0
 40
0.0642739045012947
 50
57.6014746125756503
 51
87.805839086943763
  0
ARC
  5
A63F
  8
0
 10
119.2643525194625056
 20
-32.5482842993345329
 30
0.0
 40
0.0886044800564175
 50
88.5943161231071343
 51
141.3497144687364084
  0
ARC
  5
A640
  8
0
 10
119.2448651490863938
 20
-32.5278205239668026
 30
0.0
 40
0.0607240893827736
 50
144.9474613438129893
 51
238.7996856343069112
  0
ARC
  5
A641
  8
0
 10
119.2684907729329069
 20
-32.4982105937930328
 30
0.0
 40
0.0984106553289854
 50
235.9634126799149101
 51
286.0698666186505079
  0
ARC
  5
A642
  8
0
 10
119.280990294619798
 20
-32.5247054311304993
 30
0.0
 40
0.0696483403501343
 50
282.219394984700898
 51
356.5017464874068764
  0
ARC
  5
A643
  8
0
 10
119.2725496938623024
 20
-32.5379514821337423
 30
0.0
 40
0.0784765147087815
 50
6.5826355828603553
 51
94.4021564177029262
  0
ARC
  5
A644
  8
0
 10
119.2640030200550001
 20
-32.5351813947600519
 30
0.0
 40
0.066910127656693
 50
90.6618320330815664
 51
141.9036086172480111
  0
ARC
  5
A645
  8
0
 10
119.2385409382615933
 20
-32.515219161882122
 30
0.0
 40
0.0345557098636452
 50
141.9036086172474995
 51
194.9434152272488916
  0
ARC
  5
A646
  8
0
 10
119.2916449126443013
 20
-32.5010461903449368
 30
0.0
 40
0.0895184719616329
 50
194.9434152272488916
 51
205.4537070393168108
  0
ARC
  5
A647
  8
0
 10
119.2671852887936979
 20
-32.5435178641846505
 30
0.0
 40
0.0753460135098222
 50
54.1058216580743974
 51
93.0090118957102447
  0
ARC
  5
A648
  8
0
 10
119.2828126098136039
 20
-32.5219249481733073
 30
0.0
 40
0.0486914232084985
 50
20.0761028234346384
 51
54.105821658074511
  0
ARC
  5
A649
  8
0
 10
119.2852890944289044
 20
-32.5185205706490166
 30
0.0
 40
0.0452577210265095
 50
323.0137843649113165
 51
17.1029591936898306
  0
ARC
  5
A64A
  8
0
 10
119.666638481881705
 20
-32.4763416077999381
 30
0.0
 40
0.0208795163170247
 50
93.3370469815975241
 51
135.8231124468441919
  0
ARC
  5
A64B
  8
0
 10
119.6610023228205932
 20
-32.470865104478122
 30
0.0
 40
0.0130208664586923
 50
135.8231124468422877
 51
170.3177093776407105
  0
ARC
  5
A64C
  8
0
 10
119.6621530417513952
 20
-32.4710614344221469
 30
0.0
 40
0.0141882136669251
 50
170.3177093776347135
 51
239.9233959392755082
  0
ARC
  5
A64D
  8
0
 10
119.6688899284158936
 20
-32.4594287498988407
 30
0.0
 40
0.0276308693252965
 50
239.9233959392728082
 51
269.0873498852171792
  0
ARC
  5
A64E
  8
0
 10
119.6687582854870016
 20
-32.4676925370608416
 30
0.0
 40
0.0193660336875146
 50
269.0873498852171792
 51
328.6199300627341131
  0
ARC
  5
A64F
  8
0
 10
119.6746765994500947
 20
-32.4713022662374868
 30
0.0
 40
0.0124337479970251
 50
328.6199300627362163
 51
41.0939130425097616
  0
ARC
  5
A650
  8
0
 10
119.6671219626081069
 20
-32.4778911827729218
 30
0.0
 40
0.0224580364468308
 50
41.0939130425089232
 51
94.3383588053239635
  0
ARC
  5
A651
  8
0
 10
119.6654934100459968
 20
-32.4769118844497271
 30
0.0
 40
0.0563345438779192
 50
85.4148006329620699
 51
157.5203356221271918
  0
ARC
  5
A652
  8
0
 10
119.6514530848585025
 20
-32.4653693019711085
 30
0.0
 40
0.0393062691072688
 50
165.2653930802588889
 51
208.6488770547393869
  0
ARC
  5
A653
  8
0
 10
119.6664310257482953
 20
-32.4548203466593677
 30
0.0
 40
0.0575455985621572
 50
210.7167697712934
 51
272.3544484492562106
  0
ARC
  5
A654
  8
0
 10
119.6700797458318988
 20
-32.4560732269821131
 30
0.0
 40
0.056258808283494
 50
268.6915356913472124
 51
328.1217801360376143
  0
ARC
  5
A655
  8
0
 10
119.6832761268065042
 20
-32.4659306172467481
 30
0.0
 40
0.0398715991608819
 50
330.1360321196959831
 51
62.03309837041121
  0
ARC
  5
A656
  8
0
 10
119.6675360853110988
 20
-32.4849844161541128
 30
0.0
 40
0.0642739045012947
 50
57.6014746125756503
 51
87.805839086943763
  0
ARC
  5
A657
  8
0
 10
119.6656841218679972
 20
-32.4739294483562517
 30
0.0
 40
0.0886044800564175
 50
88.5943161231071343
 51
141.3497144687364084
  0
ARC
  5
A658
  8
0
 10
119.6461967514918001
 20
-32.4534656729885214
 30
0.0
 40
0.0607240893827736
 50
144.9474613438129893
 51
238.7996856343069112
  0
ARC
  5
A659
  8
0
 10
119.6698223753383985
 20
-32.4238557428147516
 30
0.0
 40
0.0984106553289854
 50
235.9634126799149101
 51
286.0698666186505079
  0
ARC
  5
A65A
  8
0
 10
119.6823218970252043
 20
-32.4503505801522181
 30
0.0
 40
0.0696483403501343
 50
282.219394984700898
 51
356.5017464874068764
  0
ARC
  5
A65B
  8
0
 10
119.673881296267794
 20
-32.4635966311554682
 30
0.0
 40
0.0784765147087815
 50
6.5826355828603553
 51
94.4021564177029262
  0
ARC
  5
A65C
  8
0
 10
119.6653346224604064
 20
-32.4608265437817778
 30
0.0
 40
0.066910127656693
 50
90.6618320330815664
 51
141.9036086172480111
  0
ARC
  5
A65D
  8
0
 10
119.6398725406669996
 20
-32.4408643109038408
 30
0.0
 40
0.0345557098636452
 50
141.9036086172474995
 51
194.9434152272488916
  0
ARC
  5
A65E
  8
0
 10
119.6929765150498071
 20
-32.4266913393666627
 30
0.0
 40
0.0895184719616329
 50
194.9434152272488916
 51
205.4537070393168108
  0
ARC
  5
A65F
  8
0
 10
119.6685168911992037
 20
-32.4691630132063835
 30
0.0
 40
0.0753460135098222
 50
54.1058216580743974
 51
93.0090118957102447
  0
ARC
  5
A660
  8
0
 10
119.6841442122190955
 20
-32.4475700971950332
 30
0.0
 40
0.0486914232084985
 50
20.0761028234346384
 51
54.105821658074511
  0
ARC
  5
A661
  8
0
 10
119.686620696834396
 20
-32.4441657196707496
 30
0.0
 40
0.0452577210265095
 50
323.0137843649113165
 51
17.1029591936898306
  0
ARC
  5
A662
  8
0
 10
119.5368100428747056
 20
-32.7320508748305272
 30
0.0
 40
0.0208795163170247
 50
93.3370469815975241
 51
135.8231124468441919
  0
ARC
  5
A663
  8
0
 10
119.5311738838135938
 20
-32.7265743715087112
 30
0.0
 40
0.0130208664586923
 50
135.8231124468422877
 51
170.3177093776407105
  0
ARC
  5
A664
  8
0
 10
119.5323246027443957
 20
-32.7267707014527431
 30
0.0
 40
0.0141882136669251
 50
170.3177093776347135
 51
239.9233959392755082
  0
ARC
  5
A665
  8
0
 10
119.5390614894088941
 20
-32.7151380169294299
 30
0.0
 40
0.0276308693252965
 50
239.9233959392728082
 51
269.0873498852171792
  0
ARC
  5
A666
  8
0
 10
119.5389298464800021
 20
-32.7234018040914307
 30
0.0
 40
0.0193660336875146
 50
269.0873498852171792
 51
328.6199300627341131
  0
ARC
  5
A667
  8
0
 10
119.5448481604430953
 20
-32.7270115332680831
 30
0.0
 40
0.0124337479970251
 50
328.6199300627362163
 51
41.0939130425097616
  0
ARC
  5
A668
  8
0
 10
119.5372935236012069
 20
-32.7336004498035109
 30
0.0
 40
0.0224580364468308
 50
41.0939130425089232
 51
94.3383588053239635
  0
ARC
  5
A669
  8
0
 10
119.5356649710389974
 20
-32.7326211514803234
 30
0.0
 40
0.0563345438779192
 50
85.4148006329620699
 51
157.5203356221271918
  0
ARC
  5
A66A
  8
0
 10
119.521624645851503
 20
-32.7210785690016976
 30
0.0
 40
0.0393062691072688
 50
165.2653930802588889
 51
208.6488770547393869
  0
ARC
  5
A66B
  8
0
 10
119.5366025867412958
 20
-32.7105296136899568
 30
0.0
 40
0.0575455985621572
 50
210.7167697712934
 51
272.3544484492562106
  0
ARC
  5
A66C
  8
0
 10
119.5402513068248993
 20
-32.7117824940127022
 30
0.0
 40
0.056258808283494
 50
268.6915356913472124
 51
328.1217801360376143
  0
ARC
  5
A66D
  8
0
 10
119.5534476877995047
 20
-32.7216398842773373
 30
0.0
 40
0.0398715991608819
 50
330.1360321196959831
 51
62.03309837041121
  0
ARC
  5
A66E
  8
0
 10
119.5377076463040993
 20
-32.740693683184702
 30
0.0
 40
0.0642739045012947
 50
57.6014746125756503
 51
87.805839086943763
  0
ARC
  5
A66F
  8
0
 10
119.5358556828609977
 20
-32.7296387153868409
 30
0.0
 40
0.0886044800564175
 50
88.5943161231071343
 51
141.3497144687364084
  0
ARC
  5
A670
  8
0
 10
119.5163683124848006
 20
-32.7091749400191105
 30
0.0
 40
0.0607240893827736
 50
144.9474613438129893
 51
238.7996856343069112
  0
ARC
  5
A671
  8
0
 10
119.539993936331399
 20
-32.6795650098453407
 30
0.0
 40
0.0984106553289854
 50
235.9634126799149101
 51
286.0698666186505079
  0
ARC
  5
A672
  8
0
 10
119.5524934580182048
 20
-32.7060598471828214
 30
0.0
 40
0.0696483403501343
 50
282.219394984700898
 51
356.5017464874068764
  0
ARC
  5
A673
  8
0
 10
119.5440528572607946
 20
-32.7193058981860574
 30
0.0
 40
0.0784765147087815
 50
6.5826355828603553
 51
94.4021564177029262
  0
ARC
  5
A674
  8
0
 10
119.5355061834534069
 20
-32.7165358108123669
 30
0.0
 40
0.066910127656693
 50
90.6618320330815664
 51
141.9036086172480111
  0
ARC
  5
A675
  8
0
 10
119.5100441016600001
 20
-32.69657357793443
 30
0.0
 40
0.0345557098636452
 50
141.9036086172474995
 51
194.9434152272488916
  0
ARC
  5
A676
  8
0
 10
119.5631480760427934
 20
-32.682400606397259
 30
0.0
 40
0.0895184719616329
 50
194.9434152272488916
 51
205.4537070393168108
  0
ARC
  5
A677
  8
0
 10
119.5386884521922042
 20
-32.7248722802369727
 30
0.0
 40
0.0753460135098222
 50
54.1058216580743974
 51
93.0090118957102447
  0
ARC
  5
A678
  8
0
 10
119.554315773212096
 20
-32.7032793642256294
 30
0.0
 40
0.0486914232084985
 50
20.0761028234346384
 51
54.105821658074511
  0
ARC
  5
A679
  8
0
 10
119.5567922578273965
 20
-32.6998749867013387
 30
0.0
 40
0.0452577210265095
 50
323.0137843649113165
 51
17.1029591936898306
  0
ARC
  5
A67A
  8
0
 10
119.841304772937093
 20
-32.8928784091777473
 30
0.0
 40
0.0208795163170247
 50
93.3370469815975241
 51
135.8231124468441919
  0
ARC
  5
A67B
  8
0
 10
119.8356686138759954
 20
-32.8874019058559313
 30
0.0
 40
0.0130208664586923
 50
135.8231124468422877
 51
170.3177093776407105
  0
ARC
  5
A67C
  8
0
 10
119.836819332806698
 20
-32.8875982357999632
 30
0.0
 40
0.0141882136669251
 50
170.3177093776347135
 51
239.9233959392755082
  0
ARC
  5
A67D
  8
0
 10
119.8435562194712958
 20
-32.87596555127665
 30
0.0
 40
0.0276308693252965
 50
239.9233959392728082
 51
269.0873498852171792
  0
ARC
  5
A67E
  8
0
 10
119.8434245765424038
 20
-32.8842293384386508
 30
0.0
 40
0.0193660336875146
 50
269.0873498852171792
 51
328.6199300627341131
  0
ARC
  5
A67F
  8
0
 10
119.8493428905054969
 20
-32.8878390676153032
 30
0.0
 40
0.0124337479970251
 50
328.6199300627362163
 51
41.0939130425097616
  0
ARC
  5
A680
  8
0
 10
119.8417882536634949
 20
-32.894427984150731
 30
0.0
 40
0.0224580364468308
 50
41.0939130425089232
 51
94.3383588053239635
  0
ARC
  5
A681
  8
0
 10
119.840159701101399
 20
-32.8934486858275434
 30
0.0
 40
0.0563345438779192
 50
85.4148006329620699
 51
157.5203356221271918
  0
ARC
  5
A682
  8
0
 10
119.8261193759139047
 20
-32.8819061033489177
 30
0.0
 40
0.0393062691072688
 50
165.2653930802588889
 51
208.6488770547393869
  0
ARC
  5
A683
  8
0
 10
119.8410973168036975
 20
-32.8713571480371769
 30
0.0
 40
0.0575455985621572
 50
210.7167697712934
 51
272.3544484492562106
  0
ARC
  5
A684
  8
0
 10
119.844746036887301
 20
-32.8726100283599223
 30
0.0
 40
0.056258808283494
 50
268.6915356913472124
 51
328.1217801360376143
  0
ARC
  5
A685
  8
0
 10
119.8579424178619064
 20
-32.8824674186245574
 30
0.0
 40
0.0398715991608819
 50
330.1360321196959831
 51
62.03309837041121
  0
ARC
  5
A686
  8
0
 10
119.842202376366501
 20
-32.901521217531922
 30
0.0
 40
0.0642739045012947
 50
57.6014746125756503
 51
87.805839086943763
  0
ARC
  5
A687
  8
0
 10
119.8403504129233994
 20
-32.890466249734061
 30
0.0
 40
0.0886044800564175
 50
88.5943161231071343
 51
141.3497144687364084
  0
ARC
  5
A688
  8
0
 10
119.8208630425472023
 20
-32.8700024743663306
 30
0.0
 40
0.0607240893827736
 50
144.9474613438129893
 51
238.7996856343069112
  0
ARC
  5
A689
  8
0
 10
119.8444886663938007
 20
-32.8403925441925608
 30
0.0
 40
0.0984106553289854
 50
235.9634126799149101
 51
286.0698666186505079
  0
ARC
  5
A68A
  8
0
 10
119.8569881880806065
 20
-32.8668873815300273
 30
0.0
 40
0.0696483403501343
 50
282.219394984700898
 51
356.5017464874068764
  0
ARC
  5
A68B
  8
0
 10
119.8485475873231962
 20
-32.8801334325332775
 30
0.0
 40
0.0784765147087815
 50
6.5826355828603553
 51
94.4021564177029262
  0
ARC
  5
A68C
  8
0
 10
119.8400009135157944
 20
-32.8773633451595799
 30
0.0
 40
0.066910127656693
 50
90.6618320330815664
 51
141.9036086172480111
  0
ARC
  5
A68D
  8
0
 10
119.8145388317224018
 20
-32.8574011122816501
 30
0.0
 40
0.0345557098636452
 50
141.9036086172474995
 51
194.9434152272488916
  0
ARC
  5
A68E
  8
0
 10
119.8676428061051951
 20
-32.8432281407444719
 30
0.0
 40
0.0895184719616329
 50
194.9434152272488916
 51
205.4537070393168108
  0
ARC
  5
A68F
  8
0
 10
119.8431831822546059
 20
-32.8856998145841928
 30
0.0
 40
0.0753460135098222
 50
54.1058216580743974
 51
93.0090118957102447
  0
ARC
  5
A690
  8
0
 10
119.8588105032744977
 20
-32.8641068985728424
 30
0.0
 40
0.0486914232084985
 50
20.0761028234346384
 51
54.105821658074511
  0
ARC
  5
A691
  8
0
 10
119.8612869878897982
 20
-32.8607025210485588
 30
0.0
 40
0.0452577210265095
 50
323.0137843649113165
 51
17.1029591936898306
  0
ARC
  5
A692
  8
0
 10
120.0430192940975047
 20
-32.6881354134735176
 30
0.0
 40
0.0208795163170247
 50
93.3370469815975241
 51
135.8231124468441919
  0
ARC
  5
A693
  8
0
 10
120.0373831350363929
 20
-32.6826589101517015
 30
0.0
 40
0.0130208664586923
 50
135.8231124468422877
 51
170.3177093776407105
  0
ARC
  5
A694
  8
0
 10
120.0385338539671949
 20
-32.6828552400957335
 30
0.0
 40
0.0141882136669251
 50
170.3177093776347135
 51
239.9233959392755082
  0
ARC
  5
A695
  8
0
 10
120.0452707406316932
 20
-32.6712225555724203
 30
0.0
 40
0.0276308693252965
 50
239.9233959392728082
 51
269.0873498852171792
  0
ARC
  5
A696
  8
0
 10
120.0451390977029007
 20
-32.6794863427344069
 30
0.0
 40
0.0193660336875146
 50
269.0873498852171792
 51
328.6199300627341131
  0
ARC
  5
A697
  8
0
 10
120.0510574116659939
 20
-32.6830960719110593
 30
0.0
 40
0.0124337479970251
 50
328.6199300627362163
 51
41.0939130425097616
  0
ARC
  5
A698
  8
0
 10
120.043502774824006
 20
-32.6896849884465013
 30
0.0
 40
0.0224580364468308
 50
41.0939130425089232
 51
94.3383588053239635
  0
ARC
  5
A699
  8
0
 10
120.041874222261896
 20
-32.6887056901233208
 30
0.0
 40
0.0563345438779192
 50
85.4148006329620699
 51
157.5203356221271918
  0
ARC
  5
A69A
  8
0
 10
120.0278338970744016
 20
-32.677163107644688
 30
0.0
 40
0.0393062691072688
 50
165.2653930802588889
 51
208.6488770547393869
  0
ARC
  5
A69B
  8
0
 10
120.0428118379641944
 20
-32.6666141523329472
 30
0.0
 40
0.0575455985621572
 50
210.7167697712934
 51
272.3544484492562106
  0
ARC
  5
A69C
  8
0
 10
120.0464605580476984
 20
-32.6678670326556784
 30
0.0
 40
0.056258808283494
 50
268.6915356913472124
 51
328.1217801360376143
  0
ARC
  5
A69D
  8
0
 10
120.0596569390224033
 20
-32.6777244229203276
 30
0.0
 40
0.0398715991608819
 50
330.1360321196959831
 51
62.03309837041121
  0
ARC
  5
A69E
  8
0
 10
120.0439168975269979
 20
-32.6967782218276923
 30
0.0
 40
0.0642739045012947
 50
57.6014746125756503
 51
87.805839086943763
  0
ARC
  5
A69F
  8
0
 10
120.0420649340838963
 20
-32.6857232540298313
 30
0.0
 40
0.0886044800564175
 50
88.5943161231071343
 51
141.3497144687364084
  0
ARC
  5
A6A0
  8
0
 10
120.0225775637076993
 20
-32.6652594786621009
 30
0.0
 40
0.0607240893827736
 50
144.9474613438129893
 51
238.7996856343069112
  0
ARC
  5
A6A1
  8
0
 10
120.0462031875542976
 20
-32.6356495484883311
 30
0.0
 40
0.0984106553289854
 50
235.9634126799149101
 51
286.0698666186505079
  0
ARC
  5
A6A2
  8
0
 10
120.0587027092411034
 20
-32.6621443858257976
 30
0.0
 40
0.0696483403501343
 50
282.219394984700898
 51
356.5017464874068764
  0
ARC
  5
A6A3
  8
0
 10
120.0502621084836932
 20
-32.6753904368290478
 30
0.0
 40
0.0784765147087815
 50
6.5826355828603553
 51
94.4021564177029262
  0
ARC
  5
A6A4
  8
0
 10
120.0417154346763056
 20
-32.6726203494553502
 30
0.0
 40
0.066910127656693
 50
90.6618320330815664
 51
141.9036086172480111
  0
ARC
  5
A6A5
  8
0
 10
120.0162533528828988
 20
-32.6526581165774203
 30
0.0
 40
0.0345557098636452
 50
141.9036086172474995
 51
194.9434152272488916
  0
ARC
  5
A6A6
  8
0
 10
120.0693573272657062
 20
-32.6384851450402493
 30
0.0
 40
0.0895184719616329
 50
194.9434152272488916
 51
205.4537070393168108
  0
ARC
  5
A6A7
  8
0
 10
120.0448977034151028
 20
-32.6809568188799631
 30
0.0
 40
0.0753460135098222
 50
54.1058216580743974
 51
93.0090118957102447
  0
ARC
  5
A6A8
  8
0
 10
120.0605250244349946
 20
-32.6593639028686127
 30
0.0
 40
0.0486914232084985
 50
20.0761028234346384
 51
54.105821658074511
  0
ARC
  5
A6A9
  8
0
 10
120.0630015090501956
 20
-32.655959525344322
 30
0.0
 40
0.0452577210265095
 50
323.0137843649113165
 51
17.1029591936898306
  0
ARC
  5
A6AA
  8
0
 10
120.2097357485370992
 20
-33.0048954258777485
 30
0.0
 40
0.0208795163170247
 50
93.3370469815975241
 51
135.8231124468441919
  0
ARC
  5
A6AB
  8
0
 10
120.2040995894760016
 20
-32.9994189225559325
 30
0.0
 40
0.0130208664586923
 50
135.8231124468422877
 51
170.3177093776407105
  0
ARC
  5
A6AC
  8
0
 10
120.2052503084067041
 20
-32.9996152524999573
 30
0.0
 40
0.0141882136669251
 50
170.3177093776347135
 51
239.9233959392755082
  0
ARC
  5
A6AD
  8
0
 10
120.2119871950713019
 20
-32.9879825679766512
 30
0.0
 40
0.0276308693252965
 50
239.9233959392728082
 51
269.0873498852171792
  0
ARC
  5
A6AE
  8
0
 10
120.2118555521423957
 20
-32.996246355138652
 30
0.0
 40
0.0193660336875146
 50
269.0873498852171792
 51
328.6199300627341131
  0
ARC
  5
A6AF
  8
0
 10
120.2177738661055031
 20
-32.9998560843152973
 30
0.0
 40
0.0124337479970251
 50
328.6199300627362163
 51
41.0939130425097616
  0
ARC
  5
A6B0
  8
0
 10
120.210219229263501
 20
-33.0064450008507322
 30
0.0
 40
0.0224580364468308
 50
41.0939130425089232
 51
94.3383588053239635
  0
ARC
  5
A6B1
  8
0
 10
120.2085906767014052
 20
-33.0054657025275375
 30
0.0
 40
0.0563345438779192
 50
85.4148006329620699
 51
157.5203356221271918
  0
ARC
  5
A6B2
  8
0
 10
120.1945503515138967
 20
-32.9939231200489189
 30
0.0
 40
0.0393062691072688
 50
165.2653930802588889
 51
208.6488770547393869
  0
ARC
  5
A6B3
  8
0
 10
120.2095282924037036
 20
-32.9833741647371781
 30
0.0
 40
0.0575455985621572
 50
210.7167697712934
 51
272.3544484492562106
  0
ARC
  5
A6B4
  8
0
 10
120.2131770124872929
 20
-32.9846270450599235
 30
0.0
 40
0.056258808283494
 50
268.6915356913472124
 51
328.1217801360376143
  0
ARC
  5
A6B5
  8
0
 10
120.2263733934618983
 20
-32.9944844353245585
 30
0.0
 40
0.0398715991608819
 50
330.1360321196959831
 51
62.03309837041121
  0
ARC
  5
A6B6
  8
0
 10
120.2106333519664929
 20
-33.0135382342319232
 30
0.0
 40
0.0642739045012947
 50
57.6014746125756503
 51
87.805839086943763
  0
ARC
  5
A6B7
  8
0
 10
120.2087813885234056
 20
-33.0024832664340622
 30
0.0
 40
0.0886044800564175
 50
88.5943161231071343
 51
141.3497144687364084
  0
ARC
  5
A6B8
  8
0
 10
120.1892940181471943
 20
-32.9820194910663318
 30
0.0
 40
0.0607240893827736
 50
144.9474613438129893
 51
238.7996856343069112
  0
ARC
  5
A6B9
  8
0
 10
120.2129196419938069
 20
-32.952409560892562
 30
0.0
 40
0.0984106553289854
 50
235.9634126799149101
 51
286.0698666186505079
  0
ARC
  5
A6BA
  8
0
 10
120.2254191636805984
 20
-32.9789043982300285
 30
0.0
 40
0.0696483403501343
 50
282.219394984700898
 51
356.5017464874068764
  0
ARC
  5
A6BB
  8
0
 10
120.2169785629232024
 20
-32.9921504492332787
 30
0.0
 40
0.0784765147087815
 50
6.5826355828603553
 51
94.4021564177029262
  0
ARC
  5
A6BC
  8
0
 10
120.2084318891158006
 20
-32.9893803618595882
 30
0.0
 40
0.066910127656693
 50
90.6618320330815664
 51
141.9036086172480111
  0
ARC
  5
A6BD
  8
0
 10
120.1829698073223938
 20
-32.9694181289816513
 30
0.0
 40
0.0345557098636452
 50
141.9036086172474995
 51
194.9434152272488916
  0
ARC
  5
A6BE
  8
0
 10
120.2360737817052012
 20
-32.9552451574444731
 30
0.0
 40
0.0895184719616329
 50
194.9434152272488916
 51
205.4537070393168108
  0
ARC
  5
A6BF
  8
0
 10
120.2116141578545978
 20
-32.9977168312841869
 30
0.0
 40
0.0753460135098222
 50
54.1058216580743974
 51
93.0090118957102447
  0
ARC
  5
A6C0
  8
0
 10
120.2272414788745039
 20
-32.9761239152728365
 30
0.0
 40
0.0486914232084985
 50
20.0761028234346384
 51
54.105821658074511
  0
ARC
  5
A6C1
  8
0
 10
120.2297179634898043
 20
-32.97271953774856
 30
0.0
 40
0.0452577210265095
 50
323.0137843649113165
 51
17.1029591936898306
  0
ARC
  5
A6C2
  8
0
 10
120.5227066171188
 20
-32.8111735233369686
 30
0.0
 40
0.0208795163170247
 50
93.3370469815975241
 51
135.8231124468441919
  0
ARC
  5
A6C3
  8
0
 10
120.5170704580577024
 20
-32.8056970200151383
 30
0.0
 40
0.0130208664586923
 50
135.8231124468422877
 51
170.3177093776407105
  0
ARC
  5
A6C4
  8
0
 10
120.5182211769885043
 20
-32.8058933499591774
 30
0.0
 40
0.0141882136669251
 50
170.3177093776347135
 51
239.9233959392755082
  0
ARC
  5
A6C5
  8
0
 10
120.5249580636530027
 20
-32.7942606654358713
 30
0.0
 40
0.0276308693252965
 50
239.9233959392728082
 51
269.0873498852171792
  0
ARC
  5
A6C6
  8
0
 10
120.5248264207240965
 20
-32.8025244525978721
 30
0.0
 40
0.0193660336875146
 50
269.0873498852171792
 51
328.6199300627341131
  0
ARC
  5
A6C7
  8
0
 10
120.5307447346872038
 20
-32.8061341817745173
 30
0.0
 40
0.0124337479970251
 50
328.6199300627362163
 51
41.0939130425097616
  0
ARC
  5
A6C8
  8
0
 10
120.5231900978453012
 20
-32.8127230983099523
 30
0.0
 40
0.0224580364468308
 50
41.0939130425089232
 51
94.3383588053239635
  0
ARC
  5
A6C9
  8
0
 10
120.5215615452831059
 20
-32.8117437999867718
 30
0.0
 40
0.0563345438779192
 50
85.4148006329620699
 51
157.5203356221271918
  0
ARC
  5
A6CA
  8
0
 10
120.5075212200955974
 20
-32.800201217508139
 30
0.0
 40
0.0393062691072688
 50
165.2653930802588889
 51
208.6488770547393869
  0
ARC
  5
A6CB
  8
0
 10
120.5224991609854044
 20
-32.7896522621963982
 30
0.0
 40
0.0575455985621572
 50
210.7167697712934
 51
272.3544484492562106
  0
ARC
  5
A6CC
  8
0
 10
120.5261478810689937
 20
-32.7909051425191365
 30
0.0
 40
0.056258808283494
 50
268.6915356913472124
 51
328.1217801360376143
  0
ARC
  5
A6CD
  8
0
 10
120.5393442620435991
 20
-32.8007625327837786
 30
0.0
 40
0.0398715991608819
 50
330.1360321196959831
 51
62.03309837041121
  0
ARC
  5
A6CE
  8
0
 10
120.5236042205481937
 20
-32.8198163316911433
 30
0.0
 40
0.0642739045012947
 50
57.6014746125756503
 51
87.805839086943763
  0
ARC
  5
A6CF
  8
0
 10
120.5217522571051063
 20
-32.8087613638932822
 30
0.0
 40
0.0886044800564175
 50
88.5943161231071343
 51
141.3497144687364084
  0
ARC
  5
A6D0
  8
0
 10
120.502264886728895
 20
-32.7882975885255519
 30
0.0
 40
0.0607240893827736
 50
144.9474613438129893
 51
238.7996856343069112
  0
ARC
  5
A6D1
  8
0
 10
120.5258905105754934
 20
-32.7586876583517821
 30
0.0
 40
0.0984106553289854
 50
235.9634126799149101
 51
286.0698666186505079
  0
ARC
  5
A6D2
  8
0
 10
120.5383900322622992
 20
-32.7851824956892486
 30
0.0
 40
0.0696483403501343
 50
282.219394984700898
 51
356.5017464874068764
  0
ARC
  5
A6D3
  8
0
 10
120.5299494315049031
 20
-32.7984285466924987
 30
0.0
 40
0.0784765147087815
 50
6.5826355828603553
 51
94.4021564177029262
  0
ARC
  5
A6D4
  8
0
 10
120.5214027576976008
 20
-32.7956584593188012
 30
0.0
 40
0.066910127656693
 50
90.6618320330815664
 51
141.9036086172480111
  0
ARC
  5
A6D5
  8
0
 10
120.4959406759040945
 20
-32.7756962264408713
 30
0.0
 40
0.0345557098636452
 50
141.9036086172474995
 51
194.9434152272488916
  0
ARC
  5
A6D6
  8
0
 10
120.549044650286902
 20
-32.7615232549036932
 30
0.0
 40
0.0895184719616329
 50
194.9434152272488916
 51
205.4537070393168108
  0
ARC
  5
A6D7
  8
0
 10
120.5245850264362986
 20
-32.8039949287434069
 30
0.0
 40
0.0753460135098222
 50
54.1058216580743974
 51
93.0090118957102447
  0
ARC
  5
A6D8
  8
0
 10
120.5402123474562046
 20
-32.7824020127320566
 30
0.0
 40
0.0486914232084985
 50
20.0761028234346384
 51
54.105821658074511
  0
ARC
  5
A6D9
  8
0
 10
120.5426888320715051
 20
-32.778997635207773
 30
0.0
 40
0.0452577210265095
 50
323.0137843649113165
 51
17.1029591936898306
  0
ARC
  5
A6DA
  8
0
 10
120.5836689692776957
 20
-33.0628767077390009
 30
0.0
 40
0.0208795163170247
 50
93.3370469815975241
 51
135.8231124468441919
  0
ARC
  5
A6DB
  8
0
 10
120.5780328102164987
 20
-33.0574002044171777
 30
0.0
 40
0.0130208664586923
 50
135.8231124468422877
 51
170.3177093776407105
  0
ARC
  5
A6DC
  8
0
 10
120.5791835291473006
 20
-33.0575965343612097
 30
0.0
 40
0.0141882136669251
 50
170.3177093776347135
 51
239.9233959392755082
  0
ARC
  5
A6DD
  8
0
 10
120.585920415811799
 20
-33.0459638498379107
 30
0.0
 40
0.0276308693252965
 50
239.9233959392728082
 51
269.0873498852171792
  0
ARC
  5
A6DE
  8
0
 10
120.5857887728830065
 20
-33.0542276369998973
 30
0.0
 40
0.0193660336875146
 50
269.0873498852171792
 51
328.6199300627341131
  0
ARC
  5
A6DF
  8
0
 10
120.5917070868460996
 20
-33.0578373661765497
 30
0.0
 40
0.0124337479970251
 50
328.6199300627362163
 51
41.0939130425097616
  0
ARC
  5
A6E0
  8
0
 10
120.5841524500040975
 20
-33.0644262827119917
 30
0.0
 40
0.0224580364468308
 50
41.0939130425089232
 51
94.3383588053239635
  0
ARC
  5
A6E1
  8
0
 10
120.5825238974420017
 20
-33.063446984388797
 30
0.0
 40
0.0563345438779192
 50
85.4148006329620699
 51
157.5203356221271918
  0
ARC
  5
A6E2
  8
0
 10
120.5684835722544932
 20
-33.0519044019101713
 30
0.0
 40
0.0393062691072688
 50
165.2653930802588889
 51
208.6488770547393869
  0
ARC
  5
A6E3
  8
0
 10
120.5834615131443002
 20
-33.0413554465984305
 30
0.0
 40
0.0575455985621572
 50
210.7167697712934
 51
272.3544484492562106
  0
ARC
  5
A6E4
  8
0
 10
120.5871102332278042
 20
-33.0426083269211688
 30
0.0
 40
0.056258808283494
 50
268.6915356913472124
 51
328.1217801360376143
  0
ARC
  5
A6E5
  8
0
 10
120.6003066142024949
 20
-33.0524657171858109
 30
0.0
 40
0.0398715991608819
 50
330.1360321196959831
 51
62.03309837041121
  0
ARC
  5
A6E6
  8
0
 10
120.5845665727071037
 20
-33.0715195160931685
 30
0.0
 40
0.0642739045012947
 50
57.6014746125756503
 51
87.805839086943763
  0
ARC
  5
A6E7
  8
0
 10
120.5827146092640021
 20
-33.0604645482953217
 30
0.0
 40
0.0886044800564175
 50
88.5943161231071343
 51
141.3497144687364084
  0
ARC
  5
A6E8
  8
0
 10
120.563227238887805
 20
-33.0400007729275913
 30
0.0
 40
0.0607240893827736
 50
144.9474613438129893
 51
238.7996856343069112
  0
ARC
  5
A6E9
  8
0
 10
120.5868528627344034
 20
-33.0103908427538215
 30
0.0
 40
0.0984106553289854
 50
235.9634126799149101
 51
286.0698666186505079
  0
ARC
  5
A6EA
  8
0
 10
120.599352384421195
 20
-33.0368856800912809
 30
0.0
 40
0.0696483403501343
 50
282.219394984700898
 51
356.5017464874068764
  0
ARC
  5
A6EB
  8
0
 10
120.5909117836636995
 20
-33.0501317310945311
 30
0.0
 40
0.0784765147087815
 50
6.5826355828603553
 51
94.4021564177029262
  0
ARC
  5
A6EC
  8
0
 10
120.5823651098563971
 20
-33.0473616437208406
 30
0.0
 40
0.066910127656693
 50
90.6618320330815664
 51
141.9036086172480111
  0
ARC
  5
A6ED
  8
0
 10
120.5569030280630045
 20
-33.0273994108428965
 30
0.0
 40
0.0345557098636452
 50
141.9036086172474995
 51
194.9434152272488916
  0
ARC
  5
A6EE
  8
0
 10
120.6100070024457978
 20
-33.0132264393057326
 30
0.0
 40
0.0895184719616329
 50
194.9434152272488916
 51
205.4537070393168108
  0
ARC
  5
A6EF
  8
0
 10
120.5855473785951943
 20
-33.0556981131454393
 30
0.0
 40
0.0753460135098222
 50
54.1058216580743974
 51
93.0090118957102447
  0
ARC
  5
A6F0
  8
0
 10
120.6011746996151004
 20
-33.0341051971341031
 30
0.0
 40
0.0486914232084985
 50
20.0761028234346384
 51
54.105821658074511
  0
ARC
  5
A6F1
  8
0
 10
120.6036511842303014
 20
-33.0307008196098124
 30
0.0
 40
0.0452577210265095
 50
323.0137843649113165
 51
17.1029591936898306
  0
ARC
  5
A6F2
  8
0
 10
120.7791324711332948
 20
-32.5847598042067474
 30
0.0
 40
0.0208795163170247
 50
93.3370469815975241
 51
135.8231124468441919
  0
ARC
  5
A6F3
  8
0
 10
120.7734963120721972
 20
-32.5792833008849314
 30
0.0
 40
0.0130208664586923
 50
135.8231124468422877
 51
170.3177093776407105
  0
ARC
  5
A6F4
  8
0
 10
120.7746470310029991
 20
-32.5794796308289634
 30
0.0
 40
0.0141882136669251
 50
170.3177093776347135
 51
239.9233959392755082
  0
ARC
  5
A6F5
  8
0
 10
120.7813839176674975
 20
-32.567846946305643
 30
0.0
 40
0.0276308693252965
 50
239.9233959392728082
 51
269.0873498852171792
  0
ARC
  5
A6F6
  8
0
 10
120.7812522747386055
 20
-32.5761107334676367
 30
0.0
 40
0.0193660336875146
 50
269.0873498852171792
 51
328.6199300627341131
  0
ARC
  5
A6F7
  8
0
 10
120.7871705887016986
 20
-32.5797204626442891
 30
0.0
 40
0.0124337479970251
 50
328.6199300627362163
 51
41.0939130425097616
  0
ARC
  5
A6F8
  8
0
 10
120.779615951859796
 20
-32.5863093791797311
 30
0.0
 40
0.0224580364468308
 50
41.0939130425089232
 51
94.3383588053239635
  0
ARC
  5
A6F9
  8
0
 10
120.7779873992976007
 20
-32.5853300808565365
 30
0.0
 40
0.0563345438779192
 50
85.4148006329620699
 51
157.5203356221271918
  0
ARC
  5
A6FA
  8
0
 10
120.7639470741102059
 20
-32.5737874983779179
 30
0.0
 40
0.0393062691072688
 50
165.2653930802588889
 51
208.6488770547393869
  0
ARC
  5
A6FB
  8
0
 10
120.7789250149999987
 20
-32.563238543066177
 30
0.0
 40
0.0575455985621572
 50
210.7167697712934
 51
272.3544484492562106
  0
ARC
  5
A6FC
  8
0
 10
120.7825737350835027
 20
-32.5644914233889082
 30
0.0
 40
0.056258808283494
 50
268.6915356913472124
 51
328.1217801360376143
  0
ARC
  5
A6FD
  8
0
 10
120.7957701160580939
 20
-32.5743488136535575
 30
0.0
 40
0.0398715991608819
 50
330.1360321196959831
 51
62.03309837041121
  0
ARC
  5
A6FE
  8
0
 10
120.7800300745627027
 20
-32.5934026125609222
 30
0.0
 40
0.0642739045012947
 50
57.6014746125756503
 51
87.805839086943763
  0
ARC
  5
A6FF
  8
0
 10
120.7781781111197006
 20
-32.5823476447630611
 30
0.0
 40
0.0886044800564175
 50
88.5943161231071343
 51
141.3497144687364084
  0
ARC
  5
A700
  8
0
 10
120.7586907407435035
 20
-32.5618838693953307
 30
0.0
 40
0.0607240893827736
 50
144.9474613438129893
 51
238.7996856343069112
  0
ARC
  5
A701
  8
0
 10
120.7823163645900024
 20
-32.532273939221561
 30
0.0
 40
0.0984106553289854
 50
235.9634126799149101
 51
286.0698666186505079
  0
ARC
  5
A702
  8
0
 10
120.794815886276794
 20
-32.5587687765590275
 30
0.0
 40
0.0696483403501343
 50
282.219394984700898
 51
356.5017464874068764
  0
ARC
  5
A703
  8
0
 10
120.7863752855193979
 20
-32.5720148275622776
 30
0.0
 40
0.0784765147087815
 50
6.5826355828603553
 51
94.4021564177029262
  0
ARC
  5
A704
  8
0
 10
120.7778286117120956
 20
-32.5692447401885801
 30
0.0
 40
0.066910127656693
 50
90.6618320330815664
 51
141.9036086172480111
  0
ARC
  5
A705
  8
0
 10
120.7523665299186035
 20
-32.5492825073106502
 30
0.0
 40
0.0345557098636452
 50
141.9036086172474995
 51
194.9434152272488916
  0
ARC
  5
A706
  8
0
 10
120.8054705043013968
 20
-32.5351095357734721
 30
0.0
 40
0.0895184719616329
 50
194.9434152272488916
 51
205.4537070393168108
  0
ARC
  5
A707
  8
0
 10
120.7810108804507934
 20
-32.5775812096131929
 30
0.0
 40
0.0753460135098222
 50
54.1058216580743974
 51
93.0090118957102447
  0
ARC
  5
A708
  8
0
 10
120.7966382014706994
 20
-32.5559882936018425
 30
0.0
 40
0.0486914232084985
 50
20.0761028234346384
 51
54.105821658074511
  0
ARC
  5
A709
  8
0
 10
120.7991146860859999
 20
-32.5525839160775519
 30
0.0
 40
0.0452577210265095
 50
323.0137843649113165
 51
17.1029591936898306
  0
ARC
  5
A70A
  8
0
 10
120.2498675034371018
 20
-32.46779940117775
 30
0.0
 40
0.0208795163170247
 50
93.3370469815975241
 51
135.8231124468441919
  0
ARC
  5
A70B
  8
0
 10
120.2442313443760042
 20
-32.4623228978559268
 30
0.0
 40
0.0130208664586923
 50
135.8231124468422877
 51
170.3177093776407105
  0
ARC
  5
A70C
  8
0
 10
120.2453820633067068
 20
-32.4625192277999588
 30
0.0
 40
0.0141882136669251
 50
170.3177093776347135
 51
239.9233959392755082
  0
ARC
  5
A70D
  8
0
 10
120.2521189499713046
 20
-32.4508865432766527
 30
0.0
 40
0.0276308693252965
 50
239.9233959392728082
 51
269.0873498852171792
  0
ARC
  5
A70E
  8
0
 10
120.2519873070423984
 20
-32.4591503304386535
 30
0.0
 40
0.0193660336875146
 50
269.0873498852171792
 51
328.6199300627341131
  0
ARC
  5
A70F
  8
0
 10
120.2579056210055057
 20
-32.4627600596152988
 30
0.0
 40
0.0124337479970251
 50
328.6199300627362163
 51
41.0939130425097616
  0
ARC
  5
A710
  8
0
 10
120.2503509841635037
 20
-32.4693489761507266
 30
0.0
 40
0.0224580364468308
 50
41.0939130425089232
 51
94.3383588053239635
  0
ARC
  5
A711
  8
0
 10
120.2487224316013936
 20
-32.4683696778275532
 30
0.0
 40
0.0563345438779192
 50
85.4148006329620699
 51
157.5203356221271918
  0
ARC
  5
A712
  8
0
 10
120.2346821064138993
 20
-32.4568270953489204
 30
0.0
 40
0.0393062691072688
 50
165.2653930802588889
 51
208.6488770547393869
  0
ARC
  5
A713
  8
0
 10
120.2496600473037063
 20
-32.4462781400371796
 30
0.0
 40
0.0575455985621572
 50
210.7167697712934
 51
272.3544484492562106
  0
ARC
  5
A714
  8
0
 10
120.2533087673872956
 20
-32.4475310203599179
 30
0.0
 40
0.056258808283494
 50
268.6915356913472124
 51
328.1217801360376143
  0
ARC
  5
A715
  8
0
 10
120.266505148361901
 20
-32.45738841062456
 30
0.0
 40
0.0398715991608819
 50
330.1360321196959831
 51
62.03309837041121
  0
ARC
  5
A716
  8
0
 10
120.2507651068664956
 20
-32.4764422095319176
 30
0.0
 40
0.0642739045012947
 50
57.6014746125756503
 51
87.805839086943763
  0
ARC
  5
A717
  8
0
 10
120.248913143423394
 20
-32.4653872417340708
 30
0.0
 40
0.0886044800564175
 50
88.5943161231071343
 51
141.3497144687364084
  0
ARC
  5
A718
  8
0
 10
120.2294257730471969
 20
-32.4449234663663333
 30
0.0
 40
0.0607240893827736
 50
144.9474613438129893
 51
238.7996856343069112
  0
ARC
  5
A719
  8
0
 10
120.2530513968937953
 20
-32.4153135361925706
 30
0.0
 40
0.0984106553289854
 50
235.9634126799149101
 51
286.0698666186505079
  0
ARC
  5
A71A
  8
0
 10
120.2655509185806011
 20
-32.4418083735300371
 30
0.0
 40
0.0696483403501343
 50
282.219394984700898
 51
356.5017464874068764
  0
ARC
  5
A71B
  8
0
 10
120.257110317823205
 20
-32.4550544245332802
 30
0.0
 40
0.0784765147087815
 50
6.5826355828603553
 51
94.4021564177029262
  0
ARC
  5
A71C
  8
0
 10
120.2485636440158032
 20
-32.4522843371595826
 30
0.0
 40
0.066910127656693
 50
90.6618320330815664
 51
141.9036086172480111
  0
ARC
  5
A71D
  8
0
 10
120.2231015622223964
 20
-32.4323221042816527
 30
0.0
 40
0.0345557098636452
 50
141.9036086172474995
 51
194.9434152272488916
  0
ARC
  5
A71E
  8
0
 10
120.2762055366052039
 20
-32.4181491327444817
 30
0.0
 40
0.0895184719616329
 50
194.9434152272488916
 51
205.4537070393168108
  0
ARC
  5
A71F
  8
0
 10
120.2517459127546005
 20
-32.4606208065841884
 30
0.0
 40
0.0753460135098222
 50
54.1058216580743974
 51
93.0090118957102447
  0
ARC
  5
A720
  8
0
 10
120.2673732337745065
 20
-32.4390278905728522
 30
0.0
 40
0.0486914232084985
 50
20.0761028234346384
 51
54.105821658074511
  0
ARC
  5
A721
  8
0
 10
120.269849718389807
 20
-32.4356235130485615
 30
0.0
 40
0.0452577210265095
 50
323.0137843649113165
 51
17.1029591936898306
  0
ARC
  5
A722
  8
0
 10
119.5316784795673044
 20
-30.7743342946397114
 30
0.0
 40
0.0208795163170247
 50
93.3370469815975241
 51
135.8231124468441919
  0
ARC
  5
A723
  8
0
 10
119.5260423205062068
 20
-30.7688577913178882
 30
0.0
 40
0.0130208664586923
 50
135.8231124468422877
 51
170.3177093776407105
  0
ARC
  5
A724
  8
0
 10
119.5271930394369946
 20
-30.7690541212619308
 30
0.0
 40
0.0141882136669251
 50
170.3177093776347135
 51
239.9233959392755082
  0
ARC
  5
A725
  8
0
 10
119.5339299261014929
 20
-30.7574214367386212
 30
0.0
 40
0.0276308693252965
 50
239.9233959392728082
 51
269.0873498852171792
  0
ARC
  5
A726
  8
0
 10
119.5337982831726009
 20
-30.7656852239006113
 30
0.0
 40
0.0193660336875146
 50
269.0873498852171792
 51
328.6199300627341131
  0
ARC
  5
A727
  8
0
 10
119.5397165971357936
 20
-30.7692949530772601
 30
0.0
 40
0.0124337479970251
 50
328.6199300627362163
 51
41.0939130425097616
  0
ARC
  5
A728
  8
0
 10
119.5321619602938057
 20
-30.7758838696126986
 30
0.0
 40
0.0224580364468308
 50
41.0939130425089232
 51
94.3383588053239635
  0
ARC
  5
A729
  8
0
 10
119.5305334077315962
 20
-30.7749045712895111
 30
0.0
 40
0.0563345438779192
 50
85.4148006329620699
 51
157.5203356221271918
  0
ARC
  5
A72A
  8
0
 10
119.5164930825442013
 20
-30.7633619888108782
 30
0.0
 40
0.0393062691072688
 50
165.2653930802588889
 51
208.6488770547393869
  0
ARC
  5
A72B
  8
0
 10
119.5314710234339941
 20
-30.752813033499141
 30
0.0
 40
0.0575455985621572
 50
210.7167697712934
 51
272.3544484492562106
  0
ARC
  5
A72C
  8
0
 10
119.5351197435174981
 20
-30.7540659138218793
 30
0.0
 40
0.056258808283494
 50
268.6915356913472124
 51
328.1217801360376143
  0
ARC
  5
A72D
  8
0
 10
119.5483161244921035
 20
-30.7639233040865285
 30
0.0
 40
0.0398715991608819
 50
330.1360321196959831
 51
62.03309837041121
  0
ARC
  5
A72E
  8
0
 10
119.5325760829967976
 20
-30.782977102993879
 30
0.0
 40
0.0642739045012947
 50
57.6014746125756503
 51
87.805839086943763
  0
ARC
  5
A72F
  8
0
 10
119.5307241195535966
 20
-30.7719221351960286
 30
0.0
 40
0.0886044800564175
 50
88.5943161231071343
 51
141.3497144687364084
  0
ARC
  5
A730
  8
0
 10
119.511236749177499
 20
-30.7514583598282982
 30
0.0
 40
0.0607240893827736
 50
144.9474613438129893
 51
238.7996856343069112
  0
ARC
  5
A731
  8
0
 10
119.5348623730239979
 20
-30.7218484296545284
 30
0.0
 40
0.0984106553289854
 50
235.9634126799149101
 51
286.0698666186505079
  0
ARC
  5
A732
  8
0
 10
119.5473618947109031
 20
-30.7483432669919985
 30
0.0
 40
0.0696483403501343
 50
282.219394984700898
 51
356.5017464874068764
  0
ARC
  5
A733
  8
0
 10
119.5389212939533934
 20
-30.7615893179952415
 30
0.0
 40
0.0784765147087815
 50
6.5826355828603553
 51
94.4021564177029262
  0
ARC
  5
A734
  8
0
 10
119.5303746201461053
 20
-30.7588192306215511
 30
0.0
 40
0.066910127656693
 50
90.6618320330815664
 51
141.9036086172480111
  0
ARC
  5
A735
  8
0
 10
119.5049125383526984
 20
-30.7388569977436212
 30
0.0
 40
0.0345557098636452
 50
141.9036086172474995
 51
194.9434152272488916
  0
ARC
  5
A736
  8
0
 10
119.5580165127354064
 20
-30.7246840262064396
 30
0.0
 40
0.0895184719616329
 50
194.9434152272488916
 51
205.4537070393168108
  0
ARC
  5
A737
  8
0
 10
119.533556888884803
 20
-30.7671557000461604
 30
0.0
 40
0.0753460135098222
 50
54.1058216580743974
 51
93.0090118957102447
  0
ARC
  5
A738
  8
0
 10
119.5491842099046949
 20
-30.74556278403481
 30
0.0
 40
0.0486914232084985
 50
20.0761028234346384
 51
54.105821658074511
  0
ARC
  5
A739
  8
0
 10
119.5516606945199953
 20
-30.7421584065105193
 30
0.0
 40
0.0452577210265095
 50
323.0137843649113165
 51
17.1029591936898306
  0
ARC
  5
A73A
  8
0
 10
120.9796644455604024
 20
-30.4425750144696003
 30
0.0
 40
0.0208795163170247
 50
44.1768875531557583
 51
86.6629530184024759
  0
ARC
  5
A73B
  8
0
 10
120.9853006046215
 20
-30.4370985111477808
 30
0.0
 40
0.0130208664586923
 50
9.6822906223593002
 51
44.1768875531574707
  0
ARC
  5
A73C
  8
0
 10
120.9841498856907975
 20
-30.4372948410918092
 30
0.0
 40
0.0141882136669251
 50
300.0766040607244918
 51
9.6822906223652545
  0
ARC
  5
A73D
  8
0
 10
120.9774129990261997
 20
-30.4256621565684995
 30
0.0
 40
0.0276308693252965
 50
270.9126501147828208
 51
300.0766040607264244
  0
ARC
  5
A73E
  8
0
 10
120.9775446419551059
 20
-30.4339259437305003
 30
0.0
 40
0.0193660336875146
 50
211.3800699372656879
 51
270.9126501147828208
  0
ARC
  5
A73F
  8
0
 10
120.9716263279919986
 20
-30.4375356729071491
 30
0.0
 40
0.0124337479970251
 50
138.9060869574902028
 51
211.3800699372631868
  0
ARC
  5
A740
  8
0
 10
120.9791809648340006
 20
-30.4441245894425805
 30
0.0
 40
0.0224580364468308
 50
85.6616411946760365
 51
138.9060869574911123
  0
ARC
  5
A741
  8
0
 10
120.9808095173960965
 20
-30.4431452911194
 30
0.0
 40
0.0563345438779192
 50
22.4796643778728011
 51
94.5851993670379159
  0
ARC
  5
A742
  8
0
 10
120.994849842583605
 20
-30.4316027086407708
 30
0.0
 40
0.0393062691072688
 50
331.3511229452604994
 51
14.7346069197413101
  0
ARC
  5
A743
  8
0
 10
120.979871901693798
 20
-30.4210537533290299
 30
0.0
 40
0.0575455985621572
 50
267.6455515507437894
 51
329.2832302287066
  0
ARC
  5
A744
  8
0
 10
120.9762231816101945
 20
-30.4223066336517682
 30
0.0
 40
0.056258808283494
 50
211.8782198639621868
 51
271.3084643086526739
  0
ARC
  5
A745
  8
0
 10
120.9630268006356033
 20
-30.4321640239164104
 30
0.0
 40
0.0398715991608819
 50
117.9669016295888042
 51
209.8639678803037896
  0
ARC
  5
A746
  8
0
 10
120.9787668421309945
 20
-30.4512178228237715
 30
0.0
 40
0.0642739045012947
 50
92.1941609130562512
 51
122.3985253874243
  0
ARC
  5
A747
  8
0
 10
120.9806188055740961
 20
-30.4401628550259105
 30
0.0
 40
0.0886044800564175
 50
38.6502855312636129
 51
91.4056838768928657
  0
ARC
  5
A748
  8
0
 10
121.0001061759502932
 20
-30.4196990796581801
 30
0.0
 40
0.0607240893827736
 50
301.2003143656930888
 51
35.052538656186961
  0
ARC
  5
A749
  8
0
 10
120.9764805521036948
 20
-30.3900891494844103
 30
0.0
 40
0.0984106553289854
 50
253.9301333813494068
 51
304.0365873200851183
  0
ARC
  5
A74A
  8
0
 10
120.9639810304169032
 20
-30.416583986821891
 30
0.0
 40
0.0696483403501343
 50
183.4982535125930951
 51
257.7806050152989883
  0
ARC
  5
A74B
  8
0
 10
120.9724216311742993
 20
-30.4298300378251305
 30
0.0
 40
0.0784765147087815
 50
85.597843582297088
 51
173.4173644171395949
  0
ARC
  5
A74C
  8
0
 10
120.9809683049817011
 20
-30.4270599504514294
 30
0.0
 40
0.066910127656693
 50
38.0963913827520315
 51
89.3381679669184336
  0
ARC
  5
A74D
  8
0
 10
121.0064303867750937
 20
-30.4070977175735102
 30
0.0
 40
0.0345557098636452
 50
345.0565847727510231
 51
38.0963913827525005
  0
ARC
  5
A74E
  8
0
 10
120.9533264123923004
 20
-30.3929247460363214
 30
0.0
 40
0.0895184719616329
 50
334.5462929606832176
 51
345.0565847727510231
  0
ARC
  5
A74F
  8
0
 10
120.9777860362429038
 20
-30.4353964198760387
 30
0.0
 40
0.0753460135098222
 50
86.9909881042897553
 51
125.8941783419255955
  0
ARC
  5
A750
  8
0
 10
120.9621587152229978
 20
-30.4138035038646883
 30
0.0
 40
0.0486914232084985
 50
125.8941783419254961
 51
159.9238971765653048
  0
ARC
  5
A751
  8
0
 10
120.9596822306077968
 20
-30.4103991263404083
 30
0.0
 40
0.0452577210265095
 50
162.8970408063102013
 51
216.986215635088513
  0
ARC
  5
A752
  8
0
 10
121.0310566589143946
 20
-30.7816708635292997
 30
0.0
 40
0.0208795163170247
 50
44.1768875531557583
 51
86.6629530184024759
  0
ARC
  5
A753
  8
0
 10
121.0366928179755064
 20
-30.7761943602074801
 30
0.0
 40
0.0130208664586923
 50
9.6822906223593002
 51
44.1768875531574707
  0
ARC
  5
A754
  8
0
 10
121.0355420990447044
 20
-30.7763906901515192
 30
0.0
 40
0.0141882136669251
 50
300.0766040607244918
 51
9.6822906223652545
  0
ARC
  5
A755
  8
0
 10
121.0288052123801066
 20
-30.7647580056281988
 30
0.0
 40
0.0276308693252965
 50
270.9126501147828208
 51
300.0766040607264244
  0
ARC
  5
A756
  8
0
 10
121.0289368553089986
 20
-30.7730217927901997
 30
0.0
 40
0.0193660336875146
 50
211.3800699372656879
 51
270.9126501147828208
  0
ARC
  5
A757
  8
0
 10
121.0230185413459054
 20
-30.7766315219668485
 30
0.0
 40
0.0124337479970251
 50
138.9060869574902028
 51
211.3800699372631868
  0
ARC
  5
A758
  8
0
 10
121.0305731781878933
 20
-30.7832204385022798
 30
0.0
 40
0.0224580364468308
 50
85.6616411946760365
 51
138.9060869574911123
  0
ARC
  5
A759
  8
0
 10
121.0322017307500033
 20
-30.7822411401790994
 30
0.0
 40
0.0563345438779192
 50
22.4796643778728011
 51
94.5851993670379159
  0
ARC
  5
A75A
  8
0
 10
121.0462420559374976
 20
-30.7706985577004701
 30
0.0
 40
0.0393062691072688
 50
331.3511229452604994
 51
14.7346069197413101
  0
ARC
  5
A75B
  8
0
 10
121.0312641150477049
 20
-30.7601496023887293
 30
0.0
 40
0.0575455985621572
 50
267.6455515507437894
 51
329.2832302287066
  0
ARC
  5
A75C
  8
0
 10
121.0276153949642008
 20
-30.7614024827114712
 30
0.0
 40
0.056258808283494
 50
211.8782198639621868
 51
271.3084643086526739
  0
ARC
  5
A75D
  8
0
 10
121.014419013989496
 20
-30.7712598729761098
 30
0.0
 40
0.0398715991608819
 50
117.9669016295888042
 51
209.8639678803037896
  0
ARC
  5
A75E
  8
0
 10
121.0301590554849014
 20
-30.7903136718834709
 30
0.0
 40
0.0642739045012947
 50
92.1941609130562512
 51
122.3985253874243
  0
ARC
  5
A75F
  8
0
 10
121.032011018928003
 20
-30.7792587040856205
 30
0.0
 40
0.0886044800564175
 50
38.6502855312636129
 51
91.4056838768928657
  0
ARC
  5
A760
  8
0
 10
121.0514983893042
 20
-30.7587949287178795
 30
0.0
 40
0.0607240893827736
 50
301.2003143656930888
 51
35.052538656186961
  0
ARC
  5
A761
  8
0
 10
121.0278727654576016
 20
-30.7291849985441203
 30
0.0
 40
0.0984106553289854
 50
253.9301333813494068
 51
304.0365873200851183
  0
ARC
  5
A762
  8
0
 10
121.0153732437707959
 20
-30.7556798358815797
 30
0.0
 40
0.0696483403501343
 50
183.4982535125930951
 51
257.7806050152989883
  0
ARC
  5
A763
  8
0
 10
121.0238138445282061
 20
-30.7689258868848299
 30
0.0
 40
0.0784765147087815
 50
85.597843582297088
 51
173.4173644171395949
  0
ARC
  5
A764
  8
0
 10
121.0323605183355937
 20
-30.7661557995111394
 30
0.0
 40
0.066910127656693
 50
38.0963913827520315
 51
89.3381679669184336
  0
ARC
  5
A765
  8
0
 10
121.0578226001290005
 20
-30.7461935666331989
 30
0.0
 40
0.0345557098636452
 50
345.0565847727510231
 51
38.0963913827525005
  0
ARC
  5
A766
  8
0
 10
121.0047186257461931
 20
-30.7320205950960315
 30
0.0
 40
0.0895184719616329
 50
334.5462929606832176
 51
345.0565847727510231
  0
ARC
  5
A767
  8
0
 10
121.0291782495967965
 20
-30.7744922689357416
 30
0.0
 40
0.0753460135098222
 50
86.9909881042897553
 51
125.8941783419255955
  0
ARC
  5
A768
  8
0
 10
121.0135509285769047
 20
-30.7528993529243984
 30
0.0
 40
0.0486914232084985
 50
125.8941783419254961
 51
159.9238971765653048
  0
ARC
  5
A769
  8
0
 10
121.0110744439617037
 20
-30.7494949754001112
 30
0.0
 40
0.0452577210265095
 50
162.8970408063102013
 51
216.986215635088513
  0
ARC
  5
A76A
  8
0
 10
121.3746538416429956
 20
-30.5002152538777516
 30
0.0
 40
0.0208795163170247
 50
44.1768875531557583
 51
86.6629530184024759
  0
ARC
  5
A76B
  8
0
 10
121.3802900007040932
 20
-30.4947387505559284
 30
0.0
 40
0.0130208664586923
 50
9.6822906223593002
 51
44.1768875531574707
  0
ARC
  5
A76C
  8
0
 10
121.3791392817733055
 20
-30.494935080499971
 30
0.0
 40
0.0141882136669251
 50
300.0766040607244918
 51
9.6822906223652545
  0
ARC
  5
A76D
  8
0
 10
121.3724023951087929
 20
-30.4833023959766507
 30
0.0
 40
0.0276308693252965
 50
270.9126501147828208
 51
300.0766040607264244
  0
ARC
  5
A76E
  8
0
 10
121.3725340380376991
 20
-30.4915661831386515
 30
0.0
 40
0.0193660336875146
 50
211.3800699372656879
 51
270.9126501147828208
  0
ARC
  5
A76F
  8
0
 10
121.366615724074606
 20
-30.4951759123153003
 30
0.0
 40
0.0124337479970251
 50
138.9060869574902028
 51
211.3800699372631868
  0
ARC
  5
A770
  8
0
 10
121.3741703609164944
 20
-30.5017648288507317
 30
0.0
 40
0.0224580364468308
 50
85.6616411946760365
 51
138.9060869574911123
  0
ARC
  5
A771
  8
0
 10
121.3757989134787039
 20
-30.5007855305275513
 30
0.0
 40
0.0563345438779192
 50
22.4796643778728011
 51
94.5851993670379159
  0
ARC
  5
A772
  8
0
 10
121.3898392386660987
 20
-30.4892429480489184
 30
0.0
 40
0.0393062691072688
 50
331.3511229452604994
 51
14.7346069197413101
  0
ARC
  5
A773
  8
0
 10
121.3748612977763059
 20
-30.4786939927371812
 30
0.0
 40
0.0575455985621572
 50
267.6455515507437894
 51
329.2832302287066
  0
ARC
  5
A774
  8
0
 10
121.3712125776928019
 20
-30.4799468730599195
 30
0.0
 40
0.056258808283494
 50
211.8782198639621868
 51
271.3084643086526739
  0
ARC
  5
A775
  8
0
 10
121.358016196718097
 20
-30.4898042633245616
 30
0.0
 40
0.0398715991608819
 50
117.9669016295888042
 51
209.8639678803037896
  0
ARC
  5
A776
  8
0
 10
121.3737562382136019
 20
-30.5088580622319192
 30
0.0
 40
0.0642739045012947
 50
92.1941609130562512
 51
122.3985253874243
  0
ARC
  5
A777
  8
0
 10
121.375608201656604
 20
-30.4978030944340617
 30
0.0
 40
0.0886044800564175
 50
38.6502855312636129
 51
91.4056838768928657
  0
ARC
  5
A778
  8
0
 10
121.3950955720328011
 20
-30.4773393190663313
 30
0.0
 40
0.0607240893827736
 50
301.2003143656930888
 51
35.052538656186961
  0
ARC
  5
A779
  8
0
 10
121.3714699481863022
 20
-30.4477293888925615
 30
0.0
 40
0.0984106553289854
 50
253.9301333813494068
 51
304.0365873200851183
  0
ARC
  5
A77A
  8
0
 10
121.3589704264994964
 20
-30.4742242262300316
 30
0.0
 40
0.0696483403501343
 50
183.4982535125930951
 51
257.7806050152989883
  0
ARC
  5
A77B
  8
0
 10
121.3674110272569067
 20
-30.4874702772332817
 30
0.0
 40
0.0784765147087815
 50
85.597843582297088
 51
173.4173644171395949
  0
ARC
  5
A77C
  8
0
 10
121.3759577010641948
 20
-30.4847001898595913
 30
0.0
 40
0.066910127656693
 50
38.0963913827520315
 51
89.3381679669184336
  0
ARC
  5
A77D
  8
0
 10
121.4014197828576016
 20
-30.4647379569816508
 30
0.0
 40
0.0345557098636452
 50
345.0565847727510231
 51
38.0963913827525005
  0
ARC
  5
A77E
  8
0
 10
121.3483158084748936
 20
-30.4505649854444798
 30
0.0
 40
0.0895184719616329
 50
334.5462929606832176
 51
345.0565847727510231
  0
ARC
  5
A77F
  8
0
 10
121.3727754323253976
 20
-30.4930366592841899
 30
0.0
 40
0.0753460135098222
 50
86.9909881042897553
 51
125.8941783419255955
  0
ARC
  5
A780
  8
0
 10
121.3571481113056052
 20
-30.4714437432728502
 30
0.0
 40
0.0486914232084985
 50
125.8941783419254961
 51
159.9238971765653048
  0
ARC
  5
A781
  8
0
 10
121.3546716266903047
 20
-30.4680393657485595
 30
0.0
 40
0.0452577210265095
 50
162.8970408063102013
 51
216.986215635088513
  0
ARC
  5
A782
  8
0
 10
121.7238765421430031
 20
-30.6109454296777486
 30
0.0
 40
0.0208795163170247
 50
44.1768875531557583
 51
86.6629530184024759
  0
ARC
  5
A783
  8
0
 10
121.7295127012041007
 20
-30.605468926355929
 30
0.0
 40
0.0130208664586923
 50
9.6822906223593002
 51
44.1768875531574707
  0
ARC
  5
A784
  8
0
 10
121.7283619822732987
 20
-30.6056652562999609
 30
0.0
 40
0.0141882136669251
 50
300.0766040607244918
 51
9.6822906223652545
  0
ARC
  5
A785
  8
0
 10
121.7216250956088004
 20
-30.5940325717766513
 30
0.0
 40
0.0276308693252965
 50
270.9126501147828208
 51
300.0766040607264244
  0
ARC
  5
A786
  8
0
 10
121.7217567385377066
 20
-30.6022963589386485
 30
0.0
 40
0.0193660336875146
 50
211.3800699372656879
 51
270.9126501147828208
  0
ARC
  5
A787
  8
0
 10
121.7158384245745992
 20
-30.6059060881153009
 30
0.0
 40
0.0124337479970251
 50
138.9060869574902028
 51
211.3800699372631868
  0
ARC
  5
A788
  8
0
 10
121.7233930614165018
 20
-30.6124950046507287
 30
0.0
 40
0.0224580364468308
 50
85.6616411946760365
 51
138.9060869574911123
  0
ARC
  5
A789
  8
0
 10
121.7250216139786971
 20
-30.6115157063275483
 30
0.0
 40
0.0563345438779192
 50
22.4796643778728011
 51
94.5851993670379159
  0
ARC
  5
A78A
  8
0
 10
121.7390619391661062
 20
-30.599973123848919
 30
0.0
 40
0.0393062691072688
 50
331.3511229452604994
 51
14.7346069197413101
  0
ARC
  5
A78B
  8
0
 10
121.7240839982762992
 20
-30.5894241685371817
 30
0.0
 40
0.0575455985621572
 50
267.6455515507437894
 51
329.2832302287066
  0
ARC
  5
A78C
  8
0
 10
121.7204352781927952
 20
-30.59067704885992
 30
0.0
 40
0.056258808283494
 50
211.8782198639621868
 51
271.3084643086526739
  0
ARC
  5
A78D
  8
0
 10
121.707238897218204
 20
-30.6005344391245586
 30
0.0
 40
0.0398715991608819
 50
117.9669016295888042
 51
209.8639678803037896
  0
ARC
  5
A78E
  8
0
 10
121.7229789387134957
 20
-30.6195882380319198
 30
0.0
 40
0.0642739045012947
 50
92.1941609130562512
 51
122.3985253874243
  0
ARC
  5
A78F
  8
0
 10
121.7248309021566968
 20
-30.6085332702340587
 30
0.0
 40
0.0886044800564175
 50
38.6502855312636129
 51
91.4056838768928657
  0
ARC
  5
A790
  8
0
 10
121.7443182725328938
 20
-30.5880694948663283
 30
0.0
 40
0.0607240893827736
 50
301.2003143656930888
 51
35.052538656186961
  0
ARC
  5
A791
  8
0
 10
121.7206926486862955
 20
-30.5584595646925585
 30
0.0
 40
0.0984106553289854
 50
253.9301333813494068
 51
304.0365873200851183
  0
ARC
  5
A792
  8
0
 10
121.7081931269994044
 20
-30.5849544020300392
 30
0.0
 40
0.0696483403501343
 50
183.4982535125930951
 51
257.7806050152989883
  0
ARC
  5
A793
  8
0
 10
121.7166337277568999
 20
-30.5982004530332787
 30
0.0
 40
0.0784765147087815
 50
85.597843582297088
 51
173.4173644171395949
  0
ARC
  5
A794
  8
0
 10
121.7251804015642023
 20
-30.5954303656595883
 30
0.0
 40
0.066910127656693
 50
38.0963913827520315
 51
89.3381679669184336
  0
ARC
  5
A795
  8
0
 10
121.7506424833575949
 20
-30.5754681327816513
 30
0.0
 40
0.0345557098636452
 50
345.0565847727510231
 51
38.0963913827525005
  0
ARC
  5
A796
  8
0
 10
121.6975385089749011
 20
-30.5612951612444697
 30
0.0
 40
0.0895184719616329
 50
334.5462929606832176
 51
345.0565847727510231
  0
ARC
  5
A797
  8
0
 10
121.7219981328255045
 20
-30.6037668350841905
 30
0.0
 40
0.0753460135098222
 50
86.9909881042897553
 51
125.8941783419255955
  0
ARC
  5
A798
  8
0
 10
121.7063708118055985
 20
-30.5821739190728401
 30
0.0
 40
0.0486914232084985
 50
125.8941783419254961
 51
159.9238971765653048
  0
ARC
  5
A799
  8
0
 10
121.703894327190298
 20
-30.5787695415485601
 30
0.0
 40
0.0452577210265095
 50
162.8970408063102013
 51
216.986215635088513
  0
ARC
  5
A79A
  8
0
 10
121.5184638925429965
 20
-30.9031887914777492
 30
0.0
 40
0.0208795163170247
 50
44.1768875531557583
 51
86.6629530184024759
  0
ARC
  5
A79B
  8
0
 10
121.5241000516040941
 20
-30.8977122881559296
 30
0.0
 40
0.0130208664586923
 50
9.6822906223593002
 51
44.1768875531574707
  0
ARC
  5
A79C
  8
0
 10
121.5229493326733063
 20
-30.8979086180999616
 30
0.0
 40
0.0141882136669251
 50
300.0766040607244918
 51
9.6822906223652545
  0
ARC
  5
A79D
  8
0
 10
121.5162124460087938
 20
-30.8862759335766484
 30
0.0
 40
0.0276308693252965
 50
270.9126501147828208
 51
300.0766040607264244
  0
ARC
  5
A79E
  8
0
 10
121.5163440889377
 20
-30.8945397207386492
 30
0.0
 40
0.0193660336875146
 50
211.3800699372656879
 51
270.9126501147828208
  0
ARC
  5
A79F
  8
0
 10
121.5104257749744932
 20
-30.8981494499152909
 30
0.0
 40
0.0124337479970251
 50
138.9060869574902028
 51
211.3800699372631868
  0
ARC
  5
A7A0
  8
0
 10
121.5179804118164952
 20
-30.9047383664507294
 30
0.0
 40
0.0224580364468308
 50
85.6616411946760365
 51
138.9060869574911123
  0
ARC
  5
A7A1
  8
0
 10
121.5196089643787047
 20
-30.9037590681275383
 30
0.0
 40
0.0563345438779192
 50
22.4796643778728011
 51
94.5851993670379159
  0
ARC
  5
A7A2
  8
0
 10
121.5336492895661991
 20
-30.8922164856489196
 30
0.0
 40
0.0393062691072688
 50
331.3511229452604994
 51
14.7346069197413101
  0
ARC
  5
A7A3
  8
0
 10
121.5186713486763068
 20
-30.8816675303371788
 30
0.0
 40
0.0575455985621572
 50
267.6455515507437894
 51
329.2832302287066
  0
ARC
  5
A7A4
  8
0
 10
121.5150226285928028
 20
-30.88292041065991
 30
0.0
 40
0.056258808283494
 50
211.8782198639621868
 51
271.3084643086526739
  0
ARC
  5
A7A5
  8
0
 10
121.5018262476181974
 20
-30.8927778009245593
 30
0.0
 40
0.0398715991608819
 50
117.9669016295888042
 51
209.8639678803037896
  0
ARC
  5
A7A6
  8
0
 10
121.5175662891136028
 20
-30.9118315998319204
 30
0.0
 40
0.0642739045012947
 50
92.1941609130562512
 51
122.3985253874243
  0
ARC
  5
A7A7
  8
0
 10
121.5194182525566049
 20
-30.9007766320340593
 30
0.0
 40
0.0886044800564175
 50
38.6502855312636129
 51
91.4056838768928657
  0
ARC
  5
A7A8
  8
0
 10
121.5389056229329015
 20
-30.880312856666329
 30
0.0
 40
0.0607240893827736
 50
301.2003143656930888
 51
35.052538656186961
  0
ARC
  5
A7A9
  8
0
 10
121.5152799990863031
 20
-30.8507029264925592
 30
0.0
 40
0.0984106553289854
 50
253.9301333813494068
 51
304.0365873200851183
  0
ARC
  5
A7AA
  8
0
 10
121.5027804773993978
 20
-30.8771977638300292
 30
0.0
 40
0.0696483403501343
 50
183.4982535125930951
 51
257.7806050152989883
  0
ARC
  5
A7AB
  8
0
 10
121.5112210781568933
 20
-30.8904438148332794
 30
0.0
 40
0.0784765147087815
 50
85.597843582297088
 51
173.4173644171395949
  0
ARC
  5
A7AC
  8
0
 10
121.5197677519641957
 20
-30.8876737274595889
 30
0.0
 40
0.066910127656693
 50
38.0963913827520315
 51
89.3381679669184336
  0
ARC
  5
A7AD
  8
0
 10
121.545229833757702
 20
-30.8677114945816484
 30
0.0
 40
0.0345557098636452
 50
345.0565847727510231
 51
38.0963913827525005
  0
ARC
  5
A7AE
  8
0
 10
121.4921258593748945
 20
-30.8535385230444703
 30
0.0
 40
0.0895184719616329
 50
334.5462929606832176
 51
345.0565847727510231
  0
ARC
  5
A7AF
  8
0
 10
121.5165854832254979
 20
-30.8960101968841911
 30
0.0
 40
0.0753460135098222
 50
86.9909881042897553
 51
125.8941783419255955
  0
ARC
  5
A7B0
  8
0
 10
121.5009581622056061
 20
-30.8744172808728408
 30
0.0
 40
0.0486914232084985
 50
125.8941783419254961
 51
159.9238971765653048
  0
ARC
  5
A7B1
  8
0
 10
121.4984816775903056
 20
-30.8710129033485607
 30
0.0
 40
0.0452577210265095
 50
162.8970408063102013
 51
216.986215635088513
  0
ARC
  5
A7B2
  8
0
 10
121.3148725377429997
 20
-31.1811293145777491
 30
0.0
 40
0.0208795163170247
 50
44.1768875531557583
 51
86.6629530184024759
  0
ARC
  5
A7B3
  8
0
 10
121.3205086968040973
 20
-31.1756528112559295
 30
0.0
 40
0.0130208664586923
 50
9.6822906223593002
 51
44.1768875531574707
  0
ARC
  5
A7B4
  8
0
 10
121.3193579778732953
 20
-31.1758491411999614
 30
0.0
 40
0.0141882136669251
 50
300.0766040607244918
 51
9.6822906223652545
  0
ARC
  5
A7B5
  8
0
 10
121.312621091208797
 20
-31.1642164566766517
 30
0.0
 40
0.0276308693252965
 50
270.9126501147828208
 51
300.0766040607264244
  0
ARC
  5
A7B6
  8
0
 10
121.3127527341377032
 20
-31.172480243838649
 30
0.0
 40
0.0193660336875146
 50
211.3800699372656879
 51
270.9126501147828208
  0
ARC
  5
A7B7
  8
0
 10
121.3068344201745958
 20
-31.1760899730152907
 30
0.0
 40
0.0124337479970251
 50
138.9060869574902028
 51
211.3800699372631868
  0
ARC
  5
A7B8
  8
0
 10
121.3143890570164984
 20
-31.1826788895507292
 30
0.0
 40
0.0224580364468308
 50
85.6616411946760365
 51
138.9060869574911123
  0
ARC
  5
A7B9
  8
0
 10
121.3160176095786937
 20
-31.1816995912275416
 30
0.0
 40
0.0563345438779192
 50
22.4796643778728011
 51
94.5851993670379159
  0
ARC
  5
A7BA
  8
0
 10
121.3300579347661028
 20
-31.1701570087489195
 30
0.0
 40
0.0393062691072688
 50
331.3511229452604994
 51
14.7346069197413101
  0
ARC
  5
A7BB
  8
0
 10
121.3150799938762958
 20
-31.1596080534371787
 30
0.0
 40
0.0575455985621572
 50
267.6455515507437894
 51
329.2832302287066
  0
ARC
  5
A7BC
  8
0
 10
121.311431273792806
 20
-31.1608609337599098
 30
0.0
 40
0.056258808283494
 50
211.8782198639621868
 51
271.3084643086526739
  0
ARC
  5
A7BD
  8
0
 10
121.2982348928182006
 20
-31.1707183240245591
 30
0.0
 40
0.0398715991608819
 50
117.9669016295888042
 51
209.8639678803037896
  0
ARC
  5
A7BE
  8
0
 10
121.3139749343135065
 20
-31.1897721229319203
 30
0.0
 40
0.0642739045012947
 50
92.1941609130562512
 51
122.3985253874243
  0
ARC
  5
A7BF
  8
0
 10
121.3158268977566934
 20
-31.1787171551340592
 30
0.0
 40
0.0886044800564175
 50
38.6502855312636129
 51
91.4056838768928657
  0
ARC
  5
A7C0
  8
0
 10
121.3353142681329047
 20
-31.1582533797663288
 30
0.0
 40
0.0607240893827736
 50
301.2003143656930888
 51
35.052538656186961
  0
ARC
  5
A7C1
  8
0
 10
121.3116886442863063
 20
-31.128643449592559
 30
0.0
 40
0.0984106553289854
 50
253.9301333813494068
 51
304.0365873200851183
  0
ARC
  5
A7C2
  8
0
 10
121.299189122599401
 20
-31.1551382869300291
 30
0.0
 40
0.0696483403501343
 50
183.4982535125930951
 51
257.7806050152989883
  0
ARC
  5
A7C3
  8
0
 10
121.3076297233568965
 20
-31.1683843379332792
 30
0.0
 40
0.0784765147087815
 50
85.597843582297088
 51
173.4173644171395949
  0
ARC
  5
A7C4
  8
0
 10
121.3161763971641989
 20
-31.1656142505595888
 30
0.0
 40
0.066910127656693
 50
38.0963913827520315
 51
89.3381679669184336
  0
ARC
  5
A7C5
  8
0
 10
121.3416384789576057
 20
-31.1456520176816483
 30
0.0
 40
0.0345557098636452
 50
345.0565847727510231
 51
38.0963913827525005
  0
ARC
  5
A7C6
  8
0
 10
121.2885345045748977
 20
-31.1314790461444701
 30
0.0
 40
0.0895184719616329
 50
334.5462929606832176
 51
345.0565847727510231
  0
ARC
  5
A7C7
  8
0
 10
121.3129941284255011
 20
-31.173950719984191
 30
0.0
 40
0.0753460135098222
 50
86.9909881042897553
 51
125.8941783419255955
  0
ARC
  5
A7C8
  8
0
 10
121.2973668074055951
 20
-31.1523578039728513
 30
0.0
 40
0.0486914232084985
 50
125.8941783419254961
 51
159.9238971765653048
  0
ARC
  5
A7C9
  8
0
 10
121.2948903227902946
 20
-31.1489534264485606
 30
0.0
 40
0.0452577210265095
 50
162.8970408063102013
 51
216.986215635088513
  0
ARC
  5
A7CA
  8
0
 10
121.1032578860128979
 20
-31.4628759017352309
 30
0.0
 40
0.0208795163170247
 50
44.1768875531557583
 51
86.6629530184024759
  0
ARC
  5
A7CB
  8
0
 10
121.108894045073896
 20
-31.4573993984134113
 30
0.0
 40
0.0130208664586923
 50
9.6822906223593002
 51
44.1768875531574707
  0
ARC
  5
A7CC
  8
0
 10
121.1077433261431935
 20
-31.4575957283574503
 30
0.0
 40
0.0141882136669251
 50
300.0766040607244918
 51
9.6822906223652545
  0
ARC
  5
A7CD
  8
0
 10
121.1010064394785957
 20
-31.44596304383413
 30
0.0
 40
0.0276308693252965
 50
270.9126501147828208
 51
300.0766040607264244
  0
ARC
  5
A7CE
  8
0
 10
121.1011380824075019
 20
-31.4542268309961308
 30
0.0
 40
0.0193660336875146
 50
211.3800699372656879
 51
270.9126501147828208
  0
ARC
  5
A7CF
  8
0
 10
121.0952197684443945
 20
-31.4578365601727796
 30
0.0
 40
0.0124337479970251
 50
138.9060869574902028
 51
211.3800699372631868
  0
ARC
  5
A7D0
  8
0
 10
121.1027744052863966
 20
-31.464425476708211
 30
0.0
 40
0.0224580364468308
 50
85.6616411946760365
 51
138.9060869574911123
  0
ARC
  5
A7D1
  8
0
 10
121.1044029578485066
 20
-31.4634461783850305
 30
0.0
 40
0.0563345438779192
 50
22.4796643778728011
 51
94.5851993670379159
  0
ARC
  5
A7D2
  8
0
 10
121.1184432830360009
 20
-31.4519035959064013
 30
0.0
 40
0.0393062691072688
 50
331.3511229452604994
 51
14.7346069197413101
  0
ARC
  5
A7D3
  8
0
 10
121.103465342146194
 20
-31.4413546405946605
 30
0.0
 40
0.0575455985621572
 50
267.6455515507437894
 51
329.2832302287066
  0
ARC
  5
A7D4
  8
0
 10
121.0998166220626047
 20
-31.4426075209173987
 30
0.0
 40
0.056258808283494
 50
211.8782198639621868
 51
271.3084643086526739
  0
ARC
  5
A7D5
  8
0
 10
121.0866202410879993
 20
-31.4524649111820409
 30
0.0
 40
0.0398715991608819
 50
117.9669016295888042
 51
209.8639678803037896
  0
ARC
  5
A7D6
  8
0
 10
121.1023602825834047
 20
-31.4715187100894092
 30
0.0
 40
0.0642739045012947
 50
92.1941609130562512
 51
122.3985253874243
  0
ARC
  5
A7D7
  8
0
 10
121.1042122460265063
 20
-31.460463742291541
 30
0.0
 40
0.0886044800564175
 50
38.6502855312636129
 51
91.4056838768928657
  0
ARC
  5
A7D8
  8
0
 10
121.1236996164027033
 20
-31.4399999669238106
 30
0.0
 40
0.0607240893827736
 50
301.2003143656930888
 51
35.052538656186961
  0
ARC
  5
A7D9
  8
0
 10
121.1000739925561049
 20
-31.4103900367500408
 30
0.0
 40
0.0984106553289854
 50
253.9301333813494068
 51
304.0365873200851183
  0
ARC
  5
A7DA
  8
0
 10
121.0875744708692991
 20
-31.4368848740875215
 30
0.0
 40
0.0696483403501343
 50
183.4982535125930951
 51
257.7806050152989883
  0
ARC
  5
A7DB
  8
0
 10
121.0960150716266952
 20
-31.450130925090761
 30
0.0
 40
0.0784765147087815
 50
85.597843582297088
 51
173.4173644171395949
  0
ARC
  5
A7DC
  8
0
 10
121.104561745434097
 20
-31.4473608377170706
 30
0.0
 40
0.066910127656693
 50
38.0963913827520315
 51
89.3381679669184336
  0
ARC
  5
A7DD
  8
0
 10
121.1300238272275038
 20
-31.4273986048391407
 30
0.0
 40
0.0345557098636452
 50
345.0565847727510231
 51
38.0963913827525005
  0
ARC
  5
A7DE
  8
0
 10
121.0769198528446964
 20
-31.413225633301959
 30
0.0
 40
0.0895184719616329
 50
334.5462929606832176
 51
345.0565847727510231
  0
ARC
  5
A7DF
  8
0
 10
121.1013794766952998
 20
-31.4556973071416692
 30
0.0
 40
0.0753460135098222
 50
86.9909881042897553
 51
125.8941783419255955
  0
ARC
  5
A7E0
  8
0
 10
121.0857521556753937
 20
-31.4341043911303295
 30
0.0
 40
0.0486914232084985
 50
125.8941783419254961
 51
159.9238971765653048
  0
ARC
  5
A7E1
  8
0
 10
121.0832756710600933
 20
-31.4307000136060388
 30
0.0
 40
0.0452577210265095
 50
162.8970408063102013
 51
216.986215635088513
  0
ARC
  5
A7E2
  8
0
 10
121.7014235101499935
 20
-31.4513634989365407
 30
0.0
 40
0.0208795163170247
 50
44.1768875531557583
 51
86.6629530184024759
  0
ARC
  5
A7E3
  8
0
 10
121.7070596692111053
 20
-31.4458869956147318
 30
0.0
 40
0.0130208664586923
 50
9.6822906223593002
 51
44.1768875531574707
  0
ARC
  5
A7E4
  8
0
 10
121.7059089502803033
 20
-31.4460833255587602
 30
0.0
 40
0.0141882136669251
 50
300.0766040607244918
 51
9.6822906223652545
  0
ARC
  5
A7E5
  8
0
 10
121.699172063615805
 20
-31.4344506410354505
 30
0.0
 40
0.0276308693252965
 50
270.9126501147828208
 51
300.0766040607264244
  0
ARC
  5
A7E6
  8
0
 10
121.6993037065445975
 20
-31.4427144281974513
 30
0.0
 40
0.0193660336875146
 50
211.3800699372656879
 51
270.9126501147828208
  0
ARC
  5
A7E7
  8
0
 10
121.6933853925815043
 20
-31.4463241573740895
 30
0.0
 40
0.0124337479970251
 50
138.9060869574902028
 51
211.3800699372631868
  0
ARC
  5
A7E8
  8
0
 10
121.7009400294235064
 20
-31.4529130739095315
 30
0.0
 40
0.0224580364468308
 50
85.6616411946760365
 51
138.9060869574911123
  0
ARC
  5
A7E9
  8
0
 10
121.7025685819856022
 20
-31.4519337755863404
 30
0.0
 40
0.0563345438779192
 50
22.4796643778728011
 51
94.5851993670379159
  0
ARC
  5
A7EA
  8
0
 10
121.7166089071730966
 20
-31.4403911931077182
 30
0.0
 40
0.0393062691072688
 50
331.3511229452604994
 51
14.7346069197413101
  0
ARC
  5
A7EB
  8
0
 10
121.7016309662833038
 20
-31.429842237795981
 30
0.0
 40
0.0575455985621572
 50
267.6455515507437894
 51
329.2832302287066
  0
ARC
  5
A7EC
  8
0
 10
121.6979822461997998
 20
-31.4310951181187086
 30
0.0
 40
0.056258808283494
 50
211.8782198639621868
 51
271.3084643086526739
  0
ARC
  5
A7ED
  8
0
 10
121.6847858652250949
 20
-31.4409525083833614
 30
0.0
 40
0.0398715991608819
 50
117.9669016295888042
 51
209.8639678803037896
  0
ARC
  5
A7EE
  8
0
 10
121.7005259067205003
 20
-31.4600063072907083
 30
0.0
 40
0.0642739045012947
 50
92.1941609130562512
 51
122.3985253874243
  0
ARC
  5
A7EF
  8
0
 10
121.7023778701636019
 20
-31.4489513394928615
 30
0.0
 40
0.0886044800564175
 50
38.6502855312636129
 51
91.4056838768928657
  0
ARC
  5
A7F0
  8
0
 10
121.7218652405397989
 20
-31.4284875641251311
 30
0.0
 40
0.0607240893827736
 50
301.2003143656930888
 51
35.052538656186961
  0
ARC
  5
A7F1
  8
0
 10
121.6982396166933
 20
-31.3988776339513613
 30
0.0
 40
0.0984106553289854
 50
253.9301333813494068
 51
304.0365873200851183
  0
ARC
  5
A7F2
  8
0
 10
121.6857400950063948
 20
-31.4253724712888314
 30
0.0
 40
0.0696483403501343
 50
183.4982535125930951
 51
257.7806050152989883
  0
ARC
  5
A7F3
  8
0
 10
121.6941806957639045
 20
-31.4386185222920709
 30
0.0
 40
0.0784765147087815
 50
85.597843582297088
 51
173.4173644171395949
  0
ARC
  5
A7F4
  8
0
 10
121.7027273695712069
 20
-31.4358484349183804
 30
0.0
 40
0.066910127656693
 50
38.0963913827520315
 51
89.3381679669184336
  0
ARC
  5
A7F5
  8
0
 10
121.7281894513645994
 20
-31.4158862020404506
 30
0.0
 40
0.0345557098636452
 50
345.0565847727510231
 51
38.0963913827525005
  0
ARC
  5
A7F6
  8
0
 10
121.6750854769818062
 20
-31.4017132305032689
 30
0.0
 40
0.0895184719616329
 50
334.5462929606832176
 51
345.0565847727510231
  0
ARC
  5
A7F7
  8
0
 10
121.6995451008323954
 20
-31.4441849043429897
 30
0.0
 40
0.0753460135098222
 50
86.9909881042897553
 51
125.8941783419255955
  0
ARC
  5
A7F8
  8
0
 10
121.683917779812603
 20
-31.4225919883316394
 30
0.0
 40
0.0486914232084985
 50
125.8941783419254961
 51
159.9238971765653048
  0
ARC
  5
A7F9
  8
0
 10
121.6814412951973026
 20
-31.4191876108073593
 30
0.0
 40
0.0452577210265095
 50
162.8970408063102013
 51
216.986215635088513
  0
ARC
  5
A7FA
  8
0
 10
121.8979033145430009
 20
-31.1321865292777495
 30
0.0
 40
0.0208795163170247
 50
44.1768875531557583
 51
86.6629530184024759
  0
ARC
  5
A7FB
  8
0
 10
121.9035394736040985
 20
-31.12671002595593
 30
0.0
 40
0.0130208664586923
 50
9.6822906223593002
 51
44.1768875531574707
  0
ARC
  5
A7FC
  8
0
 10
121.9023887546732965
 20
-31.1269063558999584
 30
0.0
 40
0.0141882136669251
 50
300.0766040607244918
 51
9.6822906223652545
  0
ARC
  5
A7FD
  8
0
 10
121.8956518680087981
 20
-31.1152736713766487
 30
0.0
 40
0.0276308693252965
 50
270.9126501147828208
 51
300.0766040607264244
  0
ARC
  5
A7FE
  8
0
 10
121.8957835109377044
 20
-31.1235374585386495
 30
0.0
 40
0.0193660336875146
 50
211.3800699372656879
 51
270.9126501147828208
  0
ARC
  5
A7FF
  8
0
 10
121.889865196974597
 20
-31.1271471877152983
 30
0.0
 40
0.0124337479970251
 50
138.9060869574902028
 51
211.3800699372631868
  0
ARC
  5
A800
  8
0
 10
121.8974198338164996
 20
-31.1337361042507297
 30
0.0
 40
0.0224580364468308
 50
85.6616411946760365
 51
138.9060869574911123
  0
ARC
  5
A801
  8
0
 10
121.8990483863786949
 20
-31.1327568059275492
 30
0.0
 40
0.0563345438779192
 50
22.4796643778728011
 51
94.5851993670379159
  0
ARC
  5
A802
  8
0
 10
121.9130887115661039
 20
-31.12121422344892
 30
0.0
 40
0.0393062691072688
 50
331.3511229452604994
 51
14.7346069197413101
  0
ARC
  5
A803
  8
0
 10
121.898110770676297
 20
-31.1106652681371791
 30
0.0
 40
0.0575455985621572
 50
267.6455515507437894
 51
329.2832302287066
  0
ARC
  5
A804
  8
0
 10
121.8944620505927929
 20
-31.1119181484599103
 30
0.0
 40
0.056258808283494
 50
211.8782198639621868
 51
271.3084643086526739
  0
ARC
  5
A805
  8
0
 10
121.8812656696182017
 20
-31.1217755387245596
 30
0.0
 40
0.0398715991608819
 50
117.9669016295888042
 51
209.8639678803037896
  0
ARC
  5
A806
  8
0
 10
121.8970057111134935
 20
-31.1408293376319207
 30
0.0
 40
0.0642739045012947
 50
92.1941609130562512
 51
122.3985253874243
  0
ARC
  5
A807
  8
0
 10
121.8988576745566945
 20
-31.1297743698340703
 30
0.0
 40
0.0886044800564175
 50
38.6502855312636129
 51
91.4056838768928657
  0
ARC
  5
A808
  8
0
 10
121.9183450449329058
 20
-31.1093105944663293
 30
0.0
 40
0.0607240893827736
 50
301.2003143656930888
 51
35.052538656186961
  0
ARC
  5
A809
  8
0
 10
121.8947194210862932
 20
-31.0797006642925702
 30
0.0
 40
0.0984106553289854
 50
253.9301333813494068
 51
304.0365873200851183
  0
ARC
  5
A80A
  8
0
 10
121.8822198993994022
 20
-31.1061955016300296
 30
0.0
 40
0.0696483403501343
 50
183.4982535125930951
 51
257.7806050152989883
  0
ARC
  5
A80B
  8
0
 10
121.8906605001568977
 20
-31.1194415526332797
 30
0.0
 40
0.0784765147087815
 50
85.597843582297088
 51
173.4173644171395949
  0
ARC
  5
A80C
  8
0
 10
121.8992071739642
 20
-31.1166714652595893
 30
0.0
 40
0.066910127656693
 50
38.0963913827520315
 51
89.3381679669184336
  0
ARC
  5
A80D
  8
0
 10
121.9246692557576068
 20
-31.0967092323816487
 30
0.0
 40
0.0345557098636452
 50
345.0565847727510231
 51
38.0963913827525005
  0
ARC
  5
A80E
  8
0
 10
121.8715652813748989
 20
-31.0825362608444813
 30
0.0
 40
0.0895184719616329
 50
334.5462929606832176
 51
345.0565847727510231
  0
ARC
  5
A80F
  8
0
 10
121.8960249052255023
 20
-31.1250079346841915
 30
0.0
 40
0.0753460135098222
 50
86.9909881042897553
 51
125.8941783419255955
  0
ARC
  5
A810
  8
0
 10
121.8803975842055962
 20
-31.1034150186728517
 30
0.0
 40
0.0486914232084985
 50
125.8941783419254961
 51
159.9238971765653048
  0
ARC
  5
A811
  8
0
 10
121.8779210995902957
 20
-31.1000106411485611
 30
0.0
 40
0.0452577210265095
 50
162.8970408063102013
 51
216.986215635088513
  0
ARC
  5
A812
  8
0
 10
122.2984013189399946
 20
-30.9764339326658913
 30
0.0
 40
0.0208795163170247
 50
44.1768875531557583
 51
86.6629530184024759
  0
ARC
  5
A813
  8
0
 10
122.3040374780011064
 20
-30.9709574293440717
 30
0.0
 40
0.0130208664586923
 50
9.6822906223593002
 51
44.1768875531574707
  0
ARC
  5
A814
  8
0
 10
122.3028867590703044
 20
-30.9711537592881001
 30
0.0
 40
0.0141882136669251
 50
300.0766040607244918
 51
9.6822906223652545
  0
ARC
  5
A815
  8
0
 10
122.296149872405806
 20
-30.9595210747647904
 30
0.0
 40
0.0276308693252965
 50
270.9126501147828208
 51
300.0766040607264244
  0
ARC
  5
A816
  8
0
 10
122.296281515334698
 20
-30.9677848619267913
 30
0.0
 40
0.0193660336875146
 50
211.3800699372656879
 51
270.9126501147828208
  0
ARC
  5
A817
  8
0
 10
122.2903632013716049
 20
-30.9713945911034401
 30
0.0
 40
0.0124337479970251
 50
138.9060869574902028
 51
211.3800699372631868
  0
ARC
  5
A818
  8
0
 10
122.2979178382134933
 20
-30.9779835076388714
 30
0.0
 40
0.0224580364468308
 50
85.6616411946760365
 51
138.9060869574911123
  0
ARC
  5
A819
  8
0
 10
122.2995463907757028
 20
-30.9770042093156803
 30
0.0
 40
0.0563345438779192
 50
22.4796643778728011
 51
94.5851993670379159
  0
ARC
  5
A81A
  8
0
 10
122.3135867159630976
 20
-30.9654616268370617
 30
0.0
 40
0.0393062691072688
 50
331.3511229452604994
 51
14.7346069197413101
  0
ARC
  5
A81B
  8
0
 10
122.2986087750733049
 20
-30.9549126715253209
 30
0.0
 40
0.0575455985621572
 50
267.6455515507437894
 51
329.2832302287066
  0
ARC
  5
A81C
  8
0
 10
122.2949600549898008
 20
-30.9561655518480592
 30
0.0
 40
0.056258808283494
 50
211.8782198639621868
 51
271.3084643086526739
  0
ARC
  5
A81D
  8
0
 10
122.2817636740150959
 20
-30.9660229421127013
 30
0.0
 40
0.0398715991608819
 50
117.9669016295888042
 51
209.8639678803037896
  0
ARC
  5
A81E
  8
0
 10
122.2975037155106008
 20
-30.9850767410200589
 30
0.0
 40
0.0642739045012947
 50
92.1941609130562512
 51
122.3985253874243
  0
ARC
  5
A81F
  8
0
 10
122.2993556789536029
 20
-30.9740217732222085
 30
0.0
 40
0.0886044800564175
 50
38.6502855312636129
 51
91.4056838768928657
  0
ARC
  5
A820
  8
0
 10
122.3188430493298
 20
-30.953557997854471
 30
0.0
 40
0.0607240893827736
 50
301.2003143656930888
 51
35.052538656186961
  0
ARC
  5
A821
  8
0
 10
122.2952174254833011
 20
-30.9239480676807013
 30
0.0
 40
0.0984106553289854
 50
253.9301333813494068
 51
304.0365873200851183
  0
ARC
  5
A822
  8
0
 10
122.2827179037964953
 20
-30.9504429050181713
 30
0.0
 40
0.0696483403501343
 50
183.4982535125930951
 51
257.7806050152989883
  0
ARC
  5
A823
  8
0
 10
122.2911585045539056
 20
-30.9636889560214215
 30
0.0
 40
0.0784765147087815
 50
85.597843582297088
 51
173.4173644171395949
  0
ARC
  5
A824
  8
0
 10
122.2997051783611937
 20
-30.960918868647731
 30
0.0
 40
0.066910127656693
 50
38.0963913827520315
 51
89.3381679669184336
  0
ARC
  5
A825
  8
0
 10
122.3251672601546005
 20
-30.9409566357697905
 30
0.0
 40
0.0345557098636452
 50
345.0565847727510231
 51
38.0963913827525005
  0
ARC
  5
A826
  8
0
 10
122.2720632857719067
 20
-30.9267836642326195
 30
0.0
 40
0.0895184719616329
 50
334.5462929606832176
 51
345.0565847727510231
  0
ARC
  5
A827
  8
0
 10
122.2965229096224959
 20
-30.9692553380723297
 30
0.0
 40
0.0753460135098222
 50
86.9909881042897553
 51
125.8941783419255955
  0
ARC
  5
A828
  8
0
 10
122.2808955886026041
 20
-30.9476624220609899
 30
0.0
 40
0.0486914232084985
 50
125.8941783419254961
 51
159.9238971765653048
  0
ARC
  5
A829
  8
0
 10
122.2784191039873036
 20
-30.9442580445366993
 30
0.0
 40
0.0452577210265095
 50
162.8970408063102013
 51
216.986215635088513
  0
ARC
  5
A82A
  8
0
 10
122.4983295412733071
 20
-31.214152552189379
 30
0.0
 40
0.0208795163170247
 50
44.1768875531557583
 51
86.6629530184024759
  0
ARC
  5
A82B
  8
0
 10
122.5039657003344047
 20
-31.2086760488675594
 30
0.0
 40
0.0130208664586923
 50
9.6822906223593002
 51
44.1768875531574707
  0
ARC
  5
A82C
  8
0
 10
122.5028149814036027
 20
-31.2088723788115985
 30
0.0
 40
0.0141882136669251
 50
300.0766040607244918
 51
9.6822906223652545
  0
ARC
  5
A82D
  8
0
 10
122.4960780947391044
 20
-31.1972396942882817
 30
0.0
 40
0.0276308693252965
 50
270.9126501147828208
 51
300.0766040607264244
  0
ARC
  5
A82E
  8
0
 10
122.4962097376679964
 20
-31.205503481450279
 30
0.0
 40
0.0193660336875146
 50
211.3800699372656879
 51
270.9126501147828208
  0
ARC
  5
A82F
  8
0
 10
122.4902914237049032
 20
-31.2091132106269313
 30
0.0
 40
0.0124337479970251
 50
138.9060869574902028
 51
211.3800699372631868
  0
ARC
  5
A830
  8
0
 10
122.4978460605468058
 20
-31.2157021271623591
 30
0.0
 40
0.0224580364468308
 50
85.6616411946760365
 51
138.9060869574911123
  0
ARC
  5
A831
  8
0
 10
122.4994746131090011
 20
-31.2147228288391787
 30
0.0
 40
0.0563345438779192
 50
22.4796643778728011
 51
94.5851993670379159
  0
ARC
  5
A832
  8
0
 10
122.5135149382963959
 20
-31.2031802463605494
 30
0.0
 40
0.0393062691072688
 50
331.3511229452604994
 51
14.7346069197413101
  0
ARC
  5
A833
  8
0
 10
122.4985369974066032
 20
-31.1926312910488193
 30
0.0
 40
0.0575455985621572
 50
267.6455515507437894
 51
329.2832302287066
  0
ARC
  5
A834
  8
0
 10
122.4948882773230991
 20
-31.1938841713715505
 30
0.0
 40
0.056258808283494
 50
211.8782198639621868
 51
271.3084643086526739
  0
ARC
  5
A835
  8
0
 10
122.4816918963483943
 20
-31.2037415616361891
 30
0.0
 40
0.0398715991608819
 50
117.9669016295888042
 51
209.8639678803037896
  0
ARC
  5
A836
  8
0
 10
122.4974319378438992
 20
-31.2227953605435502
 30
0.0
 40
0.0642739045012947
 50
92.1941609130562512
 51
122.3985253874243
  0
ARC
  5
A837
  8
0
 10
122.4992839012869013
 20
-31.2117403927456998
 30
0.0
 40
0.0886044800564175
 50
38.6502855312636129
 51
91.4056838768928657
  0
ARC
  5
A838
  8
0
 10
122.5187712716630983
 20
-31.1912766173779588
 30
0.0
 40
0.0607240893827736
 50
301.2003143656930888
 51
35.052538656186961
  0
ARC
  5
A839
  8
0
 10
122.4951456478165994
 20
-31.161666687204189
 30
0.0
 40
0.0984106553289854
 50
253.9301333813494068
 51
304.0365873200851183
  0
ARC
  5
A83A
  8
0
 10
122.4826461261296942
 20
-31.188161524541659
 30
0.0
 40
0.0696483403501343
 50
183.4982535125930951
 51
257.7806050152989883
  0
ARC
  5
A83B
  8
0
 10
122.4910867268872039
 20
-31.2014075755449092
 30
0.0
 40
0.0784765147087815
 50
85.597843582297088
 51
173.4173644171395949
  0
ARC
  5
A83C
  8
0
 10
122.4996334006945062
 20
-31.1986374881712187
 30
0.0
 40
0.066910127656693
 50
38.0963913827520315
 51
89.3381679669184336
  0
ARC
  5
A83D
  8
0
 10
122.5250954824879983
 20
-31.1786752552932889
 30
0.0
 40
0.0345557098636452
 50
345.0565847727510231
 51
38.0963913827525005
  0
ARC
  5
A83E
  8
0
 10
122.4719915081052051
 20
-31.1645022837561108
 30
0.0
 40
0.0895184719616329
 50
334.5462929606832176
 51
345.0565847727510231
  0
ARC
  5
A83F
  8
0
 10
122.4964511319556948
 20
-31.2069739575958209
 30
0.0
 40
0.0753460135098222
 50
86.9909881042897553
 51
125.8941783419255955
  0
ARC
  5
A840
  8
0
 10
122.4808238109359024
 20
-31.1853810415844812
 30
0.0
 40
0.0486914232084985
 50
125.8941783419254961
 51
159.9238971765653048
  0
ARC
  5
A841
  8
0
 10
122.478347326320602
 20
-31.1819766640601905
 30
0.0
 40
0.0452577210265095
 50
162.8970408063102013
 51
216.986215635088513
  0
ARC
  5
A842
  8
0
 10
122.1605904978286929
 20
-31.456085243447351
 30
0.0
 40
0.0208795163170247
 50
44.1768875531557583
 51
86.6629530184024759
  0
ARC
  5
A843
  8
0
 10
122.1662266568898048
 20
-31.4506087401255314
 30
0.0
 40
0.0130208664586923
 50
9.6822906223593002
 51
44.1768875531574707
  0
ARC
  5
A844
  8
0
 10
122.1650759379590028
 20
-31.4508050700695598
 30
0.0
 40
0.0141882136669251
 50
300.0766040607244918
 51
9.6822906223652545
  0
ARC
  5
A845
  8
0
 10
122.1583390512945044
 20
-31.4391723855462502
 30
0.0
 40
0.0276308693252965
 50
270.9126501147828208
 51
300.0766040607264244
  0
ARC
  5
A846
  8
0
 10
122.1584706942233964
 20
-31.447436172708251
 30
0.0
 40
0.0193660336875146
 50
211.3800699372656879
 51
270.9126501147828208
  0
ARC
  5
A847
  8
0
 10
122.1525523802603033
 20
-31.4510459018848998
 30
0.0
 40
0.0124337479970251
 50
138.9060869574902028
 51
211.3800699372631868
  0
ARC
  5
A848
  8
0
 10
122.1601070171022059
 20
-31.4576348184203312
 30
0.0
 40
0.0224580364468308
 50
85.6616411946760365
 51
138.9060869574911123
  0
ARC
  5
A849
  8
0
 10
122.1617355696644012
 20
-31.4566555200971507
 30
0.0
 40
0.0563345438779192
 50
22.4796643778728011
 51
94.5851993670379159
  0
ARC
  5
A84A
  8
0
 10
122.1757758948518955
 20
-31.4451129376185214
 30
0.0
 40
0.0393062691072688
 50
331.3511229452604994
 51
14.7346069197413101
  0
ARC
  5
A84B
  8
0
 10
122.1607979539621027
 20
-31.4345639823067913
 30
0.0
 40
0.0575455985621572
 50
267.6455515507437894
 51
329.2832302287066
  0
ARC
  5
A84C
  8
0
 10
122.1571492338784992
 20
-31.4358168626295189
 30
0.0
 40
0.056258808283494
 50
211.8782198639621868
 51
271.3084643086526739
  0
ARC
  5
A84D
  8
0
 10
122.1439528529038938
 20
-31.4456742528941611
 30
0.0
 40
0.0398715991608819
 50
117.9669016295888042
 51
209.8639678803037896
  0
ARC
  5
A84E
  8
0
 10
122.1596928943992992
 20
-31.4647280518015187
 30
0.0
 40
0.0642739045012947
 50
92.1941609130562512
 51
122.3985253874243
  0
ARC
  5
A84F
  8
0
 10
122.1615448578424008
 20
-31.4536730840036682
 30
0.0
 40
0.0886044800564175
 50
38.6502855312636129
 51
91.4056838768928657
  0
ARC
  5
A850
  8
0
 10
122.1810322282185979
 20
-31.4332093086359308
 30
0.0
 40
0.0607240893827736
 50
301.2003143656930888
 51
35.052538656186961
  0
ARC
  5
A851
  8
0
 10
122.1574066043719995
 20
-31.4035993784621716
 30
0.0
 40
0.0984106553289854
 50
253.9301333813494068
 51
304.0365873200851183
  0
ARC
  5
A852
  8
0
 10
122.1449070826850942
 20
-31.430094215799631
 30
0.0
 40
0.0696483403501343
 50
183.4982535125930951
 51
257.7806050152989883
  0
ARC
  5
A853
  8
0
 10
122.153347683442604
 20
-31.4433402668028812
 30
0.0
 40
0.0784765147087815
 50
85.597843582297088
 51
173.4173644171395949
  0
ARC
  5
A854
  8
0
 10
122.1618943572499063
 20
-31.4405701794291907
 30
0.0
 40
0.066910127656693
 50
38.0963913827520315
 51
89.3381679669184336
  0
ARC
  5
A855
  8
0
 10
122.1873564390432989
 20
-31.4206079465512609
 30
0.0
 40
0.0345557098636452
 50
345.0565847727510231
 51
38.0963913827525005
  0
ARC
  5
A856
  8
0
 10
122.1342524646606051
 20
-31.4064349750140792
 30
0.0
 40
0.0895184719616329
 50
334.5462929606832176
 51
345.0565847727510231
  0
ARC
  5
A857
  8
0
 10
122.1587120885111943
 20
-31.4489066488537894
 30
0.0
 40
0.0753460135098222
 50
86.9909881042897553
 51
125.8941783419255955
  0
ARC
  5
A858
  8
0
 10
122.1430847674913025
 20
-31.4273137328424497
 30
0.0
 40
0.0486914232084985
 50
125.8941783419254961
 51
159.9238971765653048
  0
ARC
  5
A859
  8
0
 10
122.140608282876002
 20
-31.423909355318159
 30
0.0
 40
0.0452577210265095
 50
162.8970408063102013
 51
216.986215635088513
  0
ARC
  5
A85A
  8
0
 10
122.6202687714429942
 20
-31.4742879215777513
 30
0.0
 40
0.0208795163170247
 50
44.1768875531557583
 51
86.6629530184024759
  0
ARC
  5
A85B
  8
0
 10
122.625904930504106
 20
-31.4688114182559318
 30
0.0
 40
0.0130208664586923
 50
9.6822906223593002
 51
44.1768875531574707
  0
ARC
  5
A85C
  8
0
 10
122.624754211573304
 20
-31.4690077481999708
 30
0.0
 40
0.0141882136669251
 50
300.0766040607244918
 51
9.6822906223652545
  0
ARC
  5
A85D
  8
0
 10
122.6180173249088057
 20
-31.4573750636766505
 30
0.0
 40
0.0276308693252965
 50
270.9126501147828208
 51
300.0766040607264244
  0
ARC
  5
A85E
  8
0
 10
122.6181489678376977
 20
-31.4656388508386513
 30
0.0
 40
0.0193660336875146
 50
211.3800699372656879
 51
270.9126501147828208
  0
ARC
  5
A85F
  8
0
 10
122.6122306538746045
 20
-31.4692485800153001
 30
0.0
 40
0.0124337479970251
 50
138.9060869574902028
 51
211.3800699372631868
  0
ARC
  5
A860
  8
0
 10
122.6197852907164929
 20
-31.4758374965507315
 30
0.0
 40
0.0224580364468308
 50
85.6616411946760365
 51
138.9060869574911123
  0
ARC
  5
A861
  8
0
 10
122.6214138432787024
 20
-31.474858198227551
 30
0.0
 40
0.0563345438779192
 50
22.4796643778728011
 51
94.5851993670379159
  0
ARC
  5
A862
  8
0
 10
122.6354541684660973
 20
-31.4633156157489218
 30
0.0
 40
0.0393062691072688
 50
331.3511229452604994
 51
14.7346069197413101
  0
ARC
  5
A863
  8
0
 10
122.6204762275763045
 20
-31.4527666604371809
 30
0.0
 40
0.0575455985621572
 50
267.6455515507437894
 51
329.2832302287066
  0
ARC
  5
A864
  8
0
 10
122.6168275074928005
 20
-31.4540195407599192
 30
0.0
 40
0.056258808283494
 50
211.8782198639621868
 51
271.3084643086526739
  0
ARC
  5
A865
  8
0
 10
122.6036311265180956
 20
-31.4638769310245614
 30
0.0
 40
0.0398715991608819
 50
117.9669016295888042
 51
209.8639678803037896
  0
ARC
  5
A866
  8
0
 10
122.6193711680136005
 20
-31.482930729931919
 30
0.0
 40
0.0642739045012947
 50
92.1941609130562512
 51
122.3985253874243
  0
ARC
  5
A867
  8
0
 10
122.6212231314566026
 20
-31.4718757621340615
 30
0.0
 40
0.0886044800564175
 50
38.6502855312636129
 51
91.4056838768928657
  0
ARC
  5
A868
  8
0
 10
122.6407105018327997
 20
-31.4514119867663311
 30
0.0
 40
0.0607240893827736
 50
301.2003143656930888
 51
35.052538656186961
  0
ARC
  5
A869
  8
0
 10
122.6170848779863007
 20
-31.4218020565925613
 30
0.0
 40
0.0984106553289854
 50
253.9301333813494068
 51
304.0365873200851183
  0
ARC
  5
A86A
  8
0
 10
122.6045853562994949
 20
-31.4482968939300314
 30
0.0
 40
0.0696483403501343
 50
183.4982535125930951
 51
257.7806050152989883
  0
ARC
  5
A86B
  8
0
 10
122.6130259570569052
 20
-31.4615429449332815
 30
0.0
 40
0.0784765147087815
 50
85.597843582297088
 51
173.4173644171395949
  0
ARC
  5
A86C
  8
0
 10
122.6215726308641933
 20
-31.4587728575595804
 30
0.0
 40
0.066910127656693
 50
38.0963913827520315
 51
89.3381679669184336
  0
ARC
  5
A86D
  8
0
 10
122.6470347126576002
 20
-31.4388106246816506
 30
0.0
 40
0.0345557098636452
 50
345.0565847727510231
 51
38.0963913827525005
  0
ARC
  5
A86E
  8
0
 10
122.5939307382749064
 20
-31.4246376531444795
 30
0.0
 40
0.0895184719616329
 50
334.5462929606832176
 51
345.0565847727510231
  0
ARC
  5
A86F
  8
0
 10
122.6183903621254956
 20
-31.4671093269841897
 30
0.0
 40
0.0753460135098222
 50
86.9909881042897553
 51
125.8941783419255955
  0
ARC
  5
A870
  8
0
 10
122.6027630411056037
 20
-31.4455164109728393
 30
0.0
 40
0.0486914232084985
 50
125.8941783419254961
 51
159.9238971765653048
  0
ARC
  5
A871
  8
0
 10
122.6002865564903033
 20
-31.4421120334485593
 30
0.0
 40
0.0452577210265095
 50
162.8970408063102013
 51
216.986215635088513
  0
ARC
  5
A872
  8
0
 10
122.2402597782651981
 20
-31.790257998304611
 30
0.0
 40
0.0208795163170247
 50
44.1768875531557583
 51
86.6629530184024759
  0
ARC
  5
A873
  8
0
 10
122.2458959373262957
 20
-31.7847814949827914
 30
0.0
 40
0.0130208664586923
 50
9.6822906223593002
 51
44.1768875531574707
  0
ARC
  5
A874
  8
0
 10
122.2447452183954937
 20
-31.7849778249268198
 30
0.0
 40
0.0141882136669251
 50
300.0766040607244918
 51
9.6822906223652545
  0
ARC
  5
A875
  8
0
 10
122.2380083317309953
 20
-31.7733451404034994
 30
0.0
 40
0.0276308693252965
 50
270.9126501147828208
 51
300.0766040607264244
  0
ARC
  5
A876
  8
0
 10
122.2381399746598021
 20
-31.7816089275655109
 30
0.0
 40
0.0193660336875146
 50
211.3800699372656879
 51
270.9126501147828208
  0
ARC
  5
A877
  8
0
 10
122.2322216606966947
 20
-31.7852186567421491
 30
0.0
 40
0.0124337479970251
 50
138.9060869574902028
 51
211.3800699372631868
  0
ARC
  5
A878
  8
0
 10
122.2397762975386968
 20
-31.7918075732775804
 30
0.0
 40
0.0224580364468308
 50
85.6616411946760365
 51
138.9060869574911123
  0
ARC
  5
A879
  8
0
 10
122.2414048501009063
 20
-31.7908282749544
 30
0.0
 40
0.0563345438779192
 50
22.4796643778728011
 51
94.5851993670379159
  0
ARC
  5
A87A
  8
0
 10
122.2554451752883011
 20
-31.7792856924757814
 30
0.0
 40
0.0393062691072688
 50
331.3511229452604994
 51
14.7346069197413101
  0
ARC
  5
A87B
  8
0
 10
122.2404672343984942
 20
-31.7687367371640406
 30
0.0
 40
0.0575455985621572
 50
267.6455515507437894
 51
329.2832302287066
  0
ARC
  5
A87C
  8
0
 10
122.2368185143150043
 20
-31.7699896174867717
 30
0.0
 40
0.056258808283494
 50
211.8782198639621868
 51
271.3084643086526739
  0
ARC
  5
A87D
  8
0
 10
122.2236221333402995
 20
-31.7798470077514104
 30
0.0
 40
0.0398715991608819
 50
117.9669016295888042
 51
209.8639678803037896
  0
ARC
  5
A87E
  8
0
 10
122.2393621748357049
 20
-31.7989008066587715
 30
0.0
 40
0.0642739045012947
 50
92.1941609130562512
 51
122.3985253874243
  0
ARC
  5
A87F
  8
0
 10
122.2412141382788064
 20
-31.7878458388609211
 30
0.0
 40
0.0886044800564175
 50
38.6502855312636129
 51
91.4056838768928657
  0
ARC
  5
A880
  8
0
 10
122.2607015086550035
 20
-31.7673820634931801
 30
0.0
 40
0.0607240893827736
 50
301.2003143656930888
 51
35.052538656186961
  0
ARC
  5
A881
  8
0
 10
122.2370758848084051
 20
-31.7377721333194209
 30
0.0
 40
0.0984106553289854
 50
253.9301333813494068
 51
304.0365873200851183
  0
ARC
  5
A882
  8
0
 10
122.2245763631215993
 20
-31.764266970656891
 30
0.0
 40
0.0696483403501343
 50
183.4982535125930951
 51
257.7806050152989883
  0
ARC
  5
A883
  8
0
 10
122.2330169638790949
 20
-31.7775130216601411
 30
0.0
 40
0.0784765147087815
 50
85.597843582297088
 51
173.4173644171395949
  0
ARC
  5
A884
  8
0
 10
122.2415636376863972
 20
-31.77474293428644
 30
0.0
 40
0.066910127656693
 50
38.0963913827520315
 51
89.3381679669184336
  0
ARC
  5
A885
  8
0
 10
122.267025719479804
 20
-31.7547807014085102
 30
0.0
 40
0.0345557098636452
 50
345.0565847727510231
 51
38.0963913827525005
  0
ARC
  5
A886
  8
0
 10
122.2139217450969966
 20
-31.7406077298713285
 30
0.0
 40
0.0895184719616329
 50
334.5462929606832176
 51
345.0565847727510231
  0
ARC
  5
A887
  8
0
 10
122.2383813689476
 20
-31.7830794037110387
 30
0.0
 40
0.0753460135098222
 50
86.9909881042897553
 51
125.8941783419255955
  0
ARC
  5
A888
  8
0
 10
122.2227540479276939
 20
-31.761486487699699
 30
0.0
 40
0.0486914232084985
 50
125.8941783419254961
 51
159.9238971765653048
  0
ARC
  5
A889
  8
0
 10
122.2202775633124929
 20
-31.7580821101754083
 30
0.0
 40
0.0452577210265095
 50
162.8970408063102013
 51
216.986215635088513
  0
ARC
  5
A88A
  8
0
 10
121.8439289910308929
 20
-31.8409129901903007
 30
0.0
 40
0.0208795163170247
 50
44.1768875531557583
 51
86.6629530184024759
  0
ARC
  5
A88B
  8
0
 10
121.8495651500920047
 20
-31.8354364868684812
 30
0.0
 40
0.0130208664586923
 50
9.6822906223593002
 51
44.1768875531574707
  0
ARC
  5
A88C
  8
0
 10
121.8484144311612027
 20
-31.8356328168125202
 30
0.0
 40
0.0141882136669251
 50
300.0766040607244918
 51
9.6822906223652545
  0
ARC
  5
A88D
  8
0
 10
121.8416775444967044
 20
-31.8240001322891999
 30
0.0
 40
0.0276308693252965
 50
270.9126501147828208
 51
300.0766040607264244
  0
ARC
  5
A88E
  8
0
 10
121.8418091874254969
 20
-31.8322639194512007
 30
0.0
 40
0.0193660336875146
 50
211.3800699372656879
 51
270.9126501147828208
  0
ARC
  5
A88F
  8
0
 10
121.8358908734624038
 20
-31.8358736486278495
 30
0.0
 40
0.0124337479970251
 50
138.9060869574902028
 51
211.3800699372631868
  0
ARC
  5
A890
  8
0
 10
121.8434455103044058
 20
-31.8424625651632809
 30
0.0
 40
0.0224580364468308
 50
85.6616411946760365
 51
138.9060869574911123
  0
ARC
  5
A891
  8
0
 10
121.8450740628665017
 20
-31.8414832668401004
 30
0.0
 40
0.0563345438779192
 50
22.4796643778728011
 51
94.5851993670379159
  0
ARC
  5
A892
  8
0
 10
121.859114388053996
 20
-31.8299406843614712
 30
0.0
 40
0.0393062691072688
 50
331.3511229452604994
 51
14.7346069197413101
  0
ARC
  5
A893
  8
0
 10
121.8441364471642032
 20
-31.819391729049741
 30
0.0
 40
0.0575455985621572
 50
267.6455515507437894
 51
329.2832302287066
  0
ARC
  5
A894
  8
0
 10
121.8404877270806992
 20
-31.8206446093724686
 30
0.0
 40
0.056258808283494
 50
211.8782198639621868
 51
271.3084643086526739
  0
ARC
  5
A895
  8
0
 10
121.8272913461059943
 20
-31.8305019996371108
 30
0.0
 40
0.0398715991608819
 50
117.9669016295888042
 51
209.8639678803037896
  0
ARC
  5
A896
  8
0
 10
121.8430313876013997
 20
-31.8495557985444684
 30
0.0
 40
0.0642739045012947
 50
92.1941609130562512
 51
122.3985253874243
  0
ARC
  5
A897
  8
0
 10
121.8448833510445013
 20
-31.8385008307466215
 30
0.0
 40
0.0886044800564175
 50
38.6502855312636129
 51
91.4056838768928657
  0
ARC
  5
A898
  8
0
 10
121.8643707214206984
 20
-31.8180370553788805
 30
0.0
 40
0.0607240893827736
 50
301.2003143656930888
 51
35.052538656186961
  0
ARC
  5
A899
  8
0
 10
121.8407450975741
 20
-31.7884271252051107
 30
0.0
 40
0.0984106553289854
 50
253.9301333813494068
 51
304.0365873200851183
  0
ARC
  5
A89A
  8
0
 10
121.8282455758872942
 20
-31.8149219625425914
 30
0.0
 40
0.0696483403501343
 50
183.4982535125930951
 51
257.7806050152989883
  0
ARC
  5
A89B
  8
0
 10
121.8366861766448039
 20
-31.8281680135458309
 30
0.0
 40
0.0784765147087815
 50
85.597843582297088
 51
173.4173644171395949
  0
ARC
  5
A89C
  8
0
 10
121.8452328504521063
 20
-31.8253979261721405
 30
0.0
 40
0.066910127656693
 50
38.0963913827520315
 51
89.3381679669184336
  0
ARC
  5
A89D
  8
0
 10
121.8706949322454989
 20
-31.8054356932942106
 30
0.0
 40
0.0345557098636452
 50
345.0565847727510231
 51
38.0963913827525005
  0
ARC
  5
A89E
  8
0
 10
121.8175909578627056
 20
-31.7912627217570289
 30
0.0
 40
0.0895184719616329
 50
334.5462929606832176
 51
345.0565847727510231
  0
ARC
  5
A89F
  8
0
 10
121.8420505817133943
 20
-31.8337343955967391
 30
0.0
 40
0.0753460135098222
 50
86.9909881042897553
 51
125.8941783419255955
  0
ARC
  5
A8A0
  8
0
 10
121.8264232606935025
 20
-31.8121414795853994
 30
0.0
 40
0.0486914232084985
 50
125.8941783419254961
 51
159.9238971765653048
  0
ARC
  5
A8A1
  8
0
 10
121.823946776078202
 20
-31.8087371020611087
 30
0.0
 40
0.0452577210265095
 50
162.8970408063102013
 51
216.986215635088513
  0
ARC
  5
A8A2
  8
0
 10
121.4271767463752951
 20
-31.8623407217674099
 30
0.0
 40
0.0208795163170247
 50
44.1768875531557583
 51
86.6629530184024759
  0
ARC
  5
A8A3
  8
0
 10
121.4328129054364069
 20
-31.8568642184455904
 30
0.0
 40
0.0130208664586923
 50
9.6822906223593002
 51
44.1768875531574707
  0
ARC
  5
A8A4
  8
0
 10
121.431662186505605
 20
-31.8570605483896188
 30
0.0
 40
0.0141882136669251
 50
300.0766040607244918
 51
9.6822906223652545
  0
ARC
  5
A8A5
  8
0
 10
121.4249252998411066
 20
-31.8454278638663091
 30
0.0
 40
0.0276308693252965
 50
270.9126501147828208
 51
300.0766040607264244
  0
ARC
  5
A8A6
  8
0
 10
121.4250569427698991
 20
-31.8536916510283099
 30
0.0
 40
0.0193660336875146
 50
211.3800699372656879
 51
270.9126501147828208
  0
ARC
  5
A8A7
  8
0
 10
121.419138628806806
 20
-31.8573013802049587
 30
0.0
 40
0.0124337479970251
 50
138.9060869574902028
 51
211.3800699372631868
  0
ARC
  5
A8A8
  8
0
 10
121.4266932656487938
 20
-31.8638902967403901
 30
0.0
 40
0.0224580364468308
 50
85.6616411946760365
 51
138.9060869574911123
  0
ARC
  5
A8A9
  8
0
 10
121.4283218182109039
 20
-31.862910998417199
 30
0.0
 40
0.0563345438779192
 50
22.4796643778728011
 51
94.5851993670379159
  0
ARC
  5
A8AA
  8
0
 10
121.4423621433983982
 20
-31.8513684159385804
 30
0.0
 40
0.0393062691072688
 50
331.3511229452604994
 51
14.7346069197413101
  0
ARC
  5
A8AB
  8
0
 10
121.4273842025086054
 20
-31.8408194606268395
 30
0.0
 40
0.0575455985621572
 50
267.6455515507437894
 51
329.2832302287066
  0
ARC
  5
A8AC
  8
0
 10
121.4237354824251014
 20
-31.8420723409495707
 30
0.0
 40
0.056258808283494
 50
211.8782198639621868
 51
271.3084643086526739
  0
ARC
  5
A8AD
  8
0
 10
121.4105391014503965
 20
-31.85192973121422
 30
0.0
 40
0.0398715991608819
 50
117.9669016295888042
 51
209.8639678803037896
  0
ARC
  5
A8AE
  8
0
 10
121.4262791429458019
 20
-31.8709835301215811
 30
0.0
 40
0.0642739045012947
 50
92.1941609130562512
 51
122.3985253874243
  0
ARC
  5
A8AF
  8
0
 10
121.4281311063889035
 20
-31.8599285623237307
 30
0.0
 40
0.0886044800564175
 50
38.6502855312636129
 51
91.4056838768928657
  0
ARC
  5
A8B0
  8
0
 10
121.4476184767651006
 20
-31.8394647869559897
 30
0.0
 40
0.0607240893827736
 50
301.2003143656930888
 51
35.052538656186961
  0
ARC
  5
A8B1
  8
0
 10
121.4239928529186017
 20
-31.8098548567822199
 30
0.0
 40
0.0984106553289854
 50
253.9301333813494068
 51
304.0365873200851183
  0
ARC
  5
A8B2
  8
0
 10
121.4114933312316964
 20
-31.83634969411969
 30
0.0
 40
0.0696483403501343
 50
183.4982535125930951
 51
257.7806050152989883
  0
ARC
  5
A8B3
  8
0
 10
121.4199339319892061
 20
-31.8495957451229401
 30
0.0
 40
0.0784765147087815
 50
85.597843582297088
 51
173.4173644171395949
  0
ARC
  5
A8B4
  8
0
 10
121.4284806057964943
 20
-31.846825657749239
 30
0.0
 40
0.066910127656693
 50
38.0963913827520315
 51
89.3381679669184336
  0
ARC
  5
A8B5
  8
0
 10
121.4539426875899011
 20
-31.8268634248713091
 30
0.0
 40
0.0345557098636452
 50
345.0565847727510231
 51
38.0963913827525005
  0
ARC
  5
A8B6
  8
0
 10
121.4008387132070936
 20
-31.8126904533341417
 30
0.0
 40
0.0895184719616329
 50
334.5462929606832176
 51
345.0565847727510231
  0
ARC
  5
A8B7
  8
0
 10
121.425298337057697
 20
-31.8551621271738483
 30
0.0
 40
0.0753460135098222
 50
86.9909881042897553
 51
125.8941783419255955
  0
ARC
  5
A8B8
  8
0
 10
121.4096710160379047
 20
-31.8335692111625015
 30
0.0
 40
0.0486914232084985
 50
125.8941783419254961
 51
159.9238971765653048
  0
ARC
  5
A8B9
  8
0
 10
121.4071945314226042
 20
-31.8301648336382215
 30
0.0
 40
0.0452577210265095
 50
162.8970408063102013
 51
216.986215635088513
  0
ARC
  5
A8BA
  8
0
 10
121.1079189594984058
 20
-32.2585111357034222
 30
0.0
 40
0.0208795163170247
 50
44.1768875531557583
 51
86.6629530184024759
  0
ARC
  5
A8BB
  8
0
 10
121.1135551185595034
 20
-32.2530346323815991
 30
0.0
 40
0.0130208664586923
 50
9.6822906223593002
 51
44.1768875531574707
  0
ARC
  5
A8BC
  8
0
 10
121.1124043996287014
 20
-32.253230962325631
 30
0.0
 40
0.0141882136669251
 50
300.0766040607244918
 51
9.6822906223652545
  0
ARC
  5
A8BD
  8
0
 10
121.1056675129642031
 20
-32.2415982778023178
 30
0.0
 40
0.0276308693252965
 50
270.9126501147828208
 51
300.0766040607264244
  0
ARC
  5
A8BE
  8
0
 10
121.1057991558929956
 20
-32.2498620649643186
 30
0.0
 40
0.0193660336875146
 50
211.3800699372656879
 51
270.9126501147828208
  0
ARC
  5
A8BF
  8
0
 10
121.0998808419299024
 20
-32.253471794140971
 30
0.0
 40
0.0124337479970251
 50
138.9060869574902028
 51
211.3800699372631868
  0
ARC
  5
A8C0
  8
0
 10
121.1074354787719045
 20
-32.2600607106763988
 30
0.0
 40
0.0224580364468308
 50
85.6616411946760365
 51
138.9060869574911123
  0
ARC
  5
A8C1
  8
0
 10
121.1090640313340003
 20
-32.2590814123532112
 30
0.0
 40
0.0563345438779192
 50
22.4796643778728011
 51
94.5851993670379159
  0
ARC
  5
A8C2
  8
0
 10
121.1231043565214947
 20
-32.2475388298745926
 30
0.0
 40
0.0393062691072688
 50
331.3511229452604994
 51
14.7346069197413101
  0
ARC
  5
A8C3
  8
0
 10
121.1081264156317019
 20
-32.2369898745628518
 30
0.0
 40
0.0575455985621572
 50
267.6455515507437894
 51
329.2832302287066
  0
ARC
  5
A8C4
  8
0
 10
121.1044776955481979
 20
-32.2382427548855901
 30
0.0
 40
0.056258808283494
 50
211.8782198639621868
 51
271.3084643086526739
  0
ARC
  5
A8C5
  8
0
 10
121.091281314573493
 20
-32.2481001451502394
 30
0.0
 40
0.0398715991608819
 50
117.9669016295888042
 51
209.8639678803037896
  0
ARC
  5
A8C6
  8
0
 10
121.1070213560688984
 20
-32.2671539440575899
 30
0.0
 40
0.0642739045012947
 50
92.1941609130562512
 51
122.3985253874243
  0
ARC
  5
A8C7
  8
0
 10
121.108873319512
 20
-32.256098976259743
 30
0.0
 40
0.0886044800564175
 50
38.6502855312636129
 51
91.4056838768928657
  0
ARC
  5
A8C8
  8
0
 10
121.128360689888197
 20
-32.2356352008919984
 30
0.0
 40
0.0607240893827736
 50
301.2003143656930888
 51
35.052538656186961
  0
ARC
  5
A8C9
  8
0
 10
121.1047350660415987
 20
-32.2060252707182428
 30
0.0
 40
0.0984106553289854
 50
253.9301333813494068
 51
304.0365873200851183
  0
ARC
  5
A8CA
  8
0
 10
121.0922355443548071
 20
-32.2325201080557022
 30
0.0
 40
0.0696483403501343
 50
183.4982535125930951
 51
257.7806050152989883
  0
ARC
  5
A8CB
  8
0
 10
121.1006761451123026
 20
-32.2457661590589524
 30
0.0
 40
0.0784765147087815
 50
85.597843582297088
 51
173.4173644171395949
  0
ARC
  5
A8CC
  8
0
 10
121.1092228189196049
 20
-32.2429960716852477
 30
0.0
 40
0.066910127656693
 50
38.0963913827520315
 51
89.3381679669184336
  0
ARC
  5
A8CD
  8
0
 10
121.1346849007129975
 20
-32.2230338388073321
 30
0.0
 40
0.0345557098636452
 50
345.0565847727510231
 51
38.0963913827525005
  0
ARC
  5
A8CE
  8
0
 10
121.0815809263302043
 20
-32.2088608672701469
 30
0.0
 40
0.0895184719616329
 50
334.5462929606832176
 51
345.0565847727510231
  0
ARC
  5
A8CF
  8
0
 10
121.1060405501807935
 20
-32.2513325411098606
 30
0.0
 40
0.0753460135098222
 50
86.9909881042897553
 51
125.8941783419255955
  0
ARC
  5
A8D0
  8
0
 10
121.0904132291609017
 20
-32.2297396250985173
 30
0.0
 40
0.0486914232084985
 50
125.8941783419254961
 51
159.9238971765653048
  0
ARC
  5
A8D1
  8
0
 10
121.0879367445457007
 20
-32.2263352475742266
 30
0.0
 40
0.0452577210265095
 50
162.8970408063102013
 51
216.986215635088513
  0
ARC
  5
A8D2
  8
0
 10
121.6972934303360034
 20
-32.2162509133866166
 30
0.0
 40
0.0208795163170247
 50
44.1768875531557583
 51
86.6629530184024759
  0
ARC
  5
A8D3
  8
0
 10
121.702929589397101
 20
-32.2107744100648006
 30
0.0
 40
0.0130208664586923
 50
9.6822906223593002
 51
44.1768875531574707
  0
ARC
  5
A8D4
  8
0
 10
121.7017788704662991
 20
-32.2109707400088325
 30
0.0
 40
0.0141882136669251
 50
300.0766040607244918
 51
9.6822906223652545
  0
ARC
  5
A8D5
  8
0
 10
121.6950419838018007
 20
-32.1993380554855193
 30
0.0
 40
0.0276308693252965
 50
270.9126501147828208
 51
300.0766040607264244
  0
ARC
  5
A8D6
  8
0
 10
121.6951736267307069
 20
-32.2076018426475201
 30
0.0
 40
0.0193660336875146
 50
211.3800699372656879
 51
270.9126501147828208
  0
ARC
  5
A8D7
  8
0
 10
121.6892553127675001
 20
-32.2112115718241583
 30
0.0
 40
0.0124337479970251
 50
138.9060869574902028
 51
211.3800699372631868
  0
ARC
  5
A8D8
  8
0
 10
121.6968099496095022
 20
-32.2178004883596003
 30
0.0
 40
0.0224580364468308
 50
85.6616411946760365
 51
138.9060869574911123
  0
ARC
  5
A8D9
  8
0
 10
121.6984385021716975
 20
-32.2168211900364128
 30
0.0
 40
0.0563345438779192
 50
22.4796643778728011
 51
94.5851993670379159
  0
ARC
  5
A8DA
  8
0
 10
121.7124788273591065
 20
-32.2052786075578013
 30
0.0
 40
0.0393062691072688
 50
331.3511229452604994
 51
14.7346069197413101
  0
ARC
  5
A8DB
  8
0
 10
121.6975008864692995
 20
-32.1947296522460604
 30
0.0
 40
0.0575455985621572
 50
267.6455515507437894
 51
329.2832302287066
  0
ARC
  5
A8DC
  8
0
 10
121.6938521663857955
 20
-32.1959825325687774
 30
0.0
 40
0.056258808283494
 50
211.8782198639621868
 51
271.3084643086526739
  0
ARC
  5
A8DD
  8
0
 10
121.6806557854112043
 20
-32.2058399228334267
 30
0.0
 40
0.0398715991608819
 50
117.9669016295888042
 51
209.8639678803037896
  0
ARC
  5
A8DE
  8
0
 10
121.696395826906496
 20
-32.2248937217407914
 30
0.0
 40
0.0642739045012947
 50
92.1941609130562512
 51
122.3985253874243
  0
ARC
  5
A8DF
  8
0
 10
121.6982477903496971
 20
-32.2138387539429374
 30
0.0
 40
0.0886044800564175
 50
38.6502855312636129
 51
91.4056838768928657
  0
ARC
  5
A8E0
  8
0
 10
121.7177351607257947
 20
-32.193374978575207
 30
0.0
 40
0.0607240893827736
 50
301.2003143656930888
 51
35.052538656186961
  0
ARC
  5
A8E1
  8
0
 10
121.6941095368792958
 20
-32.1637650484014372
 30
0.0
 40
0.0984106553289854
 50
253.9301333813494068
 51
304.0365873200851183
  0
ARC
  5
A8E2
  8
0
 10
121.6816100151924047
 20
-32.1902598857388966
 30
0.0
 40
0.0696483403501343
 50
183.4982535125930951
 51
257.7806050152989883
  0
ARC
  5
A8E3
  8
0
 10
121.6900506159499002
 20
-32.2035059367421468
 30
0.0
 40
0.0784765147087815
 50
85.597843582297088
 51
173.4173644171395949
  0
ARC
  5
A8E4
  8
0
 10
121.6985972897572026
 20
-32.2007358493684634
 30
0.0
 40
0.066910127656693
 50
38.0963913827520315
 51
89.3381679669184336
  0
ARC
  5
A8E5
  8
0
 10
121.7240593715505952
 20
-32.1807736164905265
 30
0.0
 40
0.0345557098636452
 50
345.0565847727510231
 51
38.0963913827525005
  0
ARC
  5
A8E6
  8
0
 10
121.6709553971679014
 20
-32.1666006449533484
 30
0.0
 40
0.0895184719616329
 50
334.5462929606832176
 51
345.0565847727510231
  0
ARC
  5
A8E7
  8
0
 10
121.6954150210185048
 20
-32.2090723187930621
 30
0.0
 40
0.0753460135098222
 50
86.9909881042897553
 51
125.8941783419255955
  0
ARC
  5
A8E8
  8
0
 10
121.6797876999985988
 20
-32.1874794027817188
 30
0.0
 40
0.0486914232084985
 50
125.8941783419254961
 51
159.9238971765653048
  0
ARC
  5
A8E9
  8
0
 10
121.6773112153832983
 20
-32.1840750252574281
 30
0.0
 40
0.0452577210265095
 50
162.8970408063102013
 51
216.986215635088513
  0
ARC
  5
A8EA
  8
0
 10
122.1652192416900959
 20
-32.1454671680010478
 30
0.0
 40
0.0208795163170247
 50
44.1768875531557583
 51
86.6629530184024759
  0
ARC
  5
A8EB
  8
0
 10
122.1708554007511935
 20
-32.1399906646792175
 30
0.0
 40
0.0130208664586923
 50
9.6822906223593002
 51
44.1768875531574707
  0
ARC
  5
A8EC
  8
0
 10
122.1697046818205052
 20
-32.1401869946232566
 30
0.0
 40
0.0141882136669251
 50
300.0766040607244918
 51
9.6822906223652545
  0
ARC
  5
A8ED
  8
0
 10
122.1629677951558932
 20
-32.1285543100999504
 30
0.0
 40
0.0276308693252965
 50
270.9126501147828208
 51
300.0766040607264244
  0
ARC
  5
A8EE
  8
0
 10
122.1630994380847994
 20
-32.1368180972619513
 30
0.0
 40
0.0193660336875146
 50
211.3800699372656879
 51
270.9126501147828208
  0
ARC
  5
A8EF
  8
0
 10
122.1571811241217063
 20
-32.1404278264385965
 30
0.0
 40
0.0124337479970251
 50
138.9060869574902028
 51
211.3800699372631868
  0
ARC
  5
A8F0
  8
0
 10
122.1647357609636941
 20
-32.1470167429740314
 30
0.0
 40
0.0224580364468308
 50
85.6616411946760365
 51
138.9060869574911123
  0
ARC
  5
A8F1
  8
0
 10
122.1663643135258042
 20
-32.146037444650851
 30
0.0
 40
0.0563345438779192
 50
22.4796643778728011
 51
94.5851993670379159
  0
ARC
  5
A8F2
  8
0
 10
122.1804046387132985
 20
-32.1344948621722182
 30
0.0
 40
0.0393062691072688
 50
331.3511229452604994
 51
14.7346069197413101
  0
ARC
  5
A8F3
  8
0
 10
122.1654266978235057
 20
-32.1239459068604774
 30
0.0
 40
0.0575455985621572
 50
267.6455515507437894
 51
329.2832302287066
  0
ARC
  5
A8F4
  8
0
 10
122.1617779777399022
 20
-32.1251987871832085
 30
0.0
 40
0.056258808283494
 50
211.8782198639621868
 51
271.3084643086526739
  0
ARC
  5
A8F5
  8
0
 10
122.1485815967652968
 20
-32.1350561774478578
 30
0.0
 40
0.0398715991608819
 50
117.9669016295888042
 51
209.8639678803037896
  0
ARC
  5
A8F6
  8
0
 10
122.1643216382607022
 20
-32.1541099763552225
 30
0.0
 40
0.0642739045012947
 50
92.1941609130562512
 51
122.3985253874243
  0
ARC
  5
A8F7
  8
0
 10
122.1661736017038038
 20
-32.1430550085573614
 30
0.0
 40
0.0886044800564175
 50
38.6502855312636129
 51
91.4056838768928657
  0
ARC
  5
A8F8
  8
0
 10
122.1856609720800009
 20
-32.1225912331896311
 30
0.0
 40
0.0607240893827736
 50
301.2003143656930888
 51
35.052538656186961
  0
ARC
  5
A8F9
  8
0
 10
122.1620353482334025
 20
-32.0929813030158613
 30
0.0
 40
0.0984106553289854
 50
253.9301333813494068
 51
304.0365873200851183
  0
ARC
  5
A8FA
  8
0
 10
122.1495358265465967
 20
-32.1194761403533278
 30
0.0
 40
0.0696483403501343
 50
183.4982535125930951
 51
257.7806050152989883
  0
ARC
  5
A8FB
  8
0
 10
122.157976427304007
 20
-32.1327221913565779
 30
0.0
 40
0.0784765147087815
 50
85.597843582297088
 51
173.4173644171395949
  0
ARC
  5
A8FC
  8
0
 10
122.1665231011113946
 20
-32.1299521039828804
 30
0.0
 40
0.066910127656693
 50
38.0963913827520315
 51
89.3381679669184336
  0
ARC
  5
A8FD
  8
0
 10
122.1919851829048014
 20
-32.1099898711049505
 30
0.0
 40
0.0345557098636452
 50
345.0565847727510231
 51
38.0963913827525005
  0
ARC
  5
A8FE
  8
0
 10
122.1388812085219939
 20
-32.0958168995677724
 30
0.0
 40
0.0895184719616329
 50
334.5462929606832176
 51
345.0565847727510231
  0
ARC
  5
A8FF
  8
0
 10
122.1633408323725973
 20
-32.1382885734074932
 30
0.0
 40
0.0753460135098222
 50
86.9909881042897553
 51
125.8941783419255955
  0
ARC
  5
A900
  8
0
 10
122.1477135113527055
 20
-32.1166956573961428
 30
0.0
 40
0.0486914232084985
 50
125.8941783419254961
 51
159.9238971765653048
  0
ARC
  5
A901
  8
0
 10
122.145237026737405
 20
-32.1132912798718522
 30
0.0
 40
0.0452577210265095
 50
162.8970408063102013
 51
216.986215635088513
  0
ARC
  5
A902
  8
0
 10
122.4981356344450063
 20
-32.2875780688953782
 30
0.0
 40
0.0208795163170247
 50
44.1768875531557583
 51
86.6629530184024759
  0
ARC
  5
A903
  8
0
 10
122.5037717935061039
 20
-32.2821015655735621
 30
0.0
 40
0.0130208664586923
 50
9.6822906223593002
 51
44.1768875531574707
  0
ARC
  5
A904
  8
0
 10
122.5026210745753019
 20
-32.282297895517587
 30
0.0
 40
0.0141882136669251
 50
300.0766040607244918
 51
9.6822906223652545
  0
ARC
  5
A905
  8
0
 10
122.4958841879107041
 20
-32.2706652109942809
 30
0.0
 40
0.0276308693252965
 50
270.9126501147828208
 51
300.0766040607264244
  0
ARC
  5
A906
  8
0
 10
122.4960158308395961
 20
-32.2789289981562675
 30
0.0
 40
0.0193660336875146
 50
211.3800699372656879
 51
270.9126501147828208
  0
ARC
  5
A907
  8
0
 10
122.4900975168765029
 20
-32.2825387273329198
 30
0.0
 40
0.0124337479970251
 50
138.9060869574902028
 51
211.3800699372631868
  0
ARC
  5
A908
  8
0
 10
122.497652153718505
 20
-32.2891276438683619
 30
0.0
 40
0.0224580364468308
 50
85.6616411946760365
 51
138.9060869574911123
  0
ARC
  5
A909
  8
0
 10
122.4992807062806008
 20
-32.2881483455451814
 30
0.0
 40
0.0563345438779192
 50
22.4796643778728011
 51
94.5851993670379159
  0
ARC
  5
A90A
  8
0
 10
122.5133210314680952
 20
-32.2766057630665486
 30
0.0
 40
0.0393062691072688
 50
331.3511229452604994
 51
14.7346069197413101
  0
ARC
  5
A90B
  8
0
 10
122.4983430905783024
 20
-32.2660568077548078
 30
0.0
 40
0.0575455985621572
 50
267.6455515507437894
 51
329.2832302287066
  0
ARC
  5
A90C
  8
0
 10
122.4946943704947984
 20
-32.2673096880775532
 30
0.0
 40
0.056258808283494
 50
211.8782198639621868
 51
271.3084643086526739
  0
ARC
  5
A90D
  8
0
 10
122.4814979895200935
 20
-32.2771670783421882
 30
0.0
 40
0.0398715991608819
 50
117.9669016295888042
 51
209.8639678803037896
  0
ARC
  5
A90E
  8
0
 10
122.4972380310154989
 20
-32.2962208772495529
 30
0.0
 40
0.0642739045012947
 50
92.1941609130562512
 51
122.3985253874243
  0
ARC
  5
A90F
  8
0
 10
122.4990899944586005
 20
-32.2851659094516918
 30
0.0
 40
0.0886044800564175
 50
38.6502855312636129
 51
91.4056838768928657
  0
ARC
  5
A910
  8
0
 10
122.5185773648347975
 20
-32.2647021340839615
 30
0.0
 40
0.0607240893827736
 50
301.2003143656930888
 51
35.052538656186961
  0
ARC
  5
A911
  8
0
 10
122.4949517409881992
 20
-32.2350922039101917
 30
0.0
 40
0.0984106553289854
 50
253.9301333813494068
 51
304.0365873200851183
  0
ARC
  5
A912
  8
0
 10
122.4824522193013934
 20
-32.2615870412476582
 30
0.0
 40
0.0696483403501343
 50
183.4982535125930951
 51
257.7806050152989883
  0
ARC
  5
A913
  8
0
 10
122.4908928200588036
 20
-32.2748330922509084
 30
0.0
 40
0.0784765147087815
 50
85.597843582297088
 51
173.4173644171395949
  0
ARC
  5
A914
  8
0
 10
122.4994394938662055
 20
-32.2720630048772108
 30
0.0
 40
0.066910127656693
 50
38.0963913827520315
 51
89.3381679669184336
  0
ARC
  5
A915
  8
0
 10
122.5249015756595981
 20
-32.2521007719992809
 30
0.0
 40
0.0345557098636452
 50
345.0565847727510231
 51
38.0963913827525005
  0
ARC
  5
A916
  8
0
 10
122.4717976012768048
 20
-32.2379278004621028
 30
0.0
 40
0.0895184719616329
 50
334.5462929606832176
 51
345.0565847727510231
  0
ARC
  5
A917
  8
0
 10
122.496257225127394
 20
-32.2803994743018166
 30
0.0
 40
0.0753460135098222
 50
86.9909881042897553
 51
125.8941783419255955
  0
ARC
  5
A918
  8
0
 10
122.4806299041075022
 20
-32.2588065582904804
 30
0.0
 40
0.0486914232084985
 50
125.8941783419254961
 51
159.9238971765653048
  0
ARC
  5
A919
  8
0
 10
122.4781534194923012
 20
-32.2554021807661897
 30
0.0
 40
0.0452577210265095
 50
162.8970408063102013
 51
216.986215635088513
  0
ARC
  5
A91A
  8
0
 10
122.6204793883888016
 20
-32.0403489462956088
 30
0.0
 40
0.0208795163170247
 50
44.1768875531557583
 51
86.6629530184024759
  0
ARC
  5
A91B
  8
0
 10
122.6261155474498992
 20
-32.0348724429737999
 30
0.0
 40
0.0130208664586923
 50
9.6822906223593002
 51
44.1768875531574707
  0
ARC
  5
A91C
  8
0
 10
122.6249648285190972
 20
-32.0350687729178318
 30
0.0
 40
0.0141882136669251
 50
300.0766040607244918
 51
9.6822906223652545
  0
ARC
  5
A91D
  8
0
 10
122.6182279418545988
 20
-32.0234360883945115
 30
0.0
 40
0.0276308693252965
 50
270.9126501147828208
 51
300.0766040607264244
  0
ARC
  5
A91E
  8
0
 10
122.6183595847835051
 20
-32.0316998755565123
 30
0.0
 40
0.0193660336875146
 50
211.3800699372656879
 51
270.9126501147828208
  0
ARC
  5
A91F
  8
0
 10
122.6124412708203977
 20
-32.0353096047331576
 30
0.0
 40
0.0124337479970251
 50
138.9060869574902028
 51
211.3800699372631868
  0
ARC
  5
A920
  8
0
 10
122.6199959076623003
 20
-32.0418985212685925
 30
0.0
 40
0.0224580364468308
 50
85.6616411946760365
 51
138.9060869574911123
  0
ARC
  5
A921
  8
0
 10
122.6216244602244956
 20
-32.0409192229454121
 30
0.0
 40
0.0563345438779192
 50
22.4796643778728011
 51
94.5851993670379159
  0
ARC
  5
A922
  8
0
 10
122.6356647854119046
 20
-32.0293766404667792
 30
0.0
 40
0.0393062691072688
 50
331.3511229452604994
 51
14.7346069197413101
  0
ARC
  5
A923
  8
0
 10
122.6206868445220977
 20
-32.0188276851550384
 30
0.0
 40
0.0575455985621572
 50
267.6455515507437894
 51
329.2832302287066
  0
ARC
  5
A924
  8
0
 10
122.6170381244385936
 20
-32.0200805654777767
 30
0.0
 40
0.056258808283494
 50
211.8782198639621868
 51
271.3084643086526739
  0
ARC
  5
A925
  8
0
 10
122.6038417434640024
 20
-32.0299379557424189
 30
0.0
 40
0.0398715991608819
 50
117.9669016295888042
 51
209.8639678803037896
  0
ARC
  5
A926
  8
0
 10
122.6195817849592942
 20
-32.0489917546497765
 30
0.0
 40
0.0642739045012947
 50
92.1941609130562512
 51
122.3985253874243
  0
ARC
  5
A927
  8
0
 10
122.6214337484024952
 20
-32.0379367868519296
 30
0.0
 40
0.0886044800564175
 50
38.6502855312636129
 51
91.4056838768928657
  0
ARC
  5
A928
  8
0
 10
122.6409211187787065
 20
-32.0174730114841921
 30
0.0
 40
0.0607240893827736
 50
301.2003143656930888
 51
35.052538656186961
  0
ARC
  5
A929
  8
0
 10
122.6172954949320939
 20
-31.9878630813104294
 30
0.0
 40
0.0984106553289854
 50
253.9301333813494068
 51
304.0365873200851183
  0
ARC
  5
A92A
  8
0
 10
122.6047959732452028
 20
-32.014357918647903
 30
0.0
 40
0.0696483403501343
 50
183.4982535125930951
 51
257.7806050152989883
  0
ARC
  5
A92B
  8
0
 10
122.6132365740026984
 20
-32.027603969651139
 30
0.0
 40
0.0784765147087815
 50
85.597843582297088
 51
173.4173644171395949
  0
ARC
  5
A92C
  8
0
 10
122.6217832478100007
 20
-32.0248338822774485
 30
0.0
 40
0.066910127656693
 50
38.0963913827520315
 51
89.3381679669184336
  0
ARC
  5
A92D
  8
0
 10
122.6472453296033933
 20
-32.0048716493995116
 30
0.0
 40
0.0345557098636452
 50
345.0565847727510231
 51
38.0963913827525005
  0
ARC
  5
A92E
  8
0
 10
122.5941413552206996
 20
-31.9906986778623406
 30
0.0
 40
0.0895184719616329
 50
334.5462929606832176
 51
345.0565847727510231
  0
ARC
  5
A92F
  8
0
 10
122.618600979071303
 20
-32.0331703517020472
 30
0.0
 40
0.0753460135098222
 50
86.9909881042897553
 51
125.8941783419255955
  0
ARC
  5
A930
  8
0
 10
122.6029736580513969
 20
-32.011577435690711
 30
0.0
 40
0.0486914232084985
 50
125.8941783419254961
 51
159.9238971765653048
  0
ARC
  5
A931
  8
0
 10
122.6004971734360964
 20
-32.0081730581664203
 30
0.0
 40
0.0452577210265095
 50
162.8970408063102013
 51
216.986215635088513
  0
ARC
  5
A932
  8
0
 10
122.6655439790837931
 20
-31.7490255785868385
 30
0.0
 40
0.0208795163170247
 50
44.1768875531557583
 51
86.6629530184024759
  0
ARC
  5
A933
  8
0
 10
122.671180138144905
 20
-31.7435490752650189
 30
0.0
 40
0.0130208664586923
 50
9.6822906223593002
 51
44.1768875531574707
  0
ARC
  5
A934
  8
0
 10
122.670029419214103
 20
-31.7437454052090509
 30
0.0
 40
0.0141882136669251
 50
300.0766040607244918
 51
9.6822906223652545
  0
ARC
  5
A935
  8
0
 10
122.6632925325495052
 20
-31.7321127206857412
 30
0.0
 40
0.0276308693252965
 50
270.9126501147828208
 51
300.0766040607264244
  0
ARC
  5
A936
  8
0
 10
122.6634241754783972
 20
-31.7403765078477385
 30
0.0
 40
0.0193660336875146
 50
211.3800699372656879
 51
270.9126501147828208
  0
ARC
  5
A937
  8
0
 10
122.657505861515304
 20
-31.7439862370243908
 30
0.0
 40
0.0124337479970251
 50
138.9060869574902028
 51
211.3800699372631868
  0
ARC
  5
A938
  8
0
 10
122.6650604983573061
 20
-31.7505751535598293
 30
0.0
 40
0.0224580364468308
 50
85.6616411946760365
 51
138.9060869574911123
  0
ARC
  5
A939
  8
0
 10
122.6666890509194019
 20
-31.7495958552366417
 30
0.0
 40
0.0563345438779192
 50
22.4796643778728011
 51
94.5851993670379159
  0
ARC
  5
A93A
  8
0
 10
122.6807293761068962
 20
-31.7380532727580089
 30
0.0
 40
0.0393062691072688
 50
331.3511229452604994
 51
14.7346069197413101
  0
ARC
  5
A93B
  8
0
 10
122.6657514352171034
 20
-31.7275043174462716
 30
0.0
 40
0.0575455985621572
 50
267.6455515507437894
 51
329.2832302287066
  0
ARC
  5
A93C
  8
0
 10
122.6621027151335994
 20
-31.7287571977690099
 30
0.0
 40
0.056258808283494
 50
211.8782198639621868
 51
271.3084643086526739
  0
ARC
  5
A93D
  8
0
 10
122.6489063341588945
 20
-31.7386145880336485
 30
0.0
 40
0.0398715991608819
 50
117.9669016295888042
 51
209.8639678803037896
  0
ARC
  5
A93E
  8
0
 10
122.6646463756543
 20
-31.7576683869410097
 30
0.0
 40
0.0642739045012947
 50
92.1941609130562512
 51
122.3985253874243
  0
ARC
  5
A93F
  8
0
 10
122.6664983390974015
 20
-31.7466134191431486
 30
0.0
 40
0.0886044800564175
 50
38.6502855312636129
 51
91.4056838768928657
  0
ARC
  5
A940
  8
0
 10
122.6859857094735986
 20
-31.7261496437754182
 30
0.0
 40
0.0607240893827736
 50
301.2003143656930888
 51
35.052538656186961
  0
ARC
  5
A941
  8
0
 10
122.6623600856270002
 20
-31.6965397136016485
 30
0.0
 40
0.0984106553289854
 50
253.9301333813494068
 51
304.0365873200851183
  0
ARC
  5
A942
  8
0
 10
122.6498605639401944
 20
-31.7230345509391185
 30
0.0
 40
0.0696483403501343
 50
183.4982535125930951
 51
257.7806050152989883
  0
ARC
  5
A943
  8
0
 10
122.6583011646976047
 20
-31.7362806019423687
 30
0.0
 40
0.0784765147087815
 50
85.597843582297088
 51
173.4173644171395949
  0
ARC
  5
A944
  8
0
 10
122.6668478385050065
 20
-31.7335105145686711
 30
0.0
 40
0.066910127656693
 50
38.0963913827520315
 51
89.3381679669184336
  0
ARC
  5
A945
  8
0
 10
122.6923099202983991
 20
-31.7135482816907412
 30
0.0
 40
0.0345557098636452
 50
345.0565847727510231
 51
38.0963913827525005
  0
ARC
  5
A946
  8
0
 10
122.6392059459156059
 20
-31.6993753101535702
 30
0.0
 40
0.0895184719616329
 50
334.5462929606832176
 51
345.0565847727510231
  0
ARC
  5
A947
  8
0
 10
122.6636655697661951
 20
-31.7418469839932804
 30
0.0
 40
0.0753460135098222
 50
86.9909881042897553
 51
125.8941783419255955
  0
ARC
  5
A948
  8
0
 10
122.6480382487463032
 20
-31.72025406798193
 30
0.0
 40
0.0486914232084985
 50
125.8941783419254961
 51
159.9238971765653048
  0
ARC
  5
A949
  8
0
 10
122.6455617641311022
 20
-31.71684969045765
 30
0.0
 40
0.0452577210265095
 50
162.8970408063102013
 51
216.986215635088513
  0
ARC
  5
A94A
  8
0
 10
122.2993258497039051
 20
-32.5506964587782122
 30
0.0
 40
0.0208795163170247
 50
44.1768875531557583
 51
86.6629530184024759
  0
ARC
  5
A94B
  8
0
 10
122.3049620087649032
 20
-32.5452199554564032
 30
0.0
 40
0.0130208664586923
 50
9.6822906223593002
 51
44.1768875531574707
  0
ARC
  5
A94C
  8
0
 10
122.3038112898342007
 20
-32.5454162854004281
 30
0.0
 40
0.0141882136669251
 50
300.0766040607244918
 51
9.6822906223652545
  0
ARC
  5
A94D
  8
0
 10
122.2970744031696029
 20
-32.533783600877122
 30
0.0
 40
0.0276308693252965
 50
270.9126501147828208
 51
300.0766040607264244
  0
ARC
  5
A94E
  8
0
 10
122.2972060460984949
 20
-32.5420473880391228
 30
0.0
 40
0.0193660336875146
 50
211.3800699372656879
 51
270.9126501147828208
  0
ARC
  5
A94F
  8
0
 10
122.2912877321354017
 20
-32.5456571172157609
 30
0.0
 40
0.0124337479970251
 50
138.9060869574902028
 51
211.3800699372631868
  0
ARC
  5
A950
  8
0
 10
122.2988423689774038
 20
-32.552246033751203
 30
0.0
 40
0.0224580364468308
 50
85.6616411946760365
 51
138.9060869574911123
  0
ARC
  5
A951
  8
0
 10
122.3004709215394996
 20
-32.5512667354280083
 30
0.0
 40
0.0563345438779192
 50
22.4796643778728011
 51
94.5851993670379159
  0
ARC
  5
A952
  8
0
 10
122.3145112467269939
 20
-32.5397241529493826
 30
0.0
 40
0.0393062691072688
 50
331.3511229452604994
 51
14.7346069197413101
  0
ARC
  5
A953
  8
0
 10
122.2995333058372012
 20
-32.5291751976376418
 30
0.0
 40
0.0575455985621572
 50
267.6455515507437894
 51
329.2832302287066
  0
ARC
  5
A954
  8
0
 10
122.2958845857535977
 20
-32.5304280779603801
 30
0.0
 40
0.056258808283494
 50
211.8782198639621868
 51
271.3084643086526739
  0
ARC
  5
A955
  8
0
 10
122.2826882047790065
 20
-32.5402854682250222
 30
0.0
 40
0.0398715991608819
 50
117.9669016295888042
 51
209.8639678803037896
  0
ARC
  5
A956
  8
0
 10
122.2984282462743977
 20
-32.5593392671323798
 30
0.0
 40
0.0642739045012947
 50
92.1941609130562512
 51
122.3985253874243
  0
ARC
  5
A957
  8
0
 10
122.3002802097174992
 20
-32.5482842993345329
 30
0.0
 40
0.0886044800564175
 50
38.6502855312636129
 51
91.4056838768928657
  0
ARC
  5
A958
  8
0
 10
122.3197675800936963
 20
-32.5278205239668026
 30
0.0
 40
0.0607240893827736
 50
301.2003143656930888
 51
35.052538656186961
  0
ARC
  5
A959
  8
0
 10
122.2961419562470979
 20
-32.4982105937930328
 30
0.0
 40
0.0984106553289854
 50
253.9301333813494068
 51
304.0365873200851183
  0
ARC
  5
A95A
  8
0
 10
122.2836424345603064
 20
-32.5247054311304993
 30
0.0
 40
0.0696483403501343
 50
183.4982535125930951
 51
257.7806050152989883
  0
ARC
  5
A95B
  8
0
 10
122.2920830353177024
 20
-32.5379514821337423
 30
0.0
 40
0.0784765147087815
 50
85.597843582297088
 51
173.4173644171395949
  0
ARC
  5
A95C
  8
0
 10
122.3006297091251042
 20
-32.5351813947600519
 30
0.0
 40
0.066910127656693
 50
38.0963913827520315
 51
89.3381679669184336
  0
ARC
  5
A95D
  8
0
 10
122.3260917909184968
 20
-32.515219161882122
 30
0.0
 40
0.0345557098636452
 50
345.0565847727510231
 51
38.0963913827525005
  0
ARC
  5
A95E
  8
0
 10
122.2729878165357036
 20
-32.5010461903449368
 30
0.0
 40
0.0895184719616329
 50
334.5462929606832176
 51
345.0565847727510231
  0
ARC
  5
A95F
  8
0
 10
122.297447440386307
 20
-32.5435178641846505
 30
0.0
 40
0.0753460135098222
 50
86.9909881042897553
 51
125.8941783419255955
  0
ARC
  5
A960
  8
0
 10
122.2818201193664009
 20
-32.5219249481733073
 30
0.0
 40
0.0486914232084985
 50
125.8941783419254961
 51
159.9238971765653048
  0
ARC
  5
A961
  8
0
 10
122.2793436347511005
 20
-32.5185205706490166
 30
0.0
 40
0.0452577210265095
 50
162.8970408063102013
 51
216.986215635088513
  0
ARC
  5
A962
  8
0
 10
121.8979942472983993
 20
-32.4763416077999381
 30
0.0
 40
0.0208795163170247
 50
44.1768875531557583
 51
86.6629530184024759
  0
ARC
  5
A963
  8
0
 10
121.9036304063594969
 20
-32.470865104478122
 30
0.0
 40
0.0130208664586923
 50
9.6822906223593002
 51
44.1768875531574707
  0
ARC
  5
A964
  8
0
 10
121.9024796874286949
 20
-32.4710614344221469
 30
0.0
 40
0.0141882136669251
 50
300.0766040607244918
 51
9.6822906223652545
  0
ARC
  5
A965
  8
0
 10
121.8957428007641965
 20
-32.4594287498988407
 30
0.0
 40
0.0276308693252965
 50
270.9126501147828208
 51
300.0766040607264244
  0
ARC
  5
A966
  8
0
 10
121.8958744436930033
 20
-32.4676925370608416
 30
0.0
 40
0.0193660336875146
 50
211.3800699372656879
 51
270.9126501147828208
  0
ARC
  5
A967
  8
0
 10
121.8899561297298959
 20
-32.4713022662374868
 30
0.0
 40
0.0124337479970251
 50
138.9060869574902028
 51
211.3800699372631868
  0
ARC
  5
A968
  8
0
 10
121.897510766571898
 20
-32.4778911827729218
 30
0.0
 40
0.0224580364468308
 50
85.6616411946760365
 51
138.9060869574911123
  0
ARC
  5
A969
  8
0
 10
121.8991393191339938
 20
-32.4769118844497271
 30
0.0
 40
0.0563345438779192
 50
22.4796643778728011
 51
94.5851993670379159
  0
ARC
  5
A96A
  8
0
 10
121.9131796443215023
 20
-32.4653693019711085
 30
0.0
 40
0.0393062691072688
 50
331.3511229452604994
 51
14.7346069197413101
  0
ARC
  5
A96B
  8
0
 10
121.8982017034316954
 20
-32.4548203466593677
 30
0.0
 40
0.0575455985621572
 50
267.6455515507437894
 51
329.2832302287066
  0
ARC
  5
A96C
  8
0
 10
121.8945529833482055
 20
-32.4560732269821131
 30
0.0
 40
0.056258808283494
 50
211.8782198639621868
 51
271.3084643086526739
  0
ARC
  5
A96D
  8
0
 10
121.8813566023736001
 20
-32.4659306172467481
 30
0.0
 40
0.0398715991608819
 50
117.9669016295888042
 51
209.8639678803037896
  0
ARC
  5
A96E
  8
0
 10
121.8970966438689061
 20
-32.4849844161541128
 30
0.0
 40
0.0642739045012947
 50
92.1941609130562512
 51
122.3985253874243
  0
ARC
  5
A96F
  8
0
 10
121.8989486073119934
 20
-32.4739294483562517
 30
0.0
 40
0.0886044800564175
 50
38.6502855312636129
 51
91.4056838768928657
  0
ARC
  5
A970
  8
0
 10
121.9184359776882047
 20
-32.4534656729885214
 30
0.0
 40
0.0607240893827736
 50
301.2003143656930888
 51
35.052538656186961
  0
ARC
  5
A971
  8
0
 10
121.8948103538417058
 20
-32.4238557428147516
 30
0.0
 40
0.0984106553289854
 50
253.9301333813494068
 51
304.0365873200851183
  0
ARC
  5
A972
  8
0
 10
121.8823108321548006
 20
-32.4503505801522181
 30
0.0
 40
0.0696483403501343
 50
183.4982535125930951
 51
257.7806050152989883
  0
ARC
  5
A973
  8
0
 10
121.8907514329122961
 20
-32.4635966311554682
 30
0.0
 40
0.0784765147087815
 50
85.597843582297088
 51
173.4173644171395949
  0
ARC
  5
A974
  8
0
 10
121.8992981067195984
 20
-32.4608265437817778
 30
0.0
 40
0.066910127656693
 50
38.0963913827520315
 51
89.3381679669184336
  0
ARC
  5
A975
  8
0
 10
121.9247601885130052
 20
-32.4408643109038408
 30
0.0
 40
0.0345557098636452
 50
345.0565847727510231
 51
38.0963913827525005
  0
ARC
  5
A976
  8
0
 10
121.8716562141301978
 20
-32.4266913393666627
 30
0.0
 40
0.0895184719616329
 50
334.5462929606832176
 51
345.0565847727510231
  0
ARC
  5
A977
  8
0
 10
121.8961158379809007
 20
-32.4691630132063835
 30
0.0
 40
0.0753460135098222
 50
86.9909881042897553
 51
125.8941783419255955
  0
ARC
  5
A978
  8
0
 10
121.8804885169609946
 20
-32.4475700971950332
 30
0.0
 40
0.0486914232084985
 50
125.8941783419254961
 51
159.9238971765653048
  0
ARC
  5
A979
  8
0
 10
121.8780120323456941
 20
-32.4441657196707496
 30
0.0
 40
0.0452577210265095
 50
162.8970408063102013
 51
216.986215635088513
  0
ARC
  5
A97A
  8
0
 10
122.0278226863053987
 20
-32.7320508748305272
 30
0.0
 40
0.0208795163170247
 50
44.1768875531557583
 51
86.6629530184024759
  0
ARC
  5
A97B
  8
0
 10
122.0334588453664963
 20
-32.7265743715087112
 30
0.0
 40
0.0130208664586923
 50
9.6822906223593002
 51
44.1768875531574707
  0
ARC
  5
A97C
  8
0
 10
122.0323081264356944
 20
-32.7267707014527431
 30
0.0
 40
0.0141882136669251
 50
300.0766040607244918
 51
9.6822906223652545
  0
ARC
  5
A97D
  8
0
 10
122.025571239771196
 20
-32.7151380169294299
 30
0.0
 40
0.0276308693252965
 50
270.9126501147828208
 51
300.0766040607264244
  0
ARC
  5
A97E
  8
0
 10
122.0257028827000028
 20
-32.7234018040914307
 30
0.0
 40
0.0193660336875146
 50
211.3800699372656879
 51
270.9126501147828208
  0
ARC
  5
A97F
  8
0
 10
122.0197845687368954
 20
-32.7270115332680831
 30
0.0
 40
0.0124337479970251
 50
138.9060869574902028
 51
211.3800699372631868
  0
ARC
  5
A980
  8
0
 10
122.0273392055788975
 20
-32.7336004498035109
 30
0.0
 40
0.0224580364468308
 50
85.6616411946760365
 51
138.9060869574911123
  0
ARC
  5
A981
  8
0
 10
122.0289677581409933
 20
-32.7326211514803234
 30
0.0
 40
0.0563345438779192
 50
22.4796643778728011
 51
94.5851993670379159
  0
ARC
  5
A982
  8
0
 10
122.0430080833285018
 20
-32.7210785690016976
 30
0.0
 40
0.0393062691072688
 50
331.3511229452604994
 51
14.7346069197413101
  0
ARC
  5
A983
  8
0
 10
122.0280301424386948
 20
-32.7105296136899568
 30
0.0
 40
0.0575455985621572
 50
267.6455515507437894
 51
329.2832302287066
  0
ARC
  5
A984
  8
0
 10
122.024381422355205
 20
-32.7117824940127022
 30
0.0
 40
0.056258808283494
 50
211.8782198639621868
 51
271.3084643086526739
  0
ARC
  5
A985
  8
0
 10
122.0111850413805001
 20
-32.7216398842773373
 30
0.0
 40
0.0398715991608819
 50
117.9669016295888042
 51
209.8639678803037896
  0
ARC
  5
A986
  8
0
 10
122.0269250828759056
 20
-32.740693683184702
 30
0.0
 40
0.0642739045012947
 50
92.1941609130562512
 51
122.3985253874243
  0
ARC
  5
A987
  8
0
 10
122.0287770463189929
 20
-32.7296387153868409
 30
0.0
 40
0.0886044800564175
 50
38.6502855312636129
 51
91.4056838768928657
  0
ARC
  5
A988
  8
0
 10
122.0482644166952042
 20
-32.7091749400191105
 30
0.0
 40
0.0607240893827736
 50
301.2003143656930888
 51
35.052538656186961
  0
ARC
  5
A989
  8
0
 10
122.0246387928487053
 20
-32.6795650098453407
 30
0.0
 40
0.0984106553289854
 50
253.9301333813494068
 51
304.0365873200851183
  0
ARC
  5
A98A
  8
0
 10
122.0121392711618
 20
-32.7060598471828214
 30
0.0
 40
0.0696483403501343
 50
183.4982535125930951
 51
257.7806050152989883
  0
ARC
  5
A98B
  8
0
 10
122.0205798719192956
 20
-32.7193058981860574
 30
0.0
 40
0.0784765147087815
 50
85.597843582297088
 51
173.4173644171395949
  0
ARC
  5
A98C
  8
0
 10
122.0291265457265979
 20
-32.7165358108123669
 30
0.0
 40
0.066910127656693
 50
38.0963913827520315
 51
89.3381679669184336
  0
ARC
  5
A98D
  8
0
 10
122.0545886275200047
 20
-32.69657357793443
 30
0.0
 40
0.0345557098636452
 50
345.0565847727510231
 51
38.0963913827525005
  0
ARC
  5
A98E
  8
0
 10
122.0014846531371973
 20
-32.682400606397259
 30
0.0
 40
0.0895184719616329
 50
334.5462929606832176
 51
345.0565847727510231
  0
ARC
  5
A98F
  8
0
 10
122.0259442769878007
 20
-32.7248722802369727
 30
0.0
 40
0.0753460135098222
 50
86.9909881042897553
 51
125.8941783419255955
  0
ARC
  5
A990
  8
0
 10
122.0103169559679941
 20
-32.7032793642256294
 30
0.0
 40
0.0486914232084985
 50
125.8941783419254961
 51
159.9238971765653048
  0
ARC
  5
A991
  8
0
 10
122.0078404713526936
 20
-32.6998749867013387
 30
0.0
 40
0.0452577210265095
 50
162.8970408063102013
 51
216.986215635088513
  0
ARC
  5
A992
  8
0
 10
121.7233279562429971
 20
-32.8928784091777473
 30
0.0
 40
0.0208795163170247
 50
44.1768875531557583
 51
86.6629530184024759
  0
ARC
  5
A993
  8
0
 10
121.7289641153040947
 20
-32.8874019058559313
 30
0.0
 40
0.0130208664586923
 50
9.6822906223593002
 51
44.1768875531574707
  0
ARC
  5
A994
  8
0
 10
121.7278133963733069
 20
-32.8875982357999632
 30
0.0
 40
0.0141882136669251
 50
300.0766040607244918
 51
9.6822906223652545
  0
ARC
  5
A995
  8
0
 10
121.7210765097087943
 20
-32.87596555127665
 30
0.0
 40
0.0276308693252965
 50
270.9126501147828208
 51
300.0766040607264244
  0
ARC
  5
A996
  8
0
 10
121.7212081526377006
 20
-32.8842293384386508
 30
0.0
 40
0.0193660336875146
 50
211.3800699372656879
 51
270.9126501147828208
  0
ARC
  5
A997
  8
0
 10
121.7152898386745932
 20
-32.8878390676153032
 30
0.0
 40
0.0124337479970251
 50
138.9060869574902028
 51
211.3800699372631868
  0
ARC
  5
A998
  8
0
 10
121.7228444755164958
 20
-32.894427984150731
 30
0.0
 40
0.0224580364468308
 50
85.6616411946760365
 51
138.9060869574911123
  0
ARC
  5
A999
  8
0
 10
121.7244730280787053
 20
-32.8934486858275434
 30
0.0
 40
0.0563345438779192
 50
22.4796643778728011
 51
94.5851993670379159
  0
ARC
  5
A99A
  8
0
 10
121.7385133532661001
 20
-32.8819061033489177
 30
0.0
 40
0.0393062691072688
 50
331.3511229452604994
 51
14.7346069197413101
  0
ARC
  5
A99B
  8
0
 10
121.7235354123762932
 20
-32.8713571480371769
 30
0.0
 40
0.0575455985621572
 50
267.6455515507437894
 51
329.2832302287066
  0
ARC
  5
A99C
  8
0
 10
121.7198866922928033
 20
-32.8726100283599223
 30
0.0
 40
0.056258808283494
 50
211.8782198639621868
 51
271.3084643086526739
  0
ARC
  5
A99D
  8
0
 10
121.7066903113180985
 20
-32.8824674186245574
 30
0.0
 40
0.0398715991608819
 50
117.9669016295888042
 51
209.8639678803037896
  0
ARC
  5
A99E
  8
0
 10
121.7224303528136033
 20
-32.901521217531922
 30
0.0
 40
0.0642739045012947
 50
92.1941609130562512
 51
122.3985253874243
  0
ARC
  5
A99F
  8
0
 10
121.7242823162566054
 20
-32.890466249734061
 30
0.0
 40
0.0886044800564175
 50
38.6502855312636129
 51
91.4056838768928657
  0
ARC
  5
A9A0
  8
0
 10
121.7437696866328025
 20
-32.8700024743663306
 30
0.0
 40
0.0607240893827736
 50
301.2003143656930888
 51
35.052538656186961
  0
ARC
  5
A9A1
  8
0
 10
121.7201440627863036
 20
-32.8403925441925608
 30
0.0
 40
0.0984106553289854
 50
253.9301333813494068
 51
304.0365873200851183
  0
ARC
  5
A9A2
  8
0
 10
121.7076445410994978
 20
-32.8668873815300273
 30
0.0
 40
0.0696483403501343
 50
183.4982535125930951
 51
257.7806050152989883
  0
ARC
  5
A9A3
  8
0
 10
121.7160851418568939
 20
-32.8801334325332775
 30
0.0
 40
0.0784765147087815
 50
85.597843582297088
 51
173.4173644171395949
  0
ARC
  5
A9A4
  8
0
 10
121.7246318156641962
 20
-32.8773633451595799
 30
0.0
 40
0.066910127656693
 50
38.0963913827520315
 51
89.3381679669184336
  0
ARC
  5
A9A5
  8
0
 10
121.7500938974577025
 20
-32.8574011122816501
 30
0.0
 40
0.0345557098636452
 50
345.0565847727510231
 51
38.0963913827525005
  0
ARC
  5
A9A6
  8
0
 10
121.696989923074895
 20
-32.8432281407444719
 30
0.0
 40
0.0895184719616329
 50
334.5462929606832176
 51
345.0565847727510231
  0
ARC
  5
A9A7
  8
0
 10
121.7214495469254985
 20
-32.8856998145841928
 30
0.0
 40
0.0753460135098222
 50
86.9909881042897553
 51
125.8941783419255955
  0
ARC
  5
A9A8
  8
0
 10
121.7058222259056066
 20
-32.8641068985728424
 30
0.0
 40
0.0486914232084985
 50
125.8941783419254961
 51
159.9238971765653048
  0
ARC
  5
A9A9
  8
0
 10
121.7033457412903061
 20
-32.8607025210485588
 30
0.0
 40
0.0452577210265095
 50
162.8970408063102013
 51
216.986215635088513
  0
ARC
  5
A9AA
  8
0
 10
121.5216134350825001
 20
-32.6881354134735176
 30
0.0
 40
0.0208795163170247
 50
44.1768875531557583
 51
86.6629530184024759
  0
ARC
  5
A9AB
  8
0
 10
121.5272495941435977
 20
-32.6826589101517015
 30
0.0
 40
0.0130208664586923
 50
9.6822906223593002
 51
44.1768875531574707
  0
ARC
  5
A9AC
  8
0
 10
121.5260988752127957
 20
-32.6828552400957335
 30
0.0
 40
0.0141882136669251
 50
300.0766040607244918
 51
9.6822906223652545
  0
ARC
  5
A9AD
  8
0
 10
121.5193619885482974
 20
-32.6712225555724203
 30
0.0
 40
0.0276308693252965
 50
270.9126501147828208
 51
300.0766040607264244
  0
ARC
  5
A9AE
  8
0
 10
121.5194936314772036
 20
-32.6794863427344069
 30
0.0
 40
0.0193660336875146
 50
211.3800699372656879
 51
270.9126501147828208
  0
ARC
  5
A9AF
  8
0
 10
121.5135753175140962
 20
-32.6830960719110593
 30
0.0
 40
0.0124337479970251
 50
138.9060869574902028
 51
211.3800699372631868
  0
ARC
  5
A9B0
  8
0
 10
121.5211299543559988
 20
-32.6896849884465013
 30
0.0
 40
0.0224580364468308
 50
85.6616411946760365
 51
138.9060869574911123
  0
ARC
  5
A9B1
  8
0
 10
121.5227585069181941
 20
-32.6887056901233208
 30
0.0
 40
0.0563345438779192
 50
22.4796643778728011
 51
94.5851993670379159
  0
ARC
  5
A9B2
  8
0
 10
121.5367988321057027
 20
-32.677163107644688
 30
0.0
 40
0.0393062691072688
 50
331.3511229452604994
 51
14.7346069197413101
  0
ARC
  5
A9B3
  8
0
 10
121.5218208912158957
 20
-32.6666141523329472
 30
0.0
 40
0.0575455985621572
 50
267.6455515507437894
 51
329.2832302287066
  0
ARC
  5
A9B4
  8
0
 10
121.5181721711323064
 20
-32.6678670326556784
 30
0.0
 40
0.056258808283494
 50
211.8782198639621868
 51
271.3084643086526739
  0
ARC
  5
A9B5
  8
0
 10
121.504975790157701
 20
-32.6777244229203276
 30
0.0
 40
0.0398715991608819
 50
117.9669016295888042
 51
209.8639678803037896
  0
ARC
  5
A9B6
  8
0
 10
121.5207158316531064
 20
-32.6967782218276923
 30
0.0
 40
0.0642739045012947
 50
92.1941609130562512
 51
122.3985253874243
  0
ARC
  5
A9B7
  8
0
 10
121.5225677950961938
 20
-32.6857232540298313
 30
0.0
 40
0.0886044800564175
 50
38.6502855312636129
 51
91.4056838768928657
  0
ARC
  5
A9B8
  8
0
 10
121.5420551654724051
 20
-32.6652594786621009
 30
0.0
 40
0.0607240893827736
 50
301.2003143656930888
 51
35.052538656186961
  0
ARC
  5
A9B9
  8
0
 10
121.5184295416258067
 20
-32.6356495484883311
 30
0.0
 40
0.0984106553289854
 50
253.9301333813494068
 51
304.0365873200851183
  0
ARC
  5
A9BA
  8
0
 10
121.5059300199390009
 20
-32.6621443858257976
 30
0.0
 40
0.0696483403501343
 50
183.4982535125930951
 51
257.7806050152989883
  0
ARC
  5
A9BB
  8
0
 10
121.5143706206963969
 20
-32.6753904368290478
 30
0.0
 40
0.0784765147087815
 50
85.597843582297088
 51
173.4173644171395949
  0
ARC
  5
A9BC
  8
0
 10
121.5229172945036993
 20
-32.6726203494553502
 30
0.0
 40
0.066910127656693
 50
38.0963913827520315
 51
89.3381679669184336
  0
ARC
  5
A9BD
  8
0
 10
121.5483793762972056
 20
-32.6526581165774203
 30
0.0
 40
0.0345557098636452
 50
345.0565847727510231
 51
38.0963913827525005
  0
ARC
  5
A9BE
  8
0
 10
121.4952754019143981
 20
-32.6384851450402493
 30
0.0
 40
0.0895184719616329
 50
334.5462929606832176
 51
345.0565847727510231
  0
ARC
  5
A9BF
  8
0
 10
121.5197350257650015
 20
-32.6809568188799631
 30
0.0
 40
0.0753460135098222
 50
86.9909881042897553
 51
125.8941783419255955
  0
ARC
  5
A9C0
  8
0
 10
121.5041077047450955
 20
-32.6593639028686127
 30
0.0
 40
0.0486914232084985
 50
125.8941783419254961
 51
159.9238971765653048
  0
ARC
  5
A9C1
  8
0
 10
121.501631220129795
 20
-32.655959525344322
 30
0.0
 40
0.0452577210265095
 50
162.8970408063102013
 51
216.986215635088513
  0
ARC
  5
A9C2
  8
0
 10
121.3548969806430051
 20
-33.0048954258777485
 30
0.0
 40
0.0208795163170247
 50
44.1768875531557583
 51
86.6629530184024759
  0
ARC
  5
A9C3
  8
0
 10
121.3605331397041027
 20
-32.9994189225559325
 30
0.0
 40
0.0130208664586923
 50
9.6822906223593002
 51
44.1768875531574707
  0
ARC
  5
A9C4
  8
0
 10
121.3593824207733007
 20
-32.9996152524999573
 30
0.0
 40
0.0141882136669251
 50
300.0766040607244918
 51
9.6822906223652545
  0
ARC
  5
A9C5
  8
0
 10
121.3526455341088024
 20
-32.9879825679766512
 30
0.0
 40
0.0276308693252965
 50
270.9126501147828208
 51
300.0766040607264244
  0
ARC
  5
A9C6
  8
0
 10
121.3527771770375949
 20
-32.996246355138652
 30
0.0
 40
0.0193660336875146
 50
211.3800699372656879
 51
270.9126501147828208
  0
ARC
  5
A9C7
  8
0
 10
121.3468588630746012
 20
-32.9998560843152973
 30
0.0
 40
0.0124337479970251
 50
138.9060869574902028
 51
211.3800699372631868
  0
ARC
  5
A9C8
  8
0
 10
121.3544134999165038
 20
-33.0064450008507322
 30
0.0
 40
0.0224580364468308
 50
85.6616411946760365
 51
138.9060869574911123
  0
ARC
  5
A9C9
  8
0
 10
121.3560420524786991
 20
-33.0054657025275375
 30
0.0
 40
0.0563345438779192
 50
22.4796643778728011
 51
94.5851993670379159
  0
ARC
  5
A9CA
  8
0
 10
121.370082377666094
 20
-32.9939231200489189
 30
0.0
 40
0.0393062691072688
 50
331.3511229452604994
 51
14.7346069197413101
  0
ARC
  5
A9CB
  8
0
 10
121.3551044367763012
 20
-32.9833741647371781
 30
0.0
 40
0.0575455985621572
 50
267.6455515507437894
 51
329.2832302287066
  0
ARC
  5
A9CC
  8
0
 10
121.3514557166927972
 20
-32.9846270450599235
 30
0.0
 40
0.056258808283494
 50
211.8782198639621868
 51
271.3084643086526739
  0
ARC
  5
A9CD
  8
0
 10
121.338259335718206
 20
-32.9944844353245585
 30
0.0
 40
0.0398715991608819
 50
117.9669016295888042
 51
209.8639678803037896
  0
ARC
  5
A9CE
  8
0
 10
121.3539993772135972
 20
-33.0135382342319232
 30
0.0
 40
0.0642739045012947
 50
92.1941609130562512
 51
122.3985253874243
  0
ARC
  5
A9CF
  8
0
 10
121.3558513406565993
 20
-33.0024832664340622
 30
0.0
 40
0.0886044800564175
 50
38.6502855312636129
 51
91.4056838768928657
  0
ARC
  5
A9D0
  8
0
 10
121.3753387110327964
 20
-32.9820194910663318
 30
0.0
 40
0.0607240893827736
 50
301.2003143656930888
 51
35.052538656186961
  0
ARC
  5
A9D1
  8
0
 10
121.3517130871862975
 20
-32.952409560892562
 30
0.0
 40
0.0984106553289854
 50
253.9301333813494068
 51
304.0365873200851183
  0
ARC
  5
A9D2
  8
0
 10
121.3392135654995059
 20
-32.9789043982300285
 30
0.0
 40
0.0696483403501343
 50
183.4982535125930951
 51
257.7806050152989883
  0
ARC
  5
A9D3
  8
0
 10
121.3476541662569019
 20
-32.9921504492332787
 30
0.0
 40
0.0784765147087815
 50
85.597843582297088
 51
173.4173644171395949
  0
ARC
  5
A9D4
  8
0
 10
121.3562008400642043
 20
-32.9893803618595882
 30
0.0
 40
0.066910127656693
 50
38.0963913827520315
 51
89.3381679669184336
  0
ARC
  5
A9D5
  8
0
 10
121.3816629218576963
 20
-32.9694181289816513
 30
0.0
 40
0.0345557098636452
 50
345.0565847727510231
 51
38.0963913827525005
  0
ARC
  5
A9D6
  8
0
 10
121.3285589474749031
 20
-32.9552451574444731
 30
0.0
 40
0.0895184719616329
 50
334.5462929606832176
 51
345.0565847727510231
  0
ARC
  5
A9D7
  8
0
 10
121.3530185713255065
 20
-32.9977168312841869
 30
0.0
 40
0.0753460135098222
 50
86.9909881042897553
 51
125.8941783419255955
  0
ARC
  5
A9D8
  8
0
 10
121.3373912503056005
 20
-32.9761239152728365
 30
0.0
 40
0.0486914232084985
 50
125.8941783419254961
 51
159.9238971765653048
  0
ARC
  5
A9D9
  8
0
 10
121.3349147656903
 20
-32.97271953774856
 30
0.0
 40
0.0452577210265095
 50
162.8970408063102013
 51
216.986215635088513
  0
ARC
  5
A9DA
  8
0
 10
121.0419261120613044
 20
-32.8111735233369686
 30
0.0
 40
0.0208795163170247
 50
44.1768875531557583
 51
86.6629530184024759
  0
ARC
  5
A9DB
  8
0
 10
121.047562271122402
 20
-32.8056970200151383
 30
0.0
 40
0.0130208664586923
 50
9.6822906223593002
 51
44.1768875531574707
  0
ARC
  5
A9DC
  8
0
 10
121.0464115521916
 20
-32.8058933499591774
 30
0.0
 40
0.0141882136669251
 50
300.0766040607244918
 51
9.6822906223652545
  0
ARC
  5
A9DD
  8
0
 10
121.0396746655271016
 20
-32.7942606654358713
 30
0.0
 40
0.0276308693252965
 50
270.9126501147828208
 51
300.0766040607264244
  0
ARC
  5
A9DE
  8
0
 10
121.0398063084558942
 20
-32.8025244525978721
 30
0.0
 40
0.0193660336875146
 50
211.3800699372656879
 51
270.9126501147828208
  0
ARC
  5
A9DF
  8
0
 10
121.033887994492801
 20
-32.8061341817745173
 30
0.0
 40
0.0124337479970251
 50
138.9060869574902028
 51
211.3800699372631868
  0
ARC
  5
A9E0
  8
0
 10
121.0414426313348031
 20
-32.8127230983099523
 30
0.0
 40
0.0224580364468308
 50
85.6616411946760365
 51
138.9060869574911123
  0
ARC
  5
A9E1
  8
0
 10
121.0430711838968989
 20
-32.8117437999867718
 30
0.0
 40
0.0563345438779192
 50
22.4796643778728011
 51
94.5851993670379159
  0
ARC
  5
A9E2
  8
0
 10
121.0571115090843932
 20
-32.800201217508139
 30
0.0
 40
0.0393062691072688
 50
331.3511229452604994
 51
14.7346069197413101
  0
ARC
  5
A9E3
  8
0
 10
121.0421335681946005
 20
-32.7896522621963982
 30
0.0
 40
0.0575455985621572
 50
267.6455515507437894
 51
329.2832302287066
  0
ARC
  5
A9E4
  8
0
 10
121.0384848481110964
 20
-32.7909051425191365
 30
0.0
 40
0.056258808283494
 50
211.8782198639621868
 51
271.3084643086526739
  0
ARC
  5
A9E5
  8
0
 10
121.0252884671364058
 20
-32.8007625327837786
 30
0.0
 40
0.0398715991608819
 50
117.9669016295888042
 51
209.8639678803037896
  0
ARC
  5
A9E6
  8
0
 10
121.041028508631797
 20
-32.8198163316911433
 30
0.0
 40
0.0642739045012947
 50
92.1941609130562512
 51
122.3985253874243
  0
ARC
  5
A9E7
  8
0
 10
121.0428804720748985
 20
-32.8087613638932822
 30
0.0
 40
0.0886044800564175
 50
38.6502855312636129
 51
91.4056838768928657
  0
ARC
  5
A9E8
  8
0
 10
121.0623678424510956
 20
-32.7882975885255519
 30
0.0
 40
0.0607240893827736
 50
301.2003143656930888
 51
35.052538656186961
  0
ARC
  5
A9E9
  8
0
 10
121.0387422186045967
 20
-32.7586876583517821
 30
0.0
 40
0.0984106553289854
 50
253.9301333813494068
 51
304.0365873200851183
  0
ARC
  5
A9EA
  8
0
 10
121.0262426969177056
 20
-32.7851824956892486
 30
0.0
 40
0.0696483403501343
 50
183.4982535125930951
 51
257.7806050152989883
  0
ARC
  5
A9EB
  8
0
 10
121.0346832976751017
 20
-32.7984285466924987
 30
0.0
 40
0.0784765147087815
 50
85.597843582297088
 51
173.4173644171395949
  0
ARC
  5
A9EC
  8
0
 10
121.0432299714825035
 20
-32.7956584593188012
 30
0.0
 40
0.066910127656693
 50
38.0963913827520315
 51
89.3381679669184336
  0
ARC
  5
A9ED
  8
0
 10
121.0686920532758961
 20
-32.7756962264408713
 30
0.0
 40
0.0345557098636452
 50
345.0565847727510231
 51
38.0963913827525005
  0
ARC
  5
A9EE
  8
0
 10
121.0155880788931029
 20
-32.7615232549036932
 30
0.0
 40
0.0895184719616329
 50
334.5462929606832176
 51
345.0565847727510231
  0
ARC
  5
A9EF
  8
0
 10
121.0400477027437063
 20
-32.8039949287434069
 30
0.0
 40
0.0753460135098222
 50
86.9909881042897553
 51
125.8941783419255955
  0
ARC
  5
A9F0
  8
0
 10
121.0244203817238002
 20
-32.7824020127320566
 30
0.0
 40
0.0486914232084985
 50
125.8941783419254961
 51
159.9238971765653048
  0
ARC
  5
A9F1
  8
0
 10
121.0219438971085992
 20
-32.778997635207773
 30
0.0
 40
0.0452577210265095
 50
162.8970408063102013
 51
216.986215635088513
  0
ARC
  5
A9F2
  8
0
 10
120.9809637599023944
 20
-33.0628767077390009
 30
0.0
 40
0.0208795163170247
 50
44.1768875531557583
 51
86.6629530184024759
  0
ARC
  5
A9F3
  8
0
 10
120.9865999189635062
 20
-33.0574002044171777
 30
0.0
 40
0.0130208664586923
 50
9.6822906223593002
 51
44.1768875531574707
  0
ARC
  5
A9F4
  8
0
 10
120.9854492000327042
 20
-33.0575965343612097
 30
0.0
 40
0.0141882136669251
 50
300.0766040607244918
 51
9.6822906223652545
  0
ARC
  5
A9F5
  8
0
 10
120.9787123133682059
 20
-33.0459638498379107
 30
0.0
 40
0.0276308693252965
 50
270.9126501147828208
 51
300.0766040607264244
  0
ARC
  5
A9F6
  8
0
 10
120.9788439562970979
 20
-33.0542276369998973
 30
0.0
 40
0.0193660336875146
 50
211.3800699372656879
 51
270.9126501147828208
  0
ARC
  5
A9F7
  8
0
 10
120.9729256423340047
 20
-33.0578373661765497
 30
0.0
 40
0.0124337479970251
 50
138.9060869574902028
 51
211.3800699372631868
  0
ARC
  5
A9F8
  8
0
 10
120.9804802791758931
 20
-33.0644262827119917
 30
0.0
 40
0.0224580364468308
 50
85.6616411946760365
 51
138.9060869574911123
  0
ARC
  5
A9F9
  8
0
 10
120.9821088317381026
 20
-33.063446984388797
 30
0.0
 40
0.0563345438779192
 50
22.4796643778728011
 51
94.5851993670379159
  0
ARC
  5
A9FA
  8
0
 10
120.9961491569255969
 20
-33.0519044019101713
 30
0.0
 40
0.0393062691072688
 50
331.3511229452604994
 51
14.7346069197413101
  0
ARC
  5
A9FB
  8
0
 10
120.9811712160358042
 20
-33.0413554465984305
 30
0.0
 40
0.0575455985621572
 50
267.6455515507437894
 51
329.2832302287066
  0
ARC
  5
A9FC
  8
0
 10
120.9775224959522006
 20
-33.0426083269211688
 30
0.0
 40
0.056258808283494
 50
211.8782198639621868
 51
271.3084643086526739
  0
ARC
  5
A9FD
  8
0
 10
120.9643261149775952
 20
-33.0524657171858109
 30
0.0
 40
0.0398715991608819
 50
117.9669016295888042
 51
209.8639678803037896
  0
ARC
  5
A9FE
  8
0
 10
120.9800661564730007
 20
-33.0715195160931685
 30
0.0
 40
0.0642739045012947
 50
92.1941609130562512
 51
122.3985253874243
  0
ARC
  5
A9FF
  8
0
 10
120.9819181199161022
 20
-33.0604645482953217
 30
0.0
 40
0.0886044800564175
 50
38.6502855312636129
 51
91.4056838768928657
  0
ARC
  5
AA00
  8
0
 10
121.0014054902922993
 20
-33.0400007729275913
 30
0.0
 40
0.0607240893827736
 50
301.2003143656930888
 51
35.052538656186961
  0
ARC
  5
AA01
  8
0
 10
120.9777798664457009
 20
-33.0103908427538215
 30
0.0
 40
0.0984106553289854
 50
253.9301333813494068
 51
304.0365873200851183
  0
ARC
  5
AA02
  8
0
 10
120.9652803447588951
 20
-33.0368856800912809
 30
0.0
 40
0.0696483403501343
 50
183.4982535125930951
 51
257.7806050152989883
  0
ARC
  5
AA03
  8
0
 10
120.9737209455163054
 20
-33.0501317310945311
 30
0.0
 40
0.0784765147087815
 50
85.597843582297088
 51
173.4173644171395949
  0
ARC
  5
AA04
  8
0
 10
120.982267619323693
 20
-33.0473616437208406
 30
0.0
 40
0.066910127656693
 50
38.0963913827520315
 51
89.3381679669184336
  0
ARC
  5
AA05
  8
0
 10
121.0077297011170998
 20
-33.0273994108428965
 30
0.0
 40
0.0345557098636452
 50
345.0565847727510231
 51
38.0963913827525005
  0
ARC
  5
AA06
  8
0
 10
120.9546257267343066
 20
-33.0132264393057326
 30
0.0
 40
0.0895184719616329
 50
334.5462929606832176
 51
345.0565847727510231
  0
ARC
  5
AA07
  8
0
 10
120.9790853505848958
 20
-33.0556981131454393
 30
0.0
 40
0.0753460135098222
 50
86.9909881042897553
 51
125.8941783419255955
  0
ARC
  5
AA08
  8
0
 10
120.9634580295650039
 20
-33.0341051971341031
 30
0.0
 40
0.0486914232084985
 50
125.8941783419254961
 51
159.9238971765653048
  0
ARC
  5
AA09
  8
0
 10
120.9609815449497034
 20
-33.0307008196098124
 30
0.0
 40
0.0452577210265095
 50
162.8970408063102013
 51
216.986215635088513
  0
ARC
  5
AA0A
  8
0
 10
120.8059419884366008
 20
-32.5618838693953307
 30
0.0
 40
0.0607240893827736
 50
301.2003143656930888
 51
35.052538656186961
  0
ARC
  5
AA0B
  8
0
 10
120.8122661992614013
 20
-32.5492825073106502
 30
0.0
 40
0.0345557098636452
 50
345.0565847727510231
 51
38.0963913827525005
  0
ARC
  5
AA0C
  8
0
 10
120.7591622248785939
 20
-32.5351095357734721
 30
0.0
 40
0.0895184719616329
 50
334.5462929606832176
 51
345.0565847727510231
  0
ARC
  5
AA0D
  8
0
 10
121.3147652257430025
 20
-32.46779940117775
 30
0.0
 40
0.0208795163170247
 50
44.1768875531557583
 51
86.6629530184024759
  0
ARC
  5
AA0E
  8
0
 10
121.3204013848041001
 20
-32.4623228978559268
 30
0.0
 40
0.0130208664586923
 50
9.6822906223593002
 51
44.1768875531574707
  0
ARC
  5
AA0F
  8
0
 10
121.3192506658732981
 20
-32.4625192277999588
 30
0.0
 40
0.0141882136669251
 50
300.0766040607244918
 51
9.6822906223652545
  0
ARC
  5
AA10
  8
0
 10
121.3125137792087997
 20
-32.4508865432766527
 30
0.0
 40
0.0276308693252965
 50
270.9126501147828208
 51
300.0766040607264244
  0
ARC
  5
AA11
  8
0
 10
121.312645422137706
 20
-32.4591503304386535
 30
0.0
 40
0.0193660336875146
 50
211.3800699372656879
 51
270.9126501147828208
  0
ARC
  5
AA12
  8
0
 10
121.3067271081745986
 20
-32.4627600596152988
 30
0.0
 40
0.0124337479970251
 50
138.9060869574902028
 51
211.3800699372631868
  0
ARC
  5
AA13
  8
0
 10
121.3142817450165012
 20
-32.4693489761507266
 30
0.0
 40
0.0224580364468308
 50
85.6616411946760365
 51
138.9060869574911123
  0
ARC
  5
AA14
  8
0
 10
121.3159102975786965
 20
-32.4683696778275532
 30
0.0
 40
0.0563345438779192
 50
22.4796643778728011
 51
94.5851993670379159
  0
ARC
  5
AA15
  8
0
 10
121.3299506227661055
 20
-32.4568270953489204
 30
0.0
 40
0.0393062691072688
 50
331.3511229452604994
 51
14.7346069197413101
  0
ARC
  5
AA16
  8
0
 10
121.3149726818762986
 20
-32.4462781400371796
 30
0.0
 40
0.0575455985621572
 50
267.6455515507437894
 51
329.2832302287066
  0
ARC
  5
AA17
  8
0
 10
121.3113239617927945
 20
-32.4475310203599179
 30
0.0
 40
0.056258808283494
 50
211.8782198639621868
 51
271.3084643086526739
  0
ARC
  5
AA18
  8
0
 10
121.2981275808182033
 20
-32.45738841062456
 30
0.0
 40
0.0398715991608819
 50
117.9669016295888042
 51
209.8639678803037896
  0
ARC
  5
AA19
  8
0
 10
121.3138676223134951
 20
-32.4764422095319176
 30
0.0
 40
0.0642739045012947
 50
92.1941609130562512
 51
122.3985253874243
  0
ARC
  5
AA1A
  8
0
 10
121.3157195857566961
 20
-32.4653872417340708
 30
0.0
 40
0.0886044800564175
 50
38.6502855312636129
 51
91.4056838768928657
  0
ARC
  5
AA1B
  8
0
 10
121.3352069561328932
 20
-32.4449234663663333
 30
0.0
 40
0.0607240893827736
 50
301.2003143656930888
 51
35.052538656186961
  0
ARC
  5
AA1C
  8
0
 10
121.3115813322862948
 20
-32.4153135361925706
 30
0.0
 40
0.0984106553289854
 50
253.9301333813494068
 51
304.0365873200851183
  0
ARC
  5
AA1D
  8
0
 10
121.2990818105994038
 20
-32.4418083735300371
 30
0.0
 40
0.0696483403501343
 50
183.4982535125930951
 51
257.7806050152989883
  0
ARC
  5
AA1E
  8
0
 10
121.3075224113568993
 20
-32.4550544245332802
 30
0.0
 40
0.0784765147087815
 50
85.597843582297088
 51
173.4173644171395949
  0
ARC
  5
AA1F
  8
0
 10
121.3160690851642016
 20
-32.4522843371595826
 30
0.0
 40
0.066910127656693
 50
38.0963913827520315
 51
89.3381679669184336
  0
ARC
  5
AA20
  8
0
 10
121.3415311669575942
 20
-32.4323221042816527
 30
0.0
 40
0.0345557098636452
 50
345.0565847727510231
 51
38.0963913827525005
  0
ARC
  5
AA21
  8
0
 10
121.2884271925749005
 20
-32.4181491327444817
 30
0.0
 40
0.0895184719616329
 50
334.5462929606832176
 51
345.0565847727510231
  0
ARC
  5
AA22
  8
0
 10
121.3128868164255039
 20
-32.4606208065841884
 30
0.0
 40
0.0753460135098222
 50
86.9909881042897553
 51
125.8941783419255955
  0
ARC
  5
AA23
  8
0
 10
121.2972594954055978
 20
-32.4390278905728522
 30
0.0
 40
0.0486914232084985
 50
125.8941783419254961
 51
159.9238971765653048
  0
ARC
  5
AA24
  8
0
 10
121.2947830107902973
 20
-32.4356235130485615
 30
0.0
 40
0.0452577210265095
 50
162.8970408063102013
 51
216.986215635088513
  0
ARC
  5
AA25
  8
0
 10
122.0329542496127999
 20
-30.7743342946397114
 30
0.0
 40
0.0208795163170247
 50
44.1768875531557583
 51
86.6629530184024759
  0
ARC
  5
AA26
  8
0
 10
122.038590408673798
 20
-30.7688577913178882
 30
0.0
 40
0.0130208664586923
 50
9.6822906223593002
 51
44.1768875531574707
  0
ARC
  5
AA27
  8
0
 10
122.0374396897429961
 20
-30.7690541212619308
 30
0.0
 40
0.0141882136669251
 50
300.0766040607244918
 51
9.6822906223652545
  0
ARC
  5
AA28
  8
0
 10
122.0307028030784977
 20
-30.7574214367386212
 30
0.0
 40
0.0276308693252965
 50
270.9126501147828208
 51
300.0766040607264244
  0
ARC
  5
AA29
  8
0
 10
122.0308344460074039
 20
-30.7656852239006113
 30
0.0
 40
0.0193660336875146
 50
211.3800699372656879
 51
270.9126501147828208
  0
ARC
  5
AA2A
  8
0
 10
122.0249161320442965
 20
-30.7692949530772601
 30
0.0
 40
0.0124337479970251
 50
138.9060869574902028
 51
211.3800699372631868
  0
ARC
  5
AA2B
  8
0
 10
122.0324707688862986
 20
-30.7758838696126986
 30
0.0
 40
0.0224580364468308
 50
85.6616411946760365
 51
138.9060869574911123
  0
ARC
  5
AA2C
  8
0
 10
122.0340993214483944
 20
-30.7749045712895111
 30
0.0
 40
0.0563345438779192
 50
22.4796643778728011
 51
94.5851993670379159
  0
ARC
  5
AA2D
  8
0
 10
122.048139646635903
 20
-30.7633619888108782
 30
0.0
 40
0.0393062691072688
 50
331.3511229452604994
 51
14.7346069197413101
  0
ARC
  5
AA2E
  8
0
 10
122.033161705746096
 20
-30.752813033499141
 30
0.0
 40
0.0575455985621572
 50
267.6455515507437894
 51
329.2832302287066
  0
ARC
  5
AA2F
  8
0
 10
122.0295129856626062
 20
-30.7540659138218793
 30
0.0
 40
0.056258808283494
 50
211.8782198639621868
 51
271.3084643086526739
  0
ARC
  5
AA30
  8
0
 10
122.0163166046879013
 20
-30.7639233040865285
 30
0.0
 40
0.0398715991608819
 50
117.9669016295888042
 51
209.8639678803037896
  0
ARC
  5
AA31
  8
0
 10
122.0320566461833067
 20
-30.782977102993879
 30
0.0
 40
0.0642739045012947
 50
92.1941609130562512
 51
122.3985253874243
  0
ARC
  5
AA32
  8
0
 10
122.0339086096263941
 20
-30.7719221351960286
 30
0.0
 40
0.0886044800564175
 50
38.6502855312636129
 51
91.4056838768928657
  0
ARC
  5
AA33
  8
0
 10
122.0533959800026054
 20
-30.7514583598282982
 30
0.0
 40
0.0607240893827736
 50
301.2003143656930888
 51
35.052538656186961
  0
ARC
  5
AA34
  8
0
 10
122.029770356156007
 20
-30.7218484296545284
 30
0.0
 40
0.0984106553289854
 50
253.9301333813494068
 51
304.0365873200851183
  0
ARC
  5
AA35
  8
0
 10
122.0172708344692012
 20
-30.7483432669919985
 30
0.0
 40
0.0696483403501343
 50
183.4982535125930951
 51
257.7806050152989883
  0
ARC
  5
AA36
  8
0
 10
122.0257114352265972
 20
-30.7615893179952415
 30
0.0
 40
0.0784765147087815
 50
85.597843582297088
 51
173.4173644171395949
  0
ARC
  5
AA37
  8
0
 10
122.0342581090339991
 20
-30.7588192306215511
 30
0.0
 40
0.066910127656693
 50
38.0963913827520315
 51
89.3381679669184336
  0
ARC
  5
AA38
  8
0
 10
122.0597201908274059
 20
-30.7388569977436212
 30
0.0
 40
0.0345557098636452
 50
345.0565847727510231
 51
38.0963913827525005
  0
ARC
  5
AA39
  8
0
 10
122.0066162164445984
 20
-30.7246840262064396
 30
0.0
 40
0.0895184719616329
 50
334.5462929606832176
 51
345.0565847727510231
  0
ARC
  5
AA3A
  8
0
 10
122.0310758402952018
 20
-30.7671557000461604
 30
0.0
 40
0.0753460135098222
 50
86.9909881042897553
 51
125.8941783419255955
  0
ARC
  5
AA3B
  8
0
 10
122.0154485192752958
 20
-30.74556278403481
 30
0.0
 40
0.0486914232084985
 50
125.8941783419254961
 51
159.9238971765653048
  0
ARC
  5
AA3C
  8
0
 10
122.0129720346599953
 20
-30.7421584065105193
 30
0.0
 40
0.0452577210265095
 50
162.8970408063102013
 51
216.986215635088513
  0
ENDSEC
  0
EOF
