  0
SECTION
  2
HEADER
  9
$ACADVER
  1
AC1009
  9
$INSBASE
 10
2941.5107512843801487
 20
127.1314219615921957
 30
0.0
  9
$EXTMIN
 10
2935.0460469796908001
 20
92.0032968983599062
 30
-0.0000000000000058
  9
$EXTMAX
 10
2941.6098128559410725
 20
135.9403213383444893
 30
0.0000000000000104
  9
$LIMMIN
 10
0.0
 20
0.0
  9
$LIMMAX
 10
11.6929133858000007
 20
8.2677165353999982
  9
$ORTHOMODE
 70
     0
  9
$REGENMODE
 70
     1
  9
$FILLMODE
 70
     1
  9
$QTEXTMODE
 70
     0
  9
$MIRRTEXT
 70
     0
  9
$DRAGMODE
 70
     2
  9
$LTSCALE
 40
0.6431102362
  9
$OSMODE
 70
   575
  9
$ATTMODE
 70
     1
  9
$TEXTSIZE
 40
0.2
  9
$TRACEWID
 40
0.05
  9
$TEXTSTYLE
  7
STANDARD
  9
$CLAYER
  8
0
  9
$CELTYPE
  6
BYLAYER
  9
$CECOLOR
 62
   256
  9
$DIMSCALE
 40
1.0
  9
$DIMASZ
 40
0.1875
  9
$DIMEXO
 40
0.0625
  9
$DIMDLI
 40
0.4443307087
  9
$DIMRND
 40
0.0
  9
$DIMDLE
 40
0.0
  9
$DIMEXE
 40
0.125
  9
$DIMTP
 40
0.01
  9
$DIMTM
 40
0.01
  9
$DIMTXT
 40
2.0
  9
$DIMCEN
 40
0.1052362205
  9
$DIMTSZ
 40
0.0
  9
$DIMTOL
 70
     1
  9
$DIMLIM
 70
     0
  9
$DIMTIH
 70
     1
  9
$DIMTOH
 70
     1
  9
$DIMSE1
 70
     0
  9
$DIMSE2
 70
     0
  9
$DIMTAD
 70
     0
  9
$DIMZIN
 70
     0
  9
$DIMBLK
  1

  9
$DIMASO
 70
     1
  9
$DIMSHO
 70
     1
  9
$DIMPOST
  1
\X
  9
$DIMAPOST
  1

  9
$DIMALT
 70
     1
  9
$DIMALTD
 70
     2
  9
$DIMALTF
 40
25.3999999999999986
  9
$DIMLFAC
 40
1.0
  9
$DIMTOFL
 70
     0
  9
$DIMTVP
 40
0.0
  9
$DIMTIX
 70
     0
  9
$DIMSOXD
 70
     0
  9
$DIMSAH
 70
     0
  9
$DIMBLK1
  1

  9
$DIMBLK2
  1

  9
$DIMSTYLE
  2
STANDARD
  9
$DIMCLRD
 70
     0
  9
$DIMCLRE
 70
     0
  9
$DIMCLRT
 70
     0
  9
$DIMTFAC
 40
1.0
  9
$DIMGAP
 40
0.09
  9
$LUNITS
 70
     2
  9
$LUPREC
 70
     4
  9
$SKETCHINC
 40
0.1
  9
$FILLETRAD
 40
0.0
  9
$AUNITS
 70
     0
  9
$AUPREC
 70
     0
  9
$MENU
  1
.
  9
$ELEVATION
 40
0.0
  9
$PELEVATION
 40
0.0
  9
$THICKNESS
 40
0.0
  9
$LIMCHECK
 70
     0
  9
$BLIPMODE
 70
     0
  9
$CHAMFERA
 40
0.0
  9
$CHAMFERB
 40
0.0
  9
$SKPOLY
 70
     0
  9
$TDCREATE
 40
2458060.468368056230247
  9
$TDUPDATE
 40
2459531.5923611111938953
  9
$TDINDWG
 40
0.654046412
  9
$TDUSRTIMER
 40
0.654046412
  9
$USRTIMER
 70
     1
  9
$ANGBASE
 50
0.0
  9
$ANGDIR
 70
     0
  9
$PDMODE
 70
     0
  9
$PDSIZE
 40
0.3125
  9
$PLINEWID
 40
0.0
  9
$COORDS
 70
     1
  9
$SPLFRAME
 70
     0
  9
$SPLINETYPE
 70
     6
  9
$SPLINESEGS
 70
     8
  9
$ATTDIA
 70
     1
  9
$ATTREQ
 70
     1
  9
$HANDLING
 70
     1
  9
$HANDSEED
  5
2EB8F
  9
$SURFTAB1
 70
     6
  9
$SURFTAB2
 70
     6
  9
$SURFTYPE
 70
     6
  9
$SURFU
 70
     6
  9
$SURFV
 70
     6
  9
$UCSNAME
  2

  9
$UCSORG
 10
0.0
 20
0.0
 30
0.0
  9
$UCSXDIR
 10
1.0
 20
0.0
 30
0.0
  9
$UCSYDIR
 10
0.0
 20
1.0
 30
0.0
  9
$PUCSNAME
  2

  9
$PUCSORG
 10
0.0
 20
0.0
 30
0.0
  9
$PUCSXDIR
 10
1.0
 20
0.0
 30
0.0
  9
$PUCSYDIR
 10
0.0
 20
1.0
 30
0.0
  9
$USERI1
 70
     0
  9
$USERI2
 70
     0
  9
$USERI3
 70
     0
  9
$USERI4
 70
     0
  9
$USERI5
 70
     0
  9
$USERR1
 40
0.0
  9
$USERR2
 40
0.0
  9
$USERR3
 40
0.0
  9
$USERR4
 40
0.0
  9
$USERR5
 40
0.0
  9
$WORLDVIEW
 70
     1
  9
$SHADEDGE
 70
     3
  9
$SHADEDIF
 70
    70
  9
$TILEMODE
 70
     1
  9
$MAXACTVP
 70
    64
  9
$PLIMCHECK
 70
     0
  9
$PEXTMIN
 10
1.0000000000000000E+20
 20
1.0000000000000000E+20
 30
1.0000000000000000E+20
  9
$PEXTMAX
 10
-1.0000000000000000E+20
 20
-1.0000000000000000E+20
 30
-1.0000000000000000E+20
  9
$PLIMMIN
 10
0.0
 20
0.0
  9
$PLIMMAX
 10
12.0
 20
9.0
  9
$UNITMODE
 70
     0
  9
$VISRETAIN
 70
     1
  9
$PLINEGEN
 70
     0
  9
$PSLTSCALE
 70
     1
  0
ENDSEC
  0
SECTION
  2
TABLES
  0
TABLE
  2
VPORT
 70
     1
  0
VPORT
  2
*ACTIVE
 70
     0
 10
0.0
 20
0.0
 11
1.0
 21
1.0
 12
-365.3651856017384034
 22
-81.2897025067119046
 13
0.0
 23
0.0
 14
1.0
 24
1.0
 15
0.0
 25
0.0
 16
0.0
 26
0.0
 36
96.5995694866707311
 17
3303.693115234375
 27
195.2615115758877096
 37
0.0
 40
53.7147197282250772
 41
2.6799307958477501
 42
50.0
 43
0.0
 44
0.0
 50
0.0
 51
0.0
 71
     0
 72
   100
 73
     1
 74
     1
 75
     0
 76
     0
 77
     0
 78
     0
  0
ENDTAB
  0
TABLE
  2
LTYPE
 70
     2
  0
LTYPE
  2
CONTINUOUS
 70
     0
  3
Solid line
 72
    65
 73
     0
 40
0.0
  0
LTYPE
  2
PHANTOM2
 70
     0
  3
___ _ _ ___ _ _ ___ _ _ ___ _ _
 72
    65
 73
     6
 40
1.25
 49
0.625
 49
-0.125
 49
0.125
 49
-0.125
 49
0.125
 49
-0.125
  0
ENDTAB
  0
TABLE
  2
LAYER
 70
     2
  0
LAYER
  2
0
 70
     0
 62
   255
  6
CONTINUOUS
  0
LAYER
  2
DEFPOINTS
 70
     0
 62
     7
  6
CONTINUOUS
  0
ENDTAB
  0
TABLE
  2
STYLE
 70
     1
  0
STYLE
  2
STANDARD
 70
     0
 40
0.0
 41
0.8
 50
0.0
 71
     0
 42
0.2
  3
txt
  4

  0
ENDTAB
  0
TABLE
  2
VIEW
 70
     0
  0
ENDTAB
  0
TABLE
  2
UCS
 70
     0
  0
ENDTAB
  0
TABLE
  2
APPID
 70
     9
  0
APPID
  2
ACAD
 70
     0
  0
APPID
  2
ACAD_MLEADERVER
 70
     0
  0
APPID
  2
ACAD_EXEMPT_FROM_CAD_STANDARDS
 70
     0
  0
APPID
  2
ACAD_NAV_VCDISPLAY
 70
     0
  0
APPID
  2
ACAECLAYERSTANDARD
 70
     0
  0
APPID
  2
ACCMTRANSPARENCY
 70
     0
  0
APPID
  2
ACAD_DSTYLE_DIMJAG
 70
     0
  0
APPID
  2
ACAD_DSTYLE_DIMTALN
 70
     0
  0
APPID
  2
ACDBATTR
 70
     0
  0
ENDTAB
  0
TABLE
  2
DIMSTYLE
 70
     1
  0
DIMSTYLE
  2
STANDARD
 70
     0
  3

  4

  5

  6

  7

 40
1.0
 41
0.1875
 42
0.0625
 43
0.38
 44
0.125
 45
0.0
 46
0.0
 47
0.01
 48
0.01
140
0.15625
141
0.09
142
0.0
143
25.3999999999999986
144
1.0
145
0.0
146
1.0
147
0.09
 71
     1
 72
     0
 73
     1
 74
     1
 75
     0
 76
     0
 77
     0
 78
     4
170
     0
171
     2
172
     0
173
     0
174
     0
175
     0
176
     0
177
     0
178
     0
  0
ENDTAB
  0
ENDSEC
  0
SECTION
  2
BLOCKS
  0
BLOCK
  8
0
  2
$MODEL_SPACE
 70
     0
 10
0.0
 20
0.0
 30
0.0
  3
$MODEL_SPACE
  1

  0
ENDBLK
  5
21
  8
0
  0
BLOCK
 67
     1
  8
0
  2
$PAPER_SPACE
 70
     0
 10
0.0
 20
0.0
 30
0.0
  3
$PAPER_SPACE
  1

  0
ENDBLK
  5
1D
 67
     1
  8
0
  0
ENDSEC
  0
SECTION
  2
ENTITIES
  0
ATTDEF
  5
28FC7
  8
DEFPOINTS
 10
2941.5108873886738365
 20
127.1348509126909931
 30
0.0
 40
0.001
  1
K-10309X
  3

  2
MODELNUMBER
 70
     0
1001
ACDBATTR
1070
     0
1070
     1
  0
ATTDEF
  5
28FC8
  8
DEFPOINTS
 10
2941.5108873886738365
 20
127.133184246024399
 30
0.0
 40
0.001
  1
CITRUS
  3

  2
TRADENAME
 70
     0
1001
ACDBATTR
1070
     0
1070
     1
  0
ATTDEF
  5
28FC9
  8
DEFPOINTS
 10
2941.5108873886738365
 20
127.1315175793577055
 30
0.0
 40
0.001
  1
HANDSHOWER SET
  3

  2
PRODUCT
 70
     0
1001
ACDBATTR
1070
     0
1070
     1
  0
LINE
  5
2E81B
  8
0
 10
2935.3439165250788392
 20
135.0878530407422033
 30
0.0
 11
2935.3675058543799423
 21
135.1037490887422052
 31
0.0
  0
LINE
  5
2E81C
  8
0
 10
2935.5845481277801809
 20
135.918460590942999
 30
0.0
 11
2935.1714383569787969
 21
135.5332307332421919
 31
0.0
  0
LINE
  5
2E81D
  8
0
 10
2935.2643909573798737
 20
135.1889961706422127
 30
0.0
 11
2935.3040935245799119
 21
135.2252228631423066
 31
0.0
  0
LINE
  5
2E81E
  8
0
 10
2935.2700821857401934
 20
135.2602922738965958
 30
0.0
 11
2935.2298652024787771
 21
135.2239043020422002
 31
0.0
  0
LINE
  5
2E81F
  8
0
 10
2935.7181603022791023
 20
134.477899994742188
 30
0.0
 11
2935.7391348614050912
 21
134.4948049518336006
 31
0.0
  0
LINE
  5
2E820
  8
0
 10
2935.7574094495798818
 20
134.4981832991421982
 30
0.0
 11
2935.7859493506789477
 21
134.5207386606423086
 31
0.0
  0
LINE
  5
2E821
  8
0
 10
2935.8571125760799987
 20
134.4821653517421964
 30
0.0
 11
2935.8845561922789784
 21
134.503789344742188
 31
0.0
  0
LINE
  5
2E822
  8
0
 10
2935.5796134128800077
 20
134.6745495170422089
 30
0.0
 11
2935.6065008319787921
 21
134.6951202258422029
 31
0.0
  0
LINE
  5
2E823
  8
0
 10
2935.6800086009789084
 20
134.6578005154422044
 30
0.0
 11
2935.7058068712790373
 21
134.6774590747421882
 31
0.0
  0
LINE
  5
2E824
  8
0
 10
2935.8217376914799388
 20
134.6151473496422
 30
0.0
 11
2935.8489010912799131
 21
134.6357892265421867
 31
0.0
  0
LINE
  5
2E825
  8
0
 10
2935.5441066972798581
 20
134.7925805465422116
 30
0.0
 11
2935.5686221154787745
 21
134.8107855830421897
 31
0.0
  0
LINE
  5
2E826
  8
0
 10
2935.6093530321800245
 20
134.8252430703421965
 30
0.0
 11
2935.6349596553791343
 21
134.8436962952422107
 31
0.0
  0
LINE
  5
2E827
  8
0
 10
2935.4463737350788506
 20
134.9864819265422966
 30
0.0
 11
2935.470750550079174
 21
135.0033416463423066
 31
0.0
  0
LINE
  5
2E828
  8
0
 10
2935.5941089026791815
 20
134.7538243514422049
 30
0.0
 11
2935.6287954473791615
 21
134.7901492829421954
 31
0.0
  0
LINE
  5
2E829
  8
0
 10
2935.4937942930791905
 20
134.771145454642209
 30
0.0
 11
2935.5171624865802187
 21
134.795191867042206
 31
0.0
  0
LINE
  5
2E82A
  8
0
 10
2935.73655956337916
 20
134.7115734981422008
 30
0.0
 11
2935.7695419302799564
 21
134.745348014442186
 31
0.0
  0
LINE
  5
2E82B
  8
0
 10
2935.4594096156802152
 20
134.8896676135422013
 30
0.0
 11
2935.4960190161791616
 21
134.9270575896422031
 31
0.0
  0
LINE
  5
2E82C
  8
0
 10
2935.3788427812692134
 20
135.0371675707322083
 30
0.0
 11
2935.3458581766799398
 21
135.0041829661421957
 31
0.0
  0
LINE
  5
2E82D
  8
0
 10
2935.5266614386791844
 20
134.9238116239422141
 30
0.0
 11
2935.5625577693799642
 21
134.9587316007421975
 31
0.0
  0
LINE
  5
2E82E
  8
0
 10
2935.3656190103802146
 20
135.086645168142212
 30
0.0
 11
2935.4038311010799589
 21
135.1223844162421983
 31
0.0
  0
LINE
  5
2E82F
  8
0
 10
2936.4208779640798639
 20
133.8400978218421926
 30
0.0
 11
2936.4481842520121972
 21
133.8644264819970999
 31
0.0
  0
LINE
  5
2E830
  8
0
 10
2936.3452261661800549
 20
133.8547163800421913
 30
0.0
 11
2936.3612470534299064
 21
133.8687987253242113
 31
0.0
  0
LINE
  5
2E831
  8
0
 10
2936.1928465059800146
 20
133.9609721249422023
 30
0.0
 11
2936.2238475043791368
 21
133.9877499061421986
 31
0.0
  0
LINE
  5
2E832
  8
0
 10
2936.3343972879788453
 20
134.1080860362422129
 30
0.0
 11
2936.3654192214498835
 21
134.1348557371493939
 31
0.0
  0
LINE
  5
2E833
  8
0
 10
2936.2846433400800379
 20
134.0582056400421891
 30
0.0
 11
2936.3159228444801556
 21
134.0849076982422048
 31
0.0
  0
LINE
  5
2E834
  8
0
 10
2936.0802051550799661
 20
134.1180928986422032
 30
0.0
 11
2936.1099206787789626
 21
134.1432754655421888
 31
0.0
  0
LINE
  5
2E835
  8
0
 10
2935.956225078179159
 20
134.1965619645422976
 30
0.0
 11
2935.9841777063788868
 21
134.2201896374421892
 31
0.0
  0
LINE
  5
2E836
  8
0
 10
2935.8679253122281807
 20
134.3022854011666993
 30
0.0
 11
2935.8582119497800704
 21
134.2941483507422049
 31
0.0
  0
LINE
  5
2E837
  8
0
 10
2936.0653420593798728
 20
134.1927414396421909
 30
0.0
 11
2936.0966671924788898
 21
134.2189200780422027
 31
0.0
  0
LINE
  5
2E838
  8
0
 10
2935.8506803898799262
 20
134.3461976087421874
 30
0.0
 11
2935.8779833891790076
 21
134.3686119528422012
 31
0.0
  0
LINE
  5
2E839
  8
0
 10
2936.0633438735799245
 20
134.2776527769422046
 30
0.0
 11
2936.0926630129788464
 21
134.3016673691421943
 31
0.0
  0
LINE
  5
2E83A
  8
0
 10
2936.0690411761797805
 20
134.3705338006421925
 30
0.0
 11
2936.0979449794799621
 21
134.3938843043422082
 31
0.0
  0
LINE
  5
2E83B
  8
0
 10
2938.2907211854981142
 20
133.2739876487081858
 30
0.0
 11
2938.5119616036799925
 21
133.4088967876421918
 31
0.0
  0
LINE
  5
2E83C
  8
0
 10
2936.1935417048789532
 20
134.1493072751422062
 30
0.0
 11
2936.2202437631790417
 21
134.1805867796423115
 31
0.0
  0
LINE
  5
2E83D
  8
0
 10
2936.2434221011799309
 20
134.1990612230422073
 30
0.0
 11
2936.2698700251798982
 21
134.2297362296422136
 31
0.0
  0
LINE
  5
2E83E
  8
0
 10
2936.0963081897798475
 20
134.0575104411421989
 30
0.0
 11
2936.1230859710790355
 21
134.0885114394421862
 31
0.0
  0
LINE
  5
2E83F
  8
0
 10
2935.9900524448789838
 20
134.2098901012421948
 30
0.0
 11
2936.004144230078964
 21
134.2259217277423033
 31
0.0
  0
LINE
  5
2E840
  8
0
 10
2935.8607246481788025
 20
134.294127184942198
 30
0.0
 11
2935.8907569129792137
 21
134.3281531731421978
 31
0.0
  0
LINE
  5
2E841
  8
0
 10
2935.9741163270791731
 20
134.3705909482422101
 30
0.0
 11
2936.0036320998788142
 21
134.4037724159423135
 31
0.0
  0
LINE
  5
2E842
  8
0
 10
2935.771629072405176
 20
134.4016629535423135
 30
0.0
 11
2935.7631445587799135
 21
134.3921356301422065
 31
0.0
  0
LINE
  5
2E843
  8
0
 10
2935.9754338867787737
 20
134.285541899242304
 30
0.0
 11
2935.999763209728826
 21
134.3128489310861085
 31
0.0
  0
LINE
  5
2E844
  8
0
 10
2935.7619751406791693
 20
134.4393945157422081
 30
0.0
 11
2935.793511403679986
 21
134.4741580468422057
 31
0.0
  0
LINE
  5
2E845
  8
0
 10
2935.9810277148799287
 20
134.4643777825421864
 30
0.0
 11
2936.0107685361799668
 21
134.4967134946421936
 31
0.0
  0
LINE
  5
2E846
  8
0
 10
2935.6303001380788373
 20
134.5718942678421968
 30
0.0
 11
2935.6636293533788375
 21
134.607972679742204
 31
0.0
  0
LINE
  5
2E847
  8
0
 10
2935.7696631274798165
 20
134.5767791442422094
 30
0.0
 11
2935.8023327129408244
 21
134.612129529651213
 31
0.0
  0
LINE
  5
2E848
  8
0
 10
2935.6700763751791783
 20
134.5934118924421909
 30
0.0
 11
2935.7048616312790728
 21
134.630360640242202
 31
0.0
  0
LINE
  5
2E849
  8
0
 10
2937.0250036784791519
 20
133.324073550742213
 30
0.0
 11
2937.0623936545798642
 21
133.3606829512422109
 31
0.0
  0
LINE
  5
2E84A
  8
0
 10
2936.846909563079862
 20
133.6012234985421969
 30
0.0
 11
2936.8806840793799893
 21
133.63420586534221
 31
0.0
  0
LINE
  5
2E84B
  8
0
 10
2936.9064815194788025
 20
133.3584582282423128
 30
0.0
 11
2936.930527931879169
 21
133.3818264216421881
 31
0.0
  0
LINE
  5
2E84C
  8
0
 10
2936.8891604162799922
 20
133.4587728377422025
 30
0.0
 11
2936.9254853477791585
 21
133.4934593824422961
 31
0.0
  0
LINE
  5
2E84D
  8
0
 10
2936.7287479573801647
 20
133.5347403102423129
 30
0.0
 11
2936.7656967050797903
 21
133.5695255664423087
 31
0.0
  0
LINE
  5
2E84E
  8
0
 10
2936.7121152091790464
 20
133.6343270625422974
 30
0.0
 11
2936.7475250879328996
 21
133.6670516296642859
 31
0.0
  0
LINE
  5
2E84F
  8
0
 10
2936.70723033278
 20
133.4949640731421994
 30
0.0
 11
2936.7433086096798434
 21
133.5282931638421928
 31
0.0
  0
LINE
  5
2E850
  8
0
 10
2936.5997138474799613
 20
133.8456916499422107
 30
0.0
 11
2936.6320495595791726
 21
133.8754324713422079
 31
0.0
  0
LINE
  5
2E851
  8
0
 10
2936.5747305806798977
 20
133.6266390757423039
 30
0.0
 11
2936.6094941117798953
 21
133.6581753388421987
 31
0.0
  0
LINE
  5
2E852
  8
0
 10
2936.5370379021551344
 20
133.6363276352093976
 30
0.0
 11
2936.5274716950789298
 21
133.6278084938423092
 31
0.0
  0
LINE
  5
2E853
  8
0
 10
2936.5059270131791891
 20
133.8387802621423077
 30
0.0
 11
2936.5391084808798041
 21
133.8682960349422046
 31
0.0
  0
LINE
  5
2E854
  8
0
 10
2936.4294632498799729
 20
133.7253885832421929
 30
0.0
 11
2936.4634892380800011
 21
133.7554208480422062
 31
0.0
  0
LINE
  5
2E855
  8
0
 10
2936.7504834144788219
 20
133.6864016265421924
 30
0.0
 11
2936.7711252914791658
 21
133.7135650264422111
 31
0.0
  0
LINE
  5
2E856
  8
0
 10
2936.617501416678806
 20
133.7217765111421954
 30
0.0
 11
2936.6391254095788099
 21
133.7492201273421983
 31
0.0
  0
LINE
  5
2E857
  8
0
 10
2936.633519364078893
 20
133.6220733846421922
 30
0.0
 11
2936.656074725579856
 21
133.6506132857423097
 31
0.0
  0
LINE
  5
2E858
  8
0
 10
2936.6132360595797763
 20
133.5828242373422086
 30
0.0
 11
2936.6301611869330372
 21
133.6038238223881081
 31
0.0
  0
LINE
  5
2E859
  8
0
 10
2936.5058698655789158
 20
133.9337051112422046
 30
0.0
 11
2936.5292203692788462
 21
133.9626089145423009
 31
0.0
  0
LINE
  5
2E85A
  8
0
 10
2936.4129892122791716
 20
133.9280074534422056
 30
0.0
 11
2936.437003434079088
 21
133.9573269480422084
 31
0.0
  0
LINE
  5
2E85B
  8
0
 10
2936.4815336736801328
 20
133.7153443250423095
 30
0.0
 11
2936.5039480177788391
 21
133.7426473243421867
 31
0.0
  0
LINE
  5
2E85C
  8
0
 10
2936.328077504580051
 20
133.9300059944422117
 30
0.0
 11
2936.3542561428789668
 21
133.9613311275423086
 31
0.0
  0
LINE
  5
2E85D
  8
0
 10
2936.4376214657831952
 20
133.7325892470070983
 30
0.0
 11
2936.4294844155801911
 21
133.7228758848422103
 31
0.0
  0
LINE
  5
2E85E
  8
0
 10
2936.3318980293802269
 20
133.820889013342196
 30
0.0
 11
2936.3555257023799641
 21
133.8488416414423057
 31
0.0
  0
LINE
  5
2E85F
  8
0
 10
2936.2534289635791538
 20
133.9448690901421912
 30
0.0
 11
2936.2786115304788837
 21
133.974584613842211
 31
0.0
  0
LINE
  5
2E860
  8
0
 10
2937.3243322354787779
 20
133.1290548924422126
 30
0.0
 11
2937.360558927980037
 21
133.1687574596421939
 31
0.0
  0
LINE
  5
2E861
  8
0
 10
2937.2219812330799869
 20
133.2302829454422977
 30
0.0
 11
2937.2577204811791489
 21
133.2684950361422125
 31
0.0
  0
LINE
  5
2E862
  8
0
 10
2937.0591476888789657
 20
133.3913253737422053
 30
0.0
 11
2937.0940676655791322
 21
133.427221704442303
 31
0.0
  0
LINE
  5
2E863
  8
0
 10
2937.1103945007798757
 20
133.2394015500422029
 30
0.0
 11
2937.1406796725541426
 21
133.2695247080202137
 31
0.0
  0
LINE
  5
2E864
  8
0
 10
2937.2231891056799213
 20
133.2085804602423025
 30
0.0
 11
2937.2390851536788432
 21
133.2321697894421959
 31
0.0
  0
LINE
  5
2E865
  8
0
 10
2937.1218179913798849
 20
133.3110376701422126
 30
0.0
 11
2937.1386777112797972
 21
133.3354144851423086
 31
0.0
  0
LINE
  5
2E866
  8
0
 10
2936.9605791352792039
 20
133.4740169672423065
 30
0.0
 11
2936.9790323600791453
 21
133.4996235905423134
 31
0.0
  0
LINE
  5
2E867
  8
0
 10
2936.9279166114788495
 20
133.4087706323423106
 30
0.0
 11
2936.9461216478798633
 21
133.4332860505421934
 31
0.0
  0
LINE
  5
2E868
  8
0
 10
2936.7931365803801782
 20
133.5446725361422011
 30
0.0
 11
2936.8127951396800199
 21
133.5704708063422004
 31
0.0
  0
LINE
  5
2E869
  8
0
 10
2936.8098855818798256
 20
133.4442773479422044
 30
0.0
 11
2936.8304563058832173
 21
133.4711647869150113
 31
0.0
  0
LINE
  5
2E86A
  8
0
 10
2940.1506790485800593
 20
128.4609065857422081
 30
0.0
 11
2940.2084223828787799
 21
128.4811710244422045
 31
0.0
  0
LINE
  5
2E86B
  8
0
 10
2938.0068142765799166
 20
104.5532786168422064
 30
0.0
 11
2938.8335859299800177
 21
104.5532786168422064
 31
0.0
  0
LINE
  5
2E86C
  8
0
 10
2937.9645624179797778
 20
104.6635148373422055
 30
0.0
 11
2938.8763704920797863
 21
104.6635148373422055
 31
0.0
  0
LINE
  5
2E86D
  8
0
 10
2938.8763704920797863
 20
104.958790427842203
 30
0.0
 11
2937.9645624179797778
 21
104.958790427842203
 31
0.0
  0
LINE
  5
2E86E
  8
0
 10
2938.8513024652797867
 20
105.1950109003421971
 30
0.0
 11
2937.9890977411801032
 21
105.1950109003421971
 31
0.0
  0
LINE
  5
2E86F
  8
0
 10
2937.9645624179797778
 20
104.6635148373422055
 30
0.0
 11
2937.9645624179797778
 21
104.958790427842203
 31
0.0
  0
LINE
  5
2E870
  8
0
 10
2937.9688165842790113
 20
104.6635148373422055
 30
0.0
 11
2937.9688165842790113
 21
104.958790427842203
 31
0.0
  0
LINE
  5
2E871
  8
0
 10
2937.9772867173787745
 20
104.5828061758421939
 30
0.0
 11
2937.9772867173787745
 21
105.183199876642206
 31
0.0
  0
LINE
  5
2E872
  8
0
 10
2937.9898891865800579
 20
104.6635148373422055
 30
0.0
 11
2937.9898891865791484
 21
104.958790427842203
 31
0.0
  0
LINE
  5
2E873
  8
0
 10
2938.0065108734797832
 20
104.6635148373422055
 30
0.0
 11
2938.0065108734797832
 21
104.958790427842203
 31
0.0
  0
LINE
  5
2E874
  8
0
 10
2938.0269950651800173
 20
104.6635148373422055
 30
0.0
 11
2938.0269950651800173
 21
104.958790427842203
 31
0.0
  0
LINE
  5
2E875
  8
0
 10
2938.04971628227986
 20
104.958790427842203
 30
0.0
 11
2938.04971628227986
 21
104.6635148373422055
 31
0.0
  0
LINE
  5
2E876
  8
0
 10
2938.0511505063800541
 20
104.6635148373422055
 30
0.0
 11
2938.0511505063800541
 21
104.958790427842203
 31
0.0
  0
LINE
  5
2E877
  8
0
 10
2938.0748718952800118
 20
104.958790427842203
 30
0.0
 11
2938.0748718952800118
 21
104.6635148373422055
 31
0.0
  0
LINE
  5
2E878
  8
0
 10
2938.0787516641798902
 20
104.6635148373422055
 30
0.0
 11
2938.0787516641798902
 21
104.958790427842203
 31
0.0
  0
LINE
  5
2E879
  8
0
 10
2938.1032517446801648
 20
104.958790427842203
 30
0.0
 11
2938.1032517446801648
 21
104.6635148373422055
 31
0.0
  0
LINE
  5
2E87A
  8
0
 10
2938.1095408341789152
 20
104.6635148373422055
 30
0.0
 11
2938.1095408341789152
 21
104.958790427842203
 31
0.0
  0
LINE
  5
2E87B
  8
0
 10
2938.134590855479928
 20
104.958790427842203
 30
0.0
 11
2938.134590855479928
 21
104.6635148373422055
 31
0.0
  0
LINE
  5
2E87C
  8
0
 10
2938.143230545978895
 20
104.6635148373422055
 30
0.0
 11
2938.143230545978895
 21
104.958790427842203
 31
0.0
  0
LINE
  5
2E87D
  8
0
 10
2938.168596622880159
 20
104.958790427842203
 30
0.0
 11
2938.168596622880159
 21
104.6635148373422055
 31
0.0
  0
LINE
  5
2E87E
  8
0
 10
2938.1795062479791341
 20
104.6635148373422055
 30
0.0
 11
2938.1795062479800436
 21
104.958790427842203
 31
0.0
  0
LINE
  5
2E87F
  8
0
 10
2938.204951544279993
 20
104.958790427842203
 30
0.0
 11
2938.204951544279993
 21
104.6635148373422055
 31
0.0
  0
LINE
  5
2E880
  8
0
 10
2938.2180292435791671
 20
104.6635148373422055
 30
0.0
 11
2938.2180292435791671
 21
104.958790427842203
 31
0.0
  0
LINE
  5
2E881
  8
0
 10
2938.2433161833791928
 20
104.958790427842203
 30
0.0
 11
2938.2433161833791928
 21
104.6635148373422055
 31
0.0
  0
LINE
  5
2E882
  8
0
 10
2938.2584398540789152
 20
104.6635148373422055
 30
0.0
 11
2938.2584398540789152
 21
104.958790427842203
 31
0.0
  0
LINE
  5
2E883
  8
0
 10
2938.2833323399800065
 20
104.958790427842203
 30
0.0
 11
2938.2833323399800065
 21
104.6635148373422055
 31
0.0
  0
LINE
  5
2E884
  8
0
 10
2938.300360776378966
 20
104.6635148373422055
 30
0.0
 11
2938.300360776378966
 21
104.958790427842203
 31
0.0
  0
LINE
  5
2E885
  8
0
 10
2938.3246263940800418
 20
104.958790427842203
 30
0.0
 11
2938.3246263940800418
 21
104.6635148373422055
 31
0.0
  0
LINE
  5
2E886
  8
0
 10
2938.3434006062798289
 20
104.6635148373422055
 30
0.0
 11
2938.3434006062798289
 21
104.958790427842203
 31
0.0
  0
LINE
  5
2E887
  8
0
 10
2938.3668127940800332
 20
104.958790427842203
 30
0.0
 11
2938.3668127940800332
 21
104.6635148373422055
 31
0.0
  0
LINE
  5
2E888
  8
0
 10
2938.3871574922791297
 20
104.6635148373422055
 30
0.0
 11
2938.3871574922800392
 21
104.958790427842203
 31
0.0
  0
LINE
  5
2E889
  8
0
 10
2938.40949765708001
 20
104.958790427842203
 30
0.0
 11
2938.40949765708001
 21
104.6635148373422055
 31
0.0
  0
LINE
  5
2E88A
  8
0
 10
2938.43122288827999
 20
104.6635148373422055
 30
0.0
 11
2938.43122288827999
 21
104.958790427842203
 31
0.0
  0
LINE
  5
2E88B
  8
0
 10
2938.4522824458799732
 20
104.958790427842203
 30
0.0
 11
2938.4522824458799732
 21
104.6635148373422055
 31
0.0
  0
LINE
  5
2E88C
  8
0
 10
2938.475185367578888
 20
104.6635148373422055
 30
0.0
 11
2938.475185367578888
 21
104.958790427842203
 31
0.0
  0
LINE
  5
2E88D
  8
0
 10
2938.4947676904798755
 20
104.958790427842203
 30
0.0
 11
2938.4947676904798755
 21
104.6635148373422055
 31
0.0
  0
LINE
  5
2E88E
  8
0
 10
2938.5186344641801952
 20
104.6635148373422055
 30
0.0
 11
2938.5186344641801952
 21
104.958790427842203
 31
0.0
  0
LINE
  5
2E88F
  8
0
 10
2939.2679481088789544
 20
127.7187293751422033
 30
0.0
 11
2939.2469717567792031
 21
128.2221618247421873
 31
0.0
  0
LINE
  5
2E890
  8
0
 10
2938.5365567175790602
 20
104.958790427842203
 30
0.0
 11
2938.5365567175790602
 21
104.6635148373422055
 31
0.0
  0
LINE
  5
2E891
  8
0
 10
2938.5611645056801535
 20
104.6635148373422055
 30
0.0
 11
2938.5611645056801535
 21
104.958790427842203
 31
0.0
  0
LINE
  5
2E892
  8
0
 10
2938.5772593543802031
 20
104.958790427842203
 30
0.0
 11
2938.5772593543802031
 21
104.6635148373422055
 31
0.0
  0
LINE
  5
2E893
  8
0
 10
2938.6023784005801645
 20
104.6635148373422055
 30
0.0
 11
2938.6023784005801645
 21
104.958790427842203
 31
0.0
  0
LINE
  5
2E894
  8
0
 10
2938.6164955712802112
 20
104.958790427842203
 30
0.0
 11
2938.6164955712802112
 21
104.6635148373422055
 31
0.0
  0
LINE
  5
2E895
  8
0
 10
2938.6418913457791859
 20
104.6635148373422055
 30
0.0
 11
2938.6418913457791859
 21
104.958790427842203
 31
0.0
  0
LINE
  5
2E896
  8
0
 10
2938.6538990302788079
 20
104.958790427842203
 30
0.0
 11
2938.6538990302788079
 21
104.6635148373422055
 31
0.0
  0
LINE
  5
2E897
  8
0
 10
2938.6793344196798898
 20
104.6635148373422055
 30
0.0
 11
2938.6793344196798898
 21
104.958790427842203
 31
0.0
  0
LINE
  5
2E898
  8
0
 10
2938.689120505379833
 20
104.958790427842203
 30
0.0
 11
2938.689120505379833
 21
104.6635148373422055
 31
0.0
  0
LINE
  5
2E899
  8
0
 10
2938.7143580261799798
 20
104.6635148373422055
 30
0.0
 11
2938.7143580261799798
 21
104.958790427842203
 31
0.0
  0
LINE
  5
2E89A
  8
0
 10
2938.7218311430788162
 20
104.958790427842203
 30
0.0
 11
2938.7218311430788162
 21
104.6635148373422055
 31
0.0
  0
LINE
  5
2E89B
  8
0
 10
2938.7466351593789113
 20
104.6635148373422055
 30
0.0
 11
2938.7466351593789113
 21
104.958790427842203
 31
0.0
  0
LINE
  5
2E89C
  8
0
 10
2938.7517255330799344
 20
104.958790427842203
 30
0.0
 11
2938.7517255330799344
 21
104.6635148373422055
 31
0.0
  0
LINE
  5
2E89D
  8
0
 10
2938.7758644564792121
 20
104.6635148373422055
 30
0.0
 11
2938.7758644564792121
 21
104.958790427842203
 31
0.0
  0
LINE
  5
2E89E
  8
0
 10
2938.7785245593800028
 20
104.958790427842203
 30
0.0
 11
2938.7785245593800028
 21
104.6635148373422055
 31
0.0
  0
LINE
  5
2E89F
  8
0
 10
2938.8017730113801917
 20
104.6635148373422055
 30
0.0
 11
2938.8017730113801917
 21
104.958790427842203
 31
0.0
  0
LINE
  5
2E8A0
  8
0
 10
2938.82411892277878
 20
104.6635148373422055
 30
0.0
 11
2938.82411892277878
 21
104.958790427842203
 31
0.0
  0
LINE
  5
2E8A1
  8
0
 10
2938.8426935529801085
 20
104.6635148373422055
 30
0.0
 11
2938.8426935529801085
 21
104.958790427842203
 31
0.0
  0
LINE
  5
2E8A2
  8
0
 10
2938.8573234756800048
 20
104.6635148373422055
 30
0.0
 11
2938.8573234756800048
 21
104.958790427842203
 31
0.0
  0
LINE
  5
2E8A3
  8
0
 10
2938.8631134890788417
 20
104.5828061758421939
 30
0.0
 11
2938.8631134890788417
 21
104.6635148373422055
 31
0.0
  0
LINE
  5
2E8A4
  8
0
 10
2938.8631134890788417
 20
104.958790427842203
 30
0.0
 11
2938.8631134890788417
 21
105.183199876642206
 31
0.0
  0
LINE
  5
2E8A5
  8
0
 10
2938.8678720952798358
 20
104.6635148373422055
 30
0.0
 11
2938.8678720952798358
 21
104.958790427842203
 31
0.0
  0
LINE
  5
2E8A6
  8
0
 10
2938.8742409220799345
 20
104.6635148373422055
 30
0.0
 11
2938.8742409220799345
 21
104.958790427842203
 31
0.0
  0
LINE
  5
2E8A7
  8
0
 10
2938.8763704920797863
 20
104.6635148373422055
 30
0.0
 11
2938.8763704920797863
 21
104.958790427842203
 31
0.0
  0
LINE
  5
2E8A8
  8
0
 10
2939.2604919721788974
 20
128.4340212589885937
 30
0.0
 11
2939.2604919721788974
 21
128.241846864042202
 31
0.0
  0
LINE
  5
2E8A9
  8
0
 10
2939.3453969536799377
 20
127.9084864881423016
 30
0.0
 11
2939.3453969536799377
 21
127.8259035618576007
 31
0.0
  0
LINE
  5
2E8AA
  8
0
 10
2939.2278450117401007
 20
128.4429933649460054
 30
0.0
 11
2939.2291429772799347
 21
128.5173537616421982
 31
0.0
  0
LINE
  5
2E8AB
  8
0
 10
2939.2371144729631851
 20
128.5228696686079957
 30
0.0
 11
2939.2356813815808891
 21
128.440767918499489
 31
0.0
  0
LINE
  5
2E8AC
  8
0
 10
2940.1449375423799211
 20
128.0410572138422083
 30
0.0
 11
2940.1524835677791998
 21
128.2221618247421873
 31
0.0
  0
LINE
  5
2E8AD
  8
0
 10
2940.1389633523799603
 20
128.4570936053422088
 30
0.0
 11
2940.1388359469788156
 21
128.4605968150422086
 31
0.0
  0
LINE
  5
2E8AE
  8
0
 10
2940.1389633523799603
 20
128.4570936053422088
 30
0.0
 11
2940.1389633523799603
 21
128.241846864042202
 31
0.0
  0
LINE
  5
2E8AF
  8
0
 10
2940.3004256129797795
 20
128.1482310873421966
 30
0.0
 11
2940.3004256129797795
 21
128.0614324118421905
 31
0.0
  0
LINE
  5
2E8B0
  8
0
 10
2939.1463191273801385
 20
128.5113159630421933
 30
0.0
 11
2939.1477681337792092
 21
128.5020673171422061
 31
0.0
  0
LINE
  5
2E8B1
  8
0
 10
2939.1317275924798196
 20
128.6040770216422118
 30
0.0
 11
2939.1463191273801385
 21
128.5113159630421933
 31
0.0
  0
LINE
  5
2E8B2
  8
0
 10
2941.5107512843801487
 20
126.0024101413595048
 30
0.0
 11
2941.5107512843801487
 21
128.2604337817423072
 31
0.0
  0
LINE
  5
2E8B3
  8
0
 10
2936.7433086096798434
 20
133.5282931638421928
 30
0.0
 11
2936.7419382793791556
 21
133.5301831123422005
 31
0.0
  0
LINE
  5
2E8B4
  8
0
 10
2935.3448089800799607
 20
134.9774791309422142
 30
0.0
 11
2935.4319753346799189
 21
134.8802861359422138
 31
0.0
  0
LINE
  5
2E8B5
  8
0
 10
2935.8827724335028506
 20
134.3191069088570089
 30
0.0
 11
2935.8566856840029686
 21
134.3511276432568025
 31
0.0
  0
LINE
  5
2E8B6
  8
0
 10
2935.2275473739791778
 20
135.1972046858423084
 30
0.0
 11
2935.2825114619799933
 21
135.1266980413421948
 31
0.0
  0
LINE
  5
2E8B7
  8
0
 10
2941.1231653401791846
 20
126.0115728279422029
 30
0.0
 11
2941.5107512843801487
 21
126.0024101413595048
 31
0.0
  0
LINE
  5
2E8B8
  8
0
 10
2936.430866967478778
 20
133.6961064958422014
 30
0.0
 11
2936.5006727388799845
 21
133.6283808421422066
 31
0.0
  0
LINE
  5
2E8B9
  8
0
 10
2935.7637169069798802
 20
134.3653366739422097
 30
0.0
 11
2935.8314425607800331
 21
134.2955309025423105
 31
0.0
  0
LINE
  5
2E8BA
  8
0
 10
2939.936230343979787
 20
128.4517554132422106
 30
0.0
 11
2939.2604919721788974
 21
128.4340212589885937
 31
0.0
  0
LINE
  5
2E8BB
  8
0
 10
2940.1388359469788156
 20
128.4605968150422086
 30
0.0
 11
2940.1506790485800593
 21
128.4609065857422081
 31
0.0
  0
LINE
  5
2E8BC
  8
0
 10
2940.1805692664052003
 20
128.0410572138422083
 30
0.0
 11
2939.5573003456788683
 21
128.0410572138422083
 31
0.0
  0
LINE
  5
2E8BD
  8
0
 10
2940.1524835677791998
 20
128.2221618247421873
 30
0.0
 11
2939.2469717567792031
 21
128.2221618247421873
 31
0.0
  0
LINE
  5
2E8BE
  8
0
 10
2937.3530857216787808
 20
134.2328026861422074
 30
0.0
 11
2935.6528485651961091
 21
135.9272705269941923
 31
0.0
  0
LINE
  5
2E8BF
  8
0
 10
2937.2315853542318109
 20
133.2210402786292889
 30
0.0
 11
2937.2191033491890266
 21
133.2277845856559111
 31
0.0
  0
LINE
  5
2E8C0
  8
0
 10
2935.6655191772802027
 20
134.606602214442205
 30
0.0
 11
2935.6636293533788375
 21
134.607972679742204
 31
0.0
  0
ARC
  5
2E8C1
  8
0
 10
2929.1691786553801649
 20
126.5000874157422004
 30
0.0
 40
10.6299212597999997
 50
35.9336802817062875
 51
37.951987896808042
  0
ARC
  5
2E8C2
  8
0
 10
2932.1958032701249977
 20
128.0270671867301076
 30
0.0
 40
7.3081074767399308
 50
42.6679849168055512
 51
43.0944947106268827
  0
ARC
  5
2E8C3
  8
0
 10
2931.8765131893801481
 20
129.3691617366422975
 30
0.0
 40
6.3779304109000003
 50
31.0907805737934311
 51
40.5088772937950381
  0
ARC
  5
2E8C4
  8
0
 10
2938.0068142764798722
 20
104.5828061758421939
 30
0.0
 40
0.0295275591
 50
180.0
 51
270.0
  0
ARC
  5
2E8C5
  8
0
 10
2937.9890977410791493
 20
105.183199876642206
 30
0.0
 40
0.0118110236
 50
90.0
 51
180.0
  0
ARC
  5
2E8C6
  8
0
 10
2935.1256163351990836
 20
134.6172929562521858
 30
0.0
 40
0.4871305891717206
 50
31.4377054751698495
 51
35.3322299323448519
  0
ARC
  5
2E8C7
  8
0
 10
2935.4089699974788346
 20
134.3811549235423115
 30
0.0
 40
0.3416750742
 50
39.2242995894023778
 51
46.5248430774244284
  0
ARC
  5
2E8C8
  8
0
 10
2935.2117157709258208
 20
135.4900356674336024
 30
0.0
 40
0.0590600015616084
 50
132.9981293378228031
 51
224.9937166664111885
  0
ARC
  5
2E8C9
  8
0
 10
2935.359777601479891
 20
134.9902635413421876
 30
0.0
 40
0.0196850394
 50
135.0000000004075957
 51
220.4999999985969907
  0
ARC
  5
2E8CA
  8
0
 10
2935.2980364806799116
 20
135.1388007091422025
 30
0.0
 40
0.0196850394
 50
217.9385171810025099
 51
258.5067706117936268
  0
ARC
  5
2E8CB
  8
0
 10
2935.2430723926800056
 20
135.2093073536422025
 30
0.0
 40
0.0196850394
 50
132.1385171799007878
 51
217.9385171810025099
  0
ARC
  5
2E8CC
  8
0
 10
2935.2190925463792155
 20
135.4154554077422006
 30
0.0
 40
0.0196850394
 50
170.8920931986050107
 51
204.1104800295034067
  0
ARC
  5
2E8CD
  8
0
 10
2935.6186600506798641
 20
134.0267808272421917
 30
0.0
 40
0.4076627806000001
 50
44.2618791340994235
 51
44.9735601759958712
  0
ARC
  5
2E8CE
  8
0
 10
2935.7778452426791773
 20
134.3790440043422052
 30
0.0
 40
0.0196850394
 50
138.3134862323989864
 51
224.1334862333038984
  0
ARC
  5
2E8CF
  8
0
 10
2935.8455708964788755
 20
134.3092382329421923
 30
0.0
 40
0.0196850394
 50
224.1334862333038984
 51
309.953486232707121
  0
ARC
  5
2E8D0
  8
0
 10
2935.9486679785218257
 20
135.4739624542727938
 30
0.0
 40
0.7179766888348899
 50
217.2841651492516917
 51
220.063409307962587
  0
ARC
  5
2E8D1
  8
0
 10
2935.9502843620798558
 20
135.1952416624422995
 30
0.0
 40
0.5210910654000001
 50
217.7214850410061899
 51
221.6345301984050025
  0
ARC
  5
2E8D2
  8
0
 10
2935.6248386289789778
 20
135.8752620374910975
 30
0.0
 40
0.0590714779505012
 50
59.8791572207959106
 51
133.0051063270161933
  0
ARC
  5
2E8D3
  8
0
 10
2936.4445742978791714
 20
133.7102348315422091
 30
0.0
 40
0.0196850394
 50
140.0465137672993023
 51
225.8665137667069871
  0
ARC
  5
2E8D4
  8
0
 10
2936.0939430358680511
 20
134.3988184318259016
 30
0.0
 40
0.0063530438924228
 50
309.0446177011431814
 51
318.8152079463960717
  0
ARC
  5
2E8D5
  8
0
 10
2936.0070707011859668
 20
134.4006921764851938
 30
0.0
 40
0.0046164763680845
 50
131.8531880578433118
 51
138.1465679384687064
  0
ARC
  5
2E8D6
  8
0
 10
2935.9507840864771424
 20
135.644770625967908
 30
0.0
 40
0.8409005074475253
 50
214.8264334738327079
 51
221.1695829796414046
  0
ARC
  5
2E8D7
  8
0
 10
2936.3897166091292092
 20
135.1664677739852038
 30
0.0
 40
0.9378768687092385
 50
221.872746315713897
 51
224.5539751390267895
  0
ARC
  5
2E8D8
  8
0
 10
2936.0810200742048437
 20
135.0990990705604986
 30
0.0
 40
0.6136822029717194
 50
217.2795477548912118
 51
224.6108255346503029
  0
ARC
  5
2E8D9
  8
0
 10
2936.2666828790611362
 20
134.9486340575836039
 30
0.0
 40
0.6385590298883389
 50
221.2940959656872906
 51
224.8433700777150932
  0
ARC
  5
2E8DA
  8
0
 10
2936.4234508990521135
 20
134.7126843722242882
 30
0.0
 40
0.5825629906492324
 50
221.8805880515245974
 51
225.7850837964867026
  0
ARC
  5
2E8DB
  8
0
 10
2936.2837676444760291
 20
134.6601129048711982
 30
0.0
 40
0.3782135086540139
 50
220.1228337884265898
 51
226.194490958188112
  0
ARC
  5
2E8DC
  8
0
 10
2936.0422218373150827
 20
134.8976684208844858
 30
0.0
 40
0.3752255037750256
 50
218.6191720137670984
 51
220.1272446111173906
  0
ARC
  5
2E8DD
  8
0
 10
2936.5814598522788401
 20
133.3516231840422961
 30
0.0
 40
0.2401700361
 50
49.7119398694009007
 51
51.0175253337182824
  0
ARC
  5
2E8DE
  8
0
 10
2936.5143800691798788
 20
133.642509177742312
 30
0.0
 40
0.0196850394
 50
225.8665137667069871
 51
311.6865137676070958
  0
ARC
  5
2E8DF
  8
0
 10
2936.5341825319687814
 20
133.9585793837368044
 30
0.0
 40
0.0063921965763506
 50
129.4582479379743916
 51
140.9216291843650879
  0
ARC
  5
2E8E0
  8
0
 10
2937.4056846358657822
 20
132.7033583612825964
 30
0.0
 40
0.0787408689797999
 50
211.0910926348466035
 51
257.2641614344433947
  0
ARC
  5
2E8E1
  8
0
 10
2937.3019938227689636
 20
134.2545827168744097
 30
0.0
 40
0.9381542240348014
 50
225.4464193828922021
 51
228.1272431738458124
  0
ARC
  5
2E8E2
  8
0
 10
2937.3632520018049945
 20
134.0854102397829024
 30
0.0
 40
0.8037365295377901
 50
227.174304946956596
 51
229.3590279285924964
  0
ARC
  5
2E8E3
  8
0
 10
2937.3296500073088282
 20
133.8138735877174099
 30
0.0
 40
0.5196714526246834
 50
228.3599198537166046
 51
231.7353917073288869
  0
ARC
  5
2E8E4
  8
0
 10
2937.4968178898798215
 20
133.1065729239423092
 30
0.0
 40
0.4921259843
 50
257.2641761643059226
 51
303.5209177561101797
  0
ARC
  5
2E8E5
  8
0
 10
2937.0392128614871581
 20
133.9144747799676907
 30
0.0
 40
0.3850298298155219
 50
229.6119276400835076
 51
231.3607261926071885
  0
ARC
  5
2E8E6
  8
0
 10
2937.3697797877789526
 20
133.2049793464422009
 30
0.0
 40
0.2327452908
 50
321.1881983766979261
 51
322.3060901461827825
  0
ARC
  5
2E8E7
  8
0
 10
2937.5462492950441629
 20
133.0881875474653953
 30
0.0
 40
0.0196121937713474
 50
245.9764073960587893
 51
275.7286427237814905
  0
ARC
  5
2E8E8
  8
0
 10
2936.561365107068923
 20
135.112101722462711
 30
0.0
 40
1.0621871423956839
 50
223.0090254689490905
 51
226.0871839113482054
  0
ARC
  5
2E8E9
  8
0
 10
2937.706626123479964
 20
134.2033999174421979
 30
0.0
 40
1.1306001262000001
 50
228.1439787330990043
 51
229.6515882447926913
  0
ARC
  5
2E8EA
  8
0
 10
2937.4827930428750733
 20
133.6600142846064898
 30
0.0
 40
0.5191566888474543
 50
226.8662598489665072
 51
236.58219823633641
  0
ARC
  5
2E8EB
  8
0
 10
2937.7522836492958049
 20
132.7209117400302034
 30
0.0
 40
0.0295275590810428
 50
303.5214678488050026
 51
35.9337017521223103
  0
ARC
  5
2E8EC
  8
0
 10
2942.4941942298141839
 20
35.1581608538330528
 30
0.0
 40
93.3286556479662295
 50
91.446063006943163
 51
91.5705668265420485
  0
ARC
  5
2E8ED
  8
0
 10
2938.8335859299800177
 20
104.5828061758421939
 30
0.0
 40
0.0295275591
 50
270.0
 51
0.0
  0
ARC
  5
2E8EE
  8
0
 10
2938.8513024654798755
 20
105.183199876642206
 30
0.0
 40
0.0118110236
 50
0.0
 51
90.0
  0
ARC
  5
2E8EF
  8
0
 10
2937.9871714354021606
 20
134.3578183834380866
 30
0.0
 40
1.4387525938974051
 50
227.524729652111489
 51
231.0183313457951044
  0
ARC
  5
2E8F0
  8
0
 10
2937.8353784952628303
 20
133.8816850222517019
 30
0.0
 40
0.9271483908581641
 50
228.9537964618480999
 51
234.4913213937869898
  0
ARC
  5
2E8F1
  8
0
 10
2939.5573003019790121
 20
127.8442068201422046
 30
0.0
 40
0.1968503937000476
 50
89.9999872805756667
 51
124.4881006985981031
  0
ARC
  5
2E8F2
  8
0
 10
2939.5048926786448646
 20
126.7184204901414972
 30
0.0
 40
0.0599965690518329
 50
234.1709751960883921
 51
261.9797242992115116
  0
ARC
  5
2E8F3
  8
0
 10
2939.4157947104949926
 20
127.8160737714143949
 30
0.0
 40
0.0578588102716687
 50
107.2985080067871024
 51
134.9311679841962075
  0
ARC
  5
2E8F4
  8
0
 10
2939.3847670323789316
 20
127.9084864881423016
 30
0.0
 40
0.0393700787
 50
131.8463103929964007
 51
180.0
  0
ARC
  5
2E8F5
  8
0
 10
2939.2801770115797808
 20
128.241846864042202
 30
0.0
 40
0.0196850394
 50
180.0
 51
270.0
  0
ARC
  5
2E8F6
  8
0
 10
2939.6201216818308239
 20
137.1933228725492029
 30
0.0
 40
4.6857693196445718
 50
239.9555011604049071
 51
244.0461231601439067
  0
ARC
  5
2E8F7
  8
0
 10
2939.6157812134788401
 20
137.184881048642211
 30
0.0
 40
4.6762886365999989
 50
237.5747148081775038
 51
239.9497508685026048
  0
ARC
  5
2E8F8
  8
0
 10
2939.6138981528802105
 20
137.1827621779422088
 30
0.0
 40
4.6734846411999991
 50
234.7311350049311898
 51
236.1756851711730008
  0
ARC
  5
2E8F9
  8
0
 10
2939.4396764134799014
 20
137.3043403485422118
 30
0.0
 40
4.6437007874000003
 50
221.7460065713345045
 51
221.940550169438211
  0
ARC
  5
2E8FA
  8
0
 10
2939.4396764134799014
 20
137.3043403485422118
 30
0.0
 40
4.6437007874000003
 50
223.4040364321026004
 51
224.1425692006912982
  0
ARC
  5
2E8FB
  8
0
 10
2939.4396764134799014
 20
137.3043403485422118
 30
0.0
 40
4.6437007874000003
 50
228.0614439934093127
 51
228.2538976044023116
  0
ARC
  5
2E8FC
  8
0
 10
2939.4396764134799014
 20
137.3043403485422118
 30
0.0
 40
4.6437007874000003
 50
225.8576929762905934
 51
226.5947990919034964
  0
ARC
  5
2E8FD
  8
0
 10
2939.4396764134799014
 20
137.3043403485422118
 30
0.0
 40
4.6436675758999986
 50
204.1104800295034067
 51
206.7419681325150123
  0
ARC
  5
2E8FE
  8
0
 10
2939.4396764134799014
 20
137.3043403485422118
 30
0.0
 40
4.6436675758999986
 50
208.404709568619694
 51
208.5880965850674897
  0
ARC
  5
2E8FF
  8
0
 10
2939.4396764134799014
 20
137.3043403485422118
 30
0.0
 40
4.6436675758999986
 50
214.2474904213611069
 51
215.5391388159808912
  0
ARC
  5
2E900
  8
0
 10
2939.4396764134799014
 20
137.3043403485422118
 30
0.0
 40
4.6436675758999986
 50
217.2425031312461101
 51
217.8795956329884973
  0
ARC
  5
2E901
  8
0
 10
2939.4396764134799014
 20
137.3043403485422118
 30
0.0
 40
4.6436675758999986
 50
232.1204043666488985
 51
232.7575686398398034
  0
ARC
  5
2E902
  8
0
 10
2939.411011342780057
 20
137.2666929798423041
 30
0.0
 40
4.5953356473999989
 50
243.3723501715784039
 51
245.9501057933030097
  0
ARC
  5
2E903
  8
0
 10
2939.6452205521291035
 20
129.8978225278837044
 30
0.0
 40
1.5135158522620571
 50
253.9923585161268988
 51
255.2740932775130887
  0
ARC
  5
2E904
  8
0
 10
2939.6601632703777796
 20
129.9510285996360039
 30
0.0
 40
1.5687795720934259
 50
252.4975445928048998
 51
254.0036472141950128
  0
ARC
  5
2E905
  8
0
 10
2938.830945807092121
 20
185.8673451454731946
 30
0.0
 40
57.6702244965657584
 50
272.357978678418192
 51
272.5537308361144255
  0
ARC
  5
2E906
  8
0
 10
2941.2593056678788344
 20
121.1221567324420931
 30
0.0
 40
7.0027390178000681
 50
101.0751866658061005
 51
103.0956533424072035
  0
ARC
  5
2E907
  8
0
 10
2941.2038132795269121
 20
121.3950574380807979
 30
0.0
 40
6.7242612171132503
 50
100.2285905120050984
 51
101.0578427121775036
  0
ARC
  5
2E908
  8
0
 10
2941.3336170344091443
 20
120.6313423800555995
 30
0.0
 40
7.4988927898280977
 50
98.0894909099268091
 51
100.1684093121870944
  0
ARC
  5
2E909
  8
0
 10
2941.5593758998779776
 20
122.8835140491797944
 30
0.0
 40
5.3771395893775287
 50
90.5181236554065123
 51
91.6929779348930794
  0
ARC
  5
2E90A
  8
0
 10
2939.9359481347801193
 20
127.2930257178421982
 30
0.0
 40
0.8655616832999999
 50
124.4881047030043959
 51
131.8463044891039999
  0
ARC
  5
2E90B
  8
0
 10
2939.9304736140798013
 20
127.3324189380422951
 30
0.0
 40
0.7010991989000001
 50
100.6717219424884036
 51
125.0425962429929996
  0
ARC
  5
2E90C
  8
0
 10
2940.1877805141139106
 20
128.5365063133671981
 30
0.0
 40
0.0590599775359962
 50
290.4571569600208818
 51
1.9478536280163801
  0
ARC
  5
2E90D
  8
0
 10
2940.3201169075477992
 20
128.148225804117402
 30
0.0
 40
0.0196912952776332
 50
97.6041365062564239
 51
179.9846273957211906
  0
ARC
  5
2E90E
  8
0
 10
2940.1192783129799864
 20
128.241846864042202
 30
0.0
 40
0.0196850394
 50
287.9713797057532929
 51
0.0
  0
LINE
  5
2E90F
  8
0
 10
2935.9070541581800171
 20
134.3149088916422045
 30
0.0
 11
2935.8979190888799167
 21
134.3235882403421897
 31
0.0
  0
LINE
  5
2E910
  8
0
 10
2935.6702714847360767
 20
134.601298942509203
 30
0.0
 11
2935.6655191772802027
 21
134.606602214442205
 31
0.0
  0
LINE
  5
2E911
  8
0
 10
2936.7594755845798318
 20
133.5815381007421934
 30
0.0
 11
2936.7441468368601818
 21
133.5964245613207027
 31
0.0
  0
LINE
  5
2E912
  8
0
 10
2935.7318984290800472
 20
134.6086541558422027
 30
0.0
 11
2935.7168884749798963
 21
134.6241267317421944
 31
0.0
  0
LINE
  5
2E913
  8
0
 10
2936.7419382793791556
 20
133.5301831123422005
 30
0.0
 11
2936.7327035635980792
 21
133.5384643004794896
 31
0.0
  0
LINE
  5
2E914
  8
0
 10
2935.8197008732799986
 20
134.4518756090421903
 30
0.0
 11
2935.8032939588788395
 21
134.4685003386422011
 31
0.0
  0
LINE
  5
2E915
  8
0
 10
2937.2561183987800177
 20
133.2739357599423045
 30
0.0
 11
2937.2532437450799989
 21
133.2771307145422952
 31
0.0
  0
LINE
  5
2E916
  8
0
 10
2935.4189191666791885
 20
135.1105729823422053
 30
0.0
 11
2935.4156125938798141
 21
135.1145288053421893
 31
0.0
  0
LINE
  5
2E917
  8
0
 10
2935.4156125938798141
 20
135.1145288053421893
 30
0.0
 11
2935.4124667795799724
 21
135.1179076800422081
 31
0.0
  0
LINE
  5
2E918
  8
0
 10
2935.5042773054801728
 20
134.9222971061421958
 30
0.0
 11
2935.499390949879853
 21
134.9264583807423037
 31
0.0
  0
LINE
  5
2E919
  8
0
 10
2936.0048159515449697
 20
134.4047084978232931
 30
0.0
 11
2936.0039904763789309
 21
134.404130790942304
 31
0.0
  0
LINE
  5
2E91A
  8
0
 10
2936.8034537514799922
 20
133.5088077192422134
 30
0.0
 11
2936.8168957905800198
 21
133.4959297062422081
 31
0.0
  0
LINE
  5
2E91B
  8
0
 10
2936.5391084808798041
 20
133.8682960349422046
 30
0.0
 11
2936.5400427901668081
 21
133.8694804694374909
 31
0.0
  0
LINE
  5
2E91C
  8
0
 10
2935.523023512898817
 20
134.8990086746966881
 30
0.0
 11
2935.5078215709791039
 21
134.9185141352421908
 31
0.0
  0
LINE
  5
2E91D
  8
0
 10
2935.5078215709791039
 20
134.9185141352421908
 30
0.0
 11
2935.5042773054801728
 21
134.9222971061421958
 31
0.0
  0
LINE
  5
2E91E
  8
0
 10
2935.4124667795799724
 20
135.1179076800422081
 30
0.0
 11
2935.4092602168789199
 21
135.1207915123422083
 31
0.0
  0
LINE
  5
2E91F
  8
0
 10
2937.569406571979016
 20
132.9801291130422101
 30
0.0
 11
2937.5858982087797813
 21
132.9927030593422046
 31
0.0
  0
LINE
  5
2E920
  8
0
 10
2937.7850183477798964
 20
133.8045009410421926
 30
0.0
 11
2937.3530857216787808
 21
134.2328026861422074
 31
0.0
  0
ARC
  5
2E921
  8
0
 10
2928.551708875913846
 20
128.0385244937469054
 30
0.0
 40
11.7057803905260691
 50
2.4480206758416339
 51
5.0872604640689962
  0
ARC
  5
2E922
  8
0
 10
2931.2867688281398841
 20
128.3070954308898024
 30
0.0
 40
8.9577142763649356
 50
4.9274340683890738
 51
17.6544989293604893
  0
ARC
  5
2E923
  8
0
 10
2933.0725731881771026
 20
128.8327334413336871
 30
0.0
 40
7.0967197687557277
 50
17.9831793500998316
 51
35.7692990750010935
  0
ARC
  5
2E924
  8
0
 10
2927.3276385960070911
 20
124.7467278038610061
 30
0.0
 40
14.1464572470824308
 50
35.5961338906386686
 51
37.7574964511520008
  0
ARC
  5
2E925
  8
0
 10
2930.2577297366901803
 20
126.965568358701006
 30
0.0
 40
10.4713334851502307
 50
37.9759219951841018
 51
48.2638261392534886
  0
ARC
  5
2E926
  8
0
 10
2930.763517787271212
 20
127.5478473917689968
 30
0.0
 40
9.7001278041058931
 50
48.2036018195013725
 51
55.957684875011239
  0
ARC
  5
2E927
  8
0
 10
2929.7569542316227853
 20
125.9967969474349019
 30
0.0
 40
11.5488960320863505
 50
56.1274692543597808
 51
59.2923784823832776
  0
ARC
  5
2E928
  8
0
 10
2939.2076253338900642
 20
128.5125010958093981
 30
0.0
 40
0.0607597575893627
 50
189.8879468207433945
 51
251.5119888606307086
  0
ARC
  5
2E929
  8
0
 10
2939.2331644051391777
 20
128.5172446516442903
 30
0.0
 40
0.004022907782329
 50
129.9001529173334006
 51
178.4458234118152973
  0
ARC
  5
2E92A
  8
0
 10
2939.2373144313678495
 20
128.5118814920525097
 30
0.0
 40
0.0108024137560727
 50
102.468218832604407
 51
128.5397701238744048
  0
ARC
  5
2E92B
  8
0
 10
2939.2406991139569072
 20
128.5001385426359093
 30
0.0
 40
0.0230120346560927
 50
98.9615984964161157
 51
104.3846857314419054
  0
ARC
  5
2E92C
  8
0
 10
2939.243869135301793
 20
128.4736288868450913
 30
0.0
 40
0.0497019119544428
 50
83.7865708974502468
 51
97.8108664600731998
  0
ARC
  5
2E92D
  8
0
 10
2939.2377520078061934
 20
128.4071318228562859
 30
0.0
 40
0.1164757643025621
 50
73.2063388542485711
 51
84.3355237368188568
  0
ARC
  5
2E92E
  8
0
 10
2939.7651311204649573
 20
130.1920517317390136
 30
0.0
 40
1.7447269728362349
 50
253.5617419875082135
 51
255.0929062116258876
  0
ARC
  5
2E92F
  8
0
 10
2939.7653394251919963
 20
130.192813672627608
 30
0.0
 40
1.7455168569293029
 50
255.0927328021907954
 51
257.6435382535241274
  0
ARC
  5
2E930
  8
0
 10
2939.7635819450688359
 20
130.1843034073154115
 30
0.0
 40
1.736827644966412
 50
257.6400952268830906
 51
262.5132956610103747
  0
ARC
  5
2E931
  8
0
 10
2939.7601215275799404
 20
130.1571214758425015
 30
0.0
 40
1.70942656071178
 50
262.5095825071791182
 51
267.1615924949862801
  0
ARC
  5
2E932
  8
0
 10
2939.7705405634042108
 20
130.5238786794228076
 30
0.0
 40
2.0762642417473769
 50
267.3756053716818997
 51
270.2365362902182824
  0
ARC
  5
2E933
  8
0
 10
2931.8306641115332241
 20
128.5439767245937048
 30
0.0
 40
7.3005967107763921
 50
0.5470682806221429
 51
7.0372917354633131
  0
ARC
  5
2E934
  8
0
 10
2939.3133607532399765
 20
128.6240317495582133
 30
0.0
 40
0.1827260141688201
 50
183.2467643726880056
 51
186.2695314676946055
  0
ARC
  5
2E935
  8
0
 10
2931.5095606126651546
 20
128.4592883804155861
 30
0.0
 40
7.6297878370083341
 50
7.373044649963437
 51
22.637281635983399
  0
ARC
  5
2E936
  8
0
 10
2940.2449211552770976
 20
130.7283145565507141
 30
0.0
 40
3.2092598857087671
 50
127.5118453627764978
 51
134.8365858982205907
  0
ARC
  5
2E937
  8
0
 10
2935.2470133066008202
 20
135.6958253642152101
 30
0.0
 40
3.837490656042827
 50
311.0087327978462781
 51
315.4575826428184087
  0
ARC
  5
2E938
  8
0
 10
2935.2906225086571794
 20
130.9204772359694005
 30
0.0
 40
3.8130831794824931
 50
38.1133921007503673
 51
49.1434296327132714
  0
ARC
  5
2E939
  8
0
 10
2937.5651862133340728
 20
133.0483106567126015
 30
0.0
 40
0.0177159066211012
 50
142.4694837854569869
 51
217.6102095328546113
  0
ARC
  5
2E93A
  8
0
 10
2937.5574880497078993
 20
133.0441587741092064
 30
0.0
 40
0.0348431349631558
 50
195.4585764949638929
 51
223.9133855402448035
  0
ARC
  5
2E93B
  8
0
 10
2937.5481640754578621
 20
133.0416059409508023
 30
0.0
 40
0.0251760461879703
 50
157.6912740668194886
 51
195.5148955927353995
  0
ARC
  5
2E93C
  8
0
 10
2937.5466966223279996
 20
133.0420309151907077
 30
0.0
 40
0.0236576777204535
 50
135.8982693512423054
 51
157.2943867960578928
  0
ARC
  5
2E93D
  8
0
 10
2937.4597961921749629
 20
133.1269205969203995
 30
0.0
 40
0.0978248279270219
 50
315.6155389782107932
 51
321.1998004656206263
  0
ARC
  5
2E93E
  8
0
 10
2937.5216857198579419
 20
133.0774016931324866
 30
0.0
 40
0.0185641935018239
 50
320.6179244398708192
 51
331.8554718017280152
  0
ARC
  5
2E93F
  8
0
 10
2937.534747651860016
 20
133.0703840554866986
 30
0.0
 40
0.0037365911690899
 50
332.2633210843389975
 51
347.6362409154667716
  0
ARC
  5
2E940
  8
0
 10
2937.5374664561900317
 20
133.0698056396306868
 30
0.0
 40
0.0009571461552662
 50
346.6100210067714897
 51
17.4543775357681099
  0
ARC
  5
2E941
  8
0
 10
2937.5378951108918955
 20
133.0699137155544065
 30
0.0
 40
0.0005164400544635
 50
20.2816722654585
 51
44.268686615573877
  0
ARC
  5
2E942
  8
0
 10
2939.1100521454259251
 20
123.4425798062888049
 30
0.0
 40
3.2520952999202648
 50
52.5199316520639883
 51
64.9550547064838497
  0
ARC
  5
2E943
  8
0
 10
2939.2331941372099209
 20
123.5949723200392043
 30
0.0
 40
3.0622632489752029
 50
65.8354358282524146
 51
75.2885336104402541
  0
ARC
  5
2E944
  8
0
 10
2938.8967893457629543
 20
122.2939695140806009
 30
0.0
 40
4.4060485754141974
 50
75.3537509714130636
 51
82.1768594631885065
  0
ARC
  5
2E945
  8
0
 10
2941.1246529415680016
 20
126.0717085254670025
 30
0.0
 40
0.060154094413238
 50
233.5388060155075891
 51
268.5829398319684174
  0
ARC
  5
2E946
  8
0
 10
2939.9084096306892206
 20
127.2952052458553993
 30
0.0
 40
0.7639127358232578
 50
199.2168378262296073
 51
234.9565234126546045
  0
ARC
  5
2E947
  8
0
 10
2939.9195418166800664
 20
127.2865092211480942
 30
0.0
 40
0.771653773705212
 50
177.099074452805894
 51
198.3350341922516975
  0
ARC
  5
2E948
  8
0
 10
2939.9790792194348796
 20
127.2887483337235039
 30
0.0
 40
0.8310181420313542
 50
148.8410029667755907
 51
177.4610028824164942
  0
ARC
  5
2E949
  8
0
 10
2939.837079296633874
 20
127.389020896032207
 30
0.0
 40
0.6577370219715318
 50
134.6386368307344128
 51
149.9154745157786977
  0
ARC
  5
2E94A
  8
0
 10
2940.2675713724429443
 20
128.141298447775398
 30
0.0
 40
0.0863596249232712
 50
277.1869119843120188
 51
292.3606420868121063
  0
ARC
  5
2E94B
  8
0
 10
2939.9276940067547912
 20
126.652558393612594
 30
0.0
 40
1.3747173577026039
 50
84.5385195835058738
 51
95.3028309949973362
  0
ARC
  5
2E94C
  8
0
 10
2941.411683087802885
 20
120.7123452879684038
 30
0.0
 40
7.4366253984981743
 50
103.5237257849951931
 51
105.7059107587009947
  0
LINE
  5
2E94D
  8
0
 10
2941.4005150638799932
 20
128.2543942809421083
 30
0.0
 11
2941.4005150877937922
 21
128.258306455034699
 31
0.0
  0
LINE
  5
2E94E
  8
0
 10
2941.2036646701799327
 20
128.2459515604421938
 30
0.0
 11
2941.2036646835790634
 21
128.2498489910421995
 31
0.0
  0
ARC
  5
2E94F
  8
0
 10
2942.021721067974795
 20
114.597484876307405
 30
0.0
 40
13.6768513251168002
 50
93.4290912493922292
 51
97.1579701394477837
  0
ARC
  5
2E950
  8
0
 10
2941.1351286771378
 20
115.7519919279648946
 30
0.0
 40
12.2122917204455899
 50
88.2374327930696296
 51
98.3949202293278233
  0
ARC
  5
2E951
  8
0
 10
-51827.4917073657779838
 20
-54625.6774544314030209
 30
0.0
 40
77445.0127721629978623
 50
44.9986360272573975
 51
44.9991965037117012
  0
ARC
  5
2E952
  8
0
 10
1627.1691076420011086
 20
-1174.5244619503100694
 30
0.0
 40
1851.1869681920700259
 50
44.9390276494329868
 51
45.0197083594516627
  0
ARC
  5
2E953
  8
0
 10
2936.0976198859980286
 20
131.6758473583741988
 30
0.0
 40
2.0110114060650921
 50
33.9871993508603794
 51
43.8362534167290576
  0
ARC
  5
2E954
  8
0
 10
2937.0725075149362056
 20
132.9128533690170002
 30
0.0
 40
0.3080053363080708
 50
48.1594716284924118
 51
55.4867587914197671
  0
ARC
  5
2E955
  8
0
 10
2937.4542864137902143
 20
133.3984107673510096
 30
0.0
 40
0.310921603459895
 50
228.1938807638464084
 51
235.4523496560593969
  0
ARC
  5
2E956
  8
0
 10
2937.3094612041618348
 20
133.1429341056384885
 30
0.0
 40
0.0203415862554293
 50
231.7446508207825104
 51
316.975790685497202
  0
ARC
  5
2E957
  8
0
 10
2937.2399600881208244
 20
133.1974551966272031
 30
0.0
 40
0.0201255395591707
 50
146.4411424292119079
 51
228.2175431124902047
  0
ARC
  5
2E958
  8
0
 10
2937.1006131710578302
 20
132.8188556097993001
 30
0.0
 40
0.4358934515052143
 50
53.3909553611031384
 51
71.4776882296910259
  0
ARC
  5
2E959
  8
0
 10
2937.0792685633477959
 20
133.076895564645298
 30
0.0
 40
0.265257382768003
 50
49.0141138392953977
 51
77.0578036137867315
  0
ARC
  5
2E95A
  8
0
 10
2937.2560712643949046
 20
133.269822590088296
 30
0.0
 40
0.0021171479597907
 50
321.167317235526184
 51
21.62893347140405
  0
ARC
  5
2E95B
  8
0
 10
2937.2475860832228136
 20
133.2667979456898024
 30
0.0
 40
0.0111242438421141
 50
20.0016280006694096
 51
39.9145846829064723
  0
ARC
  5
2E95C
  8
0
 10
2937.2071361784301189
 20
133.2444763915441115
 30
0.0
 40
0.0205384897153748
 50
240.0183672823521022
 51
316.2854711595775825
  0
ARC
  5
2E95D
  8
0
 10
2937.1510871231780584
 20
133.3066292998632036
 30
0.0
 40
0.0344849987354299
 50
203.9027808716859056
 51
227.6223234343102035
  0
ARC
  5
2E95E
  8
0
 10
2937.138282041095863
 20
133.2996856449674112
 30
0.0
 40
0.0199983351467483
 50
145.4135884582800884
 51
200.5783780059595074
  0
ARC
  5
2E95F
  8
0
 10
2937.061241438207162
 20
133.1334034528753136
 30
0.0
 40
0.1593273867744669
 50
44.0272303929433519
 51
58.2186750667795394
  0
ARC
  5
2E960
  8
0
 10
2937.2614191515181119
 20
133.3816898705701988
 30
0.0
 40
0.1620241132675139
 50
224.1459237616174107
 51
238.0999816981046138
  0
ARC
  5
2E961
  8
0
 10
2936.6627413227251964
 20
132.5858960248411051
 30
0.0
 40
0.8467670781940289
 50
57.4538756486927227
 51
63.2757855808354392
  0
ARC
  5
2E962
  8
0
 10
2937.0962469906889964
 20
133.2539390274775997
 30
0.0
 40
0.020285223488017
 50
225.7528218119439032
 51
314.2211219682138221
  0
ARC
  5
2E963
  8
0
 10
2937.0289758278881891
 20
133.3116756584797997
 30
0.0
 40
0.0201100059807855
 50
160.2867788512870106
 51
228.392124605989693
  0
ARC
  5
2E964
  8
0
 10
2937.0111577388220212
 20
133.3382285531585012
 30
0.0
 40
0.0198008620620794
 50
266.7767842729929839
 51
314.3676186829143262
  0
ARC
  5
2E965
  8
0
 10
2937.0119199531000049
 20
133.3419144260334122
 30
0.0
 40
0.0235302775554061
 50
231.1229890118032984
 51
265.4282491006367763
  0
ARC
  5
2E966
  8
0
 10
2937.2346881066127935
 20
133.6413017069272939
 30
0.0
 40
0.3966870025619989
 50
229.0381095438017951
 51
233.2158584118807028
  0
ARC
  5
2E967
  8
0
 10
2936.9832756966011402
 20
133.4957886732412931
 30
0.0
 40
0.0057194838528954
 50
91.9050729503935457
 51
137.8942876167749034
  0
ARC
  5
2E968
  8
0
 10
2936.9849878073928267
 20
133.4761621968949044
 30
0.0
 40
0.0254140906121081
 50
76.8089160707459087
 51
94.2926099041547587
  0
ARC
  5
2E969
  8
0
 10
2936.9710612653798307
 20
133.4116149197014067
 30
0.0
 40
0.0914437713391067
 50
68.3154466689592113
 51
77.5423754192801766
  0
ARC
  5
2E96A
  8
0
 10
2936.9142536325848596
 20
133.2715230293030118
 30
0.0
 40
0.2426140383772455
 50
58.9985489745076492
 51
68.0736051587148268
  0
ARC
  5
2E96B
  8
0
 10
2936.9037557355059107
 20
133.2473829043177034
 30
0.0
 40
0.2687348517535199
 50
49.957228271691001
 51
59.7309921190281798
  0
ARC
  5
2E96C
  8
0
 10
2937.0087503796889905
 20
133.3716615026795012
 30
0.0
 40
0.1060431527244229
 50
40.1411841744081528
 51
50.1865183726119284
  0
ARC
  5
2E96D
  8
0
 10
2937.0652108194831271
 20
133.4192182912877058
 30
0.0
 40
0.0322229439928633
 50
26.826236119716949
 51
40.2182828416349167
  0
ARC
  5
2E96E
  8
0
 10
2937.0867721294530384
 20
133.4297224658596974
 30
0.0
 40
0.008249400538263
 50
356.6776530020026144
 51
29.3038546389168602
  0
ARC
  5
2E96F
  8
0
 10
2937.0916259069240368
 20
133.4295862250897926
 30
0.0
 40
0.0033989915009755
 50
315.9206770334644148
 51
354.227946131933777
  0
ARC
  5
2E970
  8
0
 10
2937.0977516937578002
 20
133.560179574388286
 30
0.0
 40
0.1760565677346072
 50
219.3076833725513097
 51
229.9022335907673096
  0
ARC
  5
2E971
  8
0
 10
2936.9792606783821611
 20
133.4624252807830089
 30
0.0
 40
0.0224550572663378
 50
176.6587518629050919
 51
217.8386788247157142
  0
ARC
  5
2E972
  8
0
 10
2936.9768972647511873
 20
133.4622693902578021
 30
0.0
 40
0.0201068872396987
 50
144.2495265632495887
 51
175.8227418609085078
  0
ARC
  5
2E973
  8
0
 10
2937.0446837951499219
 20
133.4054454077871128
 30
0.0
 40
0.0202133516088183
 50
270.4048037839672816
 51
315.6892250274214007
  0
ARC
  5
2E974
  8
0
 10
2937.0449415292719095
 20
133.4093198924977912
 30
0.0
 40
0.0240876059934049
 50
243.8897064626605129
 51
269.7266341318850777
  0
ARC
  5
2E975
  8
0
 10
2937.1244379513591412
 20
133.547721668583506
 30
0.0
 40
0.1836505556540098
 50
230.5802841954399014
 51
240.620537753104486
  0
ARC
  5
2E976
  8
0
 10
2936.81988830399996
 20
133.1083198717894902
 30
0.0
 40
0.3514540636852578
 50
57.0265314168296626
 51
66.5795315152457619
  0
ARC
  5
2E977
  8
0
 10
2936.9403522798370432
 20
133.3859236168624989
 30
0.0
 40
0.0488402418779057
 50
66.8124243066067436
 51
78.6641206246127069
  0
ARC
  5
2E978
  8
0
 10
2936.9483447174548019
 20
133.4257044640445997
 30
0.0
 40
0.0082644718227557
 50
78.7832867402659502
 51
96.5138966566370158
  0
ARC
  5
2E979
  8
0
 10
2936.9475586757171186
 20
133.431978906421989
 30
0.0
 40
0.0019425948513163
 50
94.4733842958654009
 51
137.7098299093619005
  0
ARC
  5
2E97A
  8
0
 10
2936.9342311451109708
 20
133.2406324053484923
 30
0.0
 40
0.1778987561069552
 50
45.2663020200794577
 51
55.7550182993263874
  0
ARC
  5
2E97B
  8
0
 10
2937.0485187888830296
 20
133.3558823657591859
 30
0.0
 40
0.0155899253775144
 50
27.9789301561271415
 51
45.5379903307593494
  0
ARC
  5
2E97C
  8
0
 10
2937.059354754018841
 20
133.361474474201998
 30
0.0
 40
0.0034000458472612
 50
1.624868144253147
 51
30.4257490530361601
  0
ARC
  5
2E97D
  8
0
 10
2937.0615295689590312
 20
133.3615499218039133
 30
0.0
 40
0.0012240432651321
 50
314.9045121782817205
 51
0.9812686118478731
  0
ARC
  5
2E97E
  8
0
 10
2936.9269726353868464
 20
133.3338629524072019
 30
0.0
 40
0.1125473340638554
 50
39.935186811112537
 51
60.0759098078947034
  0
ARC
  5
2E97F
  8
0
 10
2937.071242343627091
 20
133.5058307119797121
 30
0.0
 40
0.1153475286314293
 50
220.1821116250353896
 51
239.8289849939606029
  0
ARC
  5
2E980
  8
0
 10
2937.2045919768029307
 20
133.6497637885703966
 30
0.0
 40
0.3832773582094433
 50
224.3523672930928115
 51
228.817775652361405
  0
ARC
  5
2E981
  8
0
 10
2936.9445167647168091
 20
133.3967808053978104
 30
0.0
 40
0.0204773298467243
 50
144.1604702990634905
 51
226.910688931426705
  0
ARC
  5
2E982
  8
0
 10
2937.1288784316011515
 20
133.5411416710934986
 30
0.0
 40
0.2507551399111639
 50
224.3974040962611127
 51
233.402258809912496
  0
ARC
  5
2E983
  8
0
 10
2936.8023489220499869
 20
133.1668360894771865
 30
0.0
 40
0.2475180689610831
 50
44.3383969043016393
 51
53.4612660018740229
  0
ARC
  5
2E984
  8
0
 10
2936.4780418402929172
 20
132.7999032212001964
 30
0.0
 40
0.7581477726428375
 50
53.5401598881176781
 51
62.3003837589537497
  0
ARC
  5
2E985
  8
0
 10
2936.8926731267270043
 20
133.3727711386733858
 30
0.0
 40
0.0198879640843098
 50
229.5572266791760967
 51
313.9721801772179219
  0
ARC
  5
2E986
  8
0
 10
2937.9986581828620729
 20
134.6856935830959969
 30
0.0
 40
1.7365612448015331
 50
226.9230008810619097
 51
229.8859364679071859
  0
ARC
  5
2E987
  8
0
 10
2936.8257962493457853
 20
133.4322330277036883
 30
0.0
 40
0.0199553248346116
 50
142.8744045222906891
 51
228.6802676225665039
  0
ARC
  5
2E988
  8
0
 10
2936.8150267941227867
 20
133.5686694176602032
 30
0.0
 40
0.0028679753730174
 50
107.4076824282599034
 51
141.0895745653095048
  0
ARC
  5
2E989
  8
0
 10
2936.816478035036198
 20
133.5636939940829109
 30
0.0
 40
0.0080503597190254
 50
85.7054851632359345
 51
106.6694919822397054
  0
ARC
  5
2E98A
  8
0
 10
2936.8152453264610813
 20
133.5452129722933989
 30
0.0
 40
0.0265722518717102
 50
73.3625476725082422
 51
86.0389941525164801
  0
ARC
  5
2E98B
  8
0
 10
2936.7963358913780212
 20
133.4786075197042976
 30
0.0
 40
0.0958080916727769
 50
60.9561209946813634
 51
73.9320689173397625
  0
ARC
  5
2E98C
  8
0
 10
2936.6921376616801354
 20
133.2716786872755961
 30
0.0
 40
0.3274352659529263
 50
47.0807834974777322
 51
62.5949867545283283
  0
ARC
  5
2E98D
  8
0
 10
2936.8816599066039998
 20
133.4747494060148085
 30
0.0
 40
0.049667893393669
 50
27.2144285826303509
 51
47.6639698131192873
  0
ARC
  5
2E98E
  8
0
 10
2936.9210082495219467
 20
133.4954768016249886
 30
0.0
 40
0.0052147021092612
 50
350.9426190988014014
 51
22.3958504115708408
  0
ARC
  5
2E98F
  8
0
 10
2936.9238708949028478
 20
133.4951541937309969
 30
0.0
 40
0.0023406929303811
 50
313.6089677335019132
 51
347.7082608126924015
  0
ARC
  5
2E990
  8
0
 10
2936.8471286558069551
 20
133.5579547552169117
 30
0.0
 40
0.0657489803200599
 50
212.6809927741506954
 51
228.3738530230268964
  0
ARC
  5
2E991
  8
0
 10
2936.8097378841039244
 20
133.5326903015647986
 30
0.0
 40
0.0206637163348969
 50
180.8204204789626033
 51
209.698156943980706
  0
ARC
  5
2E992
  8
0
 10
2936.808974970088002
 20
133.5326284555727909
 30
0.0
 40
0.0199000601199938
 50
159.463536107560401
 51
180.6738246734244058
  0
ARC
  5
2E993
  8
0
 10
2936.8089215148352196
 20
133.5326483152244919
 30
0.0
 40
0.0198430351615107
 50
142.7015543449417976
 51
159.463089325045388
  0
ARC
  5
2E994
  8
0
 10
2937.0212111064988676
 20
133.6805459473430915
 30
0.0
 40
0.2737776185370686
 50
228.4899861718209877
 51
234.264473159141005
  0
ARC
  5
2E995
  8
0
 10
2936.8768482878890609
 20
133.4790058363348066
 30
0.0
 40
0.0258741861981215
 50
233.0995920436546953
 51
261.488709086717904
  0
ARC
  5
2E996
  8
0
 10
2936.875412525460888
 20
133.4732032720789903
 30
0.0
 40
0.0199309291578708
 50
263.1020566501276221
 51
313.6124364318640119
  0
ARC
  5
2E997
  8
0
 10
2936.7122321602341799
 20
133.3576139789921058
 30
0.0
 40
0.1763529873325328
 50
41.7764821911871422
 51
54.5932951496763081
  0
ARC
  5
2E998
  8
0
 10
2936.9478377584209738
 20
133.6209846722443899
 30
0.0
 40
0.1792085353330997
 50
221.8790128428117896
 51
234.4907644980659995
  0
ARC
  5
2E999
  8
0
 10
2936.9858784904408822
 20
133.8958779170419859
 30
0.0
 40
0.4600697458533611
 50
227.6242158929333073
 51
231.5723204696139987
  0
ARC
  5
2E99A
  8
0
 10
2936.7147240433869229
 20
133.5504074016884033
 30
0.0
 40
0.0210268380421839
 50
225.296788954006189
 51
311.8323339039811799
  0
ARC
  5
2E99B
  8
0
 10
2936.702893067641071
 20
133.6497707579879943
 30
0.0
 40
0.0868924969284267
 50
215.7599091495974903
 51
227.1574387751230972
  0
ARC
  5
2E99C
  8
0
 10
2936.6495150084779198
 20
133.6097927725045054
 30
0.0
 40
0.0202533645077888
 50
170.9574300078855913
 51
212.2287046957393102
  0
ARC
  5
2E99D
  8
0
 10
2936.6490615553470889
 20
133.6097987288098921
 30
0.0
 40
0.0198047187609097
 50
141.6996077104330141
 51
170.7682651004666923
  0
ARC
  5
2E99E
  8
0
 10
2936.5476882104348988
 20
133.4328950112673056
 30
0.0
 40
0.1799069231579481
 50
42.455205256139223
 51
52.498483904320743
  0
ARC
  5
2E99F
  8
0
 10
2936.7923225720678602
 20
133.6996500541087016
 30
0.0
 40
0.1834059794431573
 50
222.551248137971811
 51
232.4024410224905068
  0
ARC
  5
2E9A0
  8
0
 10
2936.6575575157321509
 20
133.6493343910121894
 30
0.0
 40
0.0019581211317132
 50
100.4559263285690065
 51
139.2224911429372867
  0
ARC
  5
2E9A1
  8
0
 10
2936.6583962073791554
 20
133.6449537827751044
 30
0.0
 40
0.0064182625768761
 50
80.0401372890823239
 51
100.721737993842595
  0
ARC
  5
2E9A2
  8
0
 10
2936.6553225191478305
 20
133.6261615506356861
 30
0.0
 40
0.0254598754827601
 50
68.822327369558451
 51
80.5417799826860374
  0
ARC
  5
2E9A3
  8
0
 10
2936.4587806400531917
 20
133.2678269081731059
 30
0.0
 40
0.4352129179312833
 50
49.0277590152829887
 51
56.1700766674797904
  0
ARC
  5
2E9A4
  8
0
 10
2936.7244760833727923
 20
133.5491223338071904
 30
0.0
 40
0.0477047904373172
 50
32.6640655816905507
 51
42.8051759592557417
  0
ARC
  5
2E9A5
  8
0
 10
2936.7557757091299209
 20
133.5689189615094961
 30
0.0
 40
0.0106731463343237
 50
14.3815322039868807
 51
33.8828366820647986
  0
ARC
  5
2E9A6
  8
0
 10
2936.7641538871980629
 20
133.570905635505909
 30
0.0
 40
0.0020699945977795
 50
318.1869865886076241
 51
18.7184147065637703
  0
ARC
  5
2E9A7
  8
0
 10
2936.7271393072519459
 20
133.5628047505605025
 30
0.0
 40
0.0920965859003536
 50
36.2056464044218771
 51
60.8820446142685512
  0
ARC
  5
2E9A8
  8
0
 10
2936.8481341850178978
 20
133.699775646678205
 30
0.0
 40
0.0948532681544739
 50
216.5696235782172039
 51
240.5180674404637955
  0
ARC
  5
2E9A9
  8
0
 10
2936.9197224810818625
 20
133.7621930918635087
 30
0.0
 40
0.1914801525158197
 50
230.8358962881059995
 51
237.1654693315757925
  0
ARC
  5
2E9AA
  8
0
 10
2936.8354556447047798
 20
133.6292484282284931
 30
0.0
 40
0.0341080472265092
 50
235.0144668338186023
 51
260.4515503918736954
  0
ARC
  5
2E9AB
  8
0
 10
2936.8325645795848686
 20
133.6162059031885008
 30
0.0
 40
0.0207780200400309
 50
262.3476824889943941
 51
297.2371955205102836
  0
ARC
  5
2E9AC
  8
0
 10
2936.832778739648802
 20
133.6156981022243997
 30
0.0
 40
0.0202285521626997
 50
297.3561406097334725
 51
314.3114520135060275
  0
ARC
  5
2E9AD
  8
0
 10
2937.0534709155708697
 20
133.9322383121686073
 30
0.0
 40
0.4077990226874932
 50
225.2139583038056116
 51
229.7032673830238139
  0
ARC
  5
2E9AE
  8
0
 10
2936.855464237094111
 20
133.7359845677470958
 30
0.0
 40
0.129041530352966
 50
215.7902664294425108
 51
226.2266024365596877
  0
ARC
  5
2E9AF
  8
0
 10
2936.771144172978893
 20
133.6747744045725028
 30
0.0
 40
0.0248495961878162
 50
186.2837132824496962
 51
215.0077307383388927
  0
ARC
  5
2E9B0
  8
0
 10
2936.7667864184959399
 20
133.6740691546997084
 30
0.0
 40
0.0204420596251813
 50
142.8941726276962925
 51
185.6557280098905096
  0
ARC
  5
2E9B1
  8
0
 10
2936.7761119417409645
 20
133.7094640066079023
 30
0.0
 40
0.0064563956281883
 50
100.2740784952370063
 51
140.5661301847173945
  0
ARC
  5
2E9B2
  8
0
 10
2936.7788772352851083
 20
133.6855547132049082
 30
0.0
 40
0.0305145917753938
 50
71.3603145141517814
 51
97.3748036515283246
  0
ARC
  5
2E9B3
  8
0
 10
2936.7360407950468471
 20
133.5580079768749044
 30
0.0
 40
0.1650624450063488
 50
55.5852325386984418
 51
71.4215414399037343
  0
ARC
  5
2E9B4
  8
0
 10
2936.7043666218992257
 20
133.5028782939413077
 30
0.0
 40
0.2284995852294354
 50
45.5991592553177369
 51
56.8460945392317214
  0
ARC
  5
2E9B5
  8
0
 10
2936.7918067553459878
 20
133.5917143221199979
 30
0.0
 40
0.1038504917336418
 50
34.2206000243313397
 51
45.7737467678442798
  0
ARC
  5
2E9B6
  8
0
 10
2936.8582889614608575
 20
133.6355778567742902
 30
0.0
 40
0.0242356075327974
 50
8.6983834645611662
 51
36.8658017997344416
  0
ARC
  5
2E9B7
  8
0
 10
2936.8762702472081401
 20
133.6383350344653138
 30
0.0
 40
0.0060441667818472
 50
316.9084579748379724
 51
8.6405345845053336
  0
ARC
  5
2E9B8
  8
0
 10
2936.6938557258731635
 20
133.5094727615901888
 30
0.0
 40
0.0197327684419984
 50
232.1904101579324902
 51
312.6709248062891788
  0
ARC
  5
2E9B9
  8
0
 10
2936.6286840267698608
 20
133.5704355761000102
 30
0.0
 40
0.0198019851952316
 50
141.2717603547297074
 51
226.5978019054894048
  0
ARC
  5
2E9BA
  8
0
 10
2931.7625281770137917
 20
128.2841930843833893
 30
0.0
 40
7.1651724971386876
 50
46.6425763535995301
 51
47.371569538559072
  0
ARC
  5
2E9BB
  8
0
 10
2936.5584168512968972
 20
133.5344786066407892
 30
0.0
 40
0.235187569426909
 50
36.9307257667980622
 51
63.2465799154311767
  0
ARC
  5
2E9BC
  8
0
 10
2936.6307833793439386
 20
133.6791545809186061
 30
0.0
 40
0.0734246848780082
 50
62.8514930949804267
 51
75.8957797528082807
  0
ARC
  5
2E9BD
  8
0
 10
2936.6439279912201528
 20
133.7300324212804128
 30
0.0
 40
0.0208803761160087
 50
76.8565409342385664
 51
93.7287811903442503
  0
ARC
  5
2E9BE
  8
0
 10
2936.6428533761268227
 20
133.7458533576572108
 30
0.0
 40
0.0050232332903057
 50
93.2332002590553657
 51
137.9144429226977877
  0
ARC
  5
2E9BF
  8
0
 10
2936.6982462076730371
 20
133.6503809619063077
 30
0.0
 40
0.0212150156161008
 50
241.5523565573896008
 51
310.8238120946800223
  0
ARC
  5
2E9C0
  8
0
 10
2936.7254354526207862
 20
133.6973416999707922
 30
0.0
 40
0.0754727571968843
 50
230.3390971527157944
 51
240.3860470117128898
  0
ARC
  5
2E9C1
  8
0
 10
2937.0001617877928766
 20
134.0381831793264951
 30
0.0
 40
0.5132422154516757
 50
222.1039596573272945
 51
231.0140076736832953
  0
ARC
  5
2E9C2
  8
0
 10
2936.6370511049822198
 20
133.7100300371157005
 30
0.0
 40
0.0238202594257073
 50
180.2512608635931031
 51
222.0827619256783976
  0
ARC
  5
2E9C3
  8
0
 10
2936.6331937760342043
 20
133.7094271071348999
 30
0.0
 40
0.0199689238931472
 50
141.7983430158508042
 51
178.5696159434131971
  0
ARC
  5
2E9C4
  8
0
 10
2936.5612889551848639
 20
133.6417490416652072
 30
0.0
 40
0.0202234607852058
 50
225.2892421627350927
 51
311.6558678002763259
  0
ARC
  5
2E9C5
  8
0
 10
2937.3114182630838513
 20
134.4934112823669068
 30
0.0
 40
1.155100567750972
 50
224.1893605020819109
 51
228.5685576633991047
  0
ARC
  5
2E9C6
  8
0
 10
2936.4971661907720772
 20
133.7026994820089953
 30
0.0
 40
0.0201064080818437
 50
141.0312691744983056
 51
225.8642939030513048
  0
ARC
  5
2E9C7
  8
0
 10
2936.373582484733106
 20
133.4715832571698968
 30
0.0
 40
0.3007838105990283
 50
38.3419030025740781
 51
64.3152407804746531
  0
ARC
  5
2E9C8
  8
0
 10
2936.0905233177350055
 20
133.4334935393441128
 30
0.0
 40
0.4926868272885995
 50
40.7994886393658334
 51
57.4611150732258267
  0
ARC
  5
2E9C9
  8
0
 10
2936.4163717094888852
 20
133.7403377105383129
 30
0.0
 40
0.0198712062213622
 50
225.2047892062576011
 51
311.2099117753649011
  0
ARC
  5
2E9CA
  8
0
 10
2940.4595393672288992
 20
137.9326163168342134
 30
0.0
 40
5.8441634612025233
 50
225.0712133300804965
 51
226.0344532236586872
  0
ARC
  5
2E9CB
  8
0
 10
2936.34699869226597
 20
133.808154780802596
 30
0.0
 40
0.0197532452519101
 50
139.8594116525922004
 51
221.6172071188337895
  0
ARC
  5
2E9CC
  8
0
 10
2936.5230076847919918
 20
133.9203167469144091
 30
0.0
 40
0.0217474859859093
 50
142.0024236285728136
 51
214.7104492080250964
  0
ARC
  5
2E9CD
  8
0
 10
2936.7315292403418425
 20
134.0784127770236012
 30
0.0
 40
0.2834074271325171
 50
216.9799644376116134
 51
235.2008281942960082
  0
ARC
  5
2E9CE
  8
0
 10
2936.5860042170570523
 20
133.867681261970688
 30
0.0
 40
0.0273230298836013
 50
233.5945947094623989
 51
275.4881185490705775
  0
ARC
  5
2E9CF
  8
0
 10
2936.5858542193968788
 20
133.860795728177294
 30
0.0
 40
0.0204993285236074
 50
277.7466166085948203
 51
312.5397515276480931
  0
ARC
  5
2E9D0
  8
0
 10
2936.4855040819102214
 20
133.8179525443634077
 30
0.0
 40
0.0826528862193787
 50
33.0621940267321079
 51
60.6100034841969801
  0
ARC
  5
2E9D1
  8
0
 10
2936.5970806278851342
 20
133.936919613877194
 30
0.0
 40
0.0851323537244763
 50
213.4709140643604997
 51
240.2012834465585058
  0
ARC
  5
2E9D2
  8
0
 10
2936.6271258087758724
 20
133.8805469186634127
 30
0.0
 40
0.007099358659494
 50
313.9116780310399122
 51
357.1294617161584029
  0
ARC
  5
2E9D3
  8
0
 10
2936.6131801320148043
 20
133.8808139594744091
 30
0.0
 40
0.0210453380499611
 50
358.3048040079181078
 51
24.2476684333910697
  0
ARC
  5
2E9D4
  8
0
 10
2936.5046882830661161
 20
133.8214222897400134
 30
0.0
 40
0.1446755963801548
 50
28.0509327108274817
 51
52.4556298535643322
  0
ARC
  5
2E9D5
  8
0
 10
2936.49255415257403
 20
133.821144789825297
 30
0.0
 40
0.1525828949267614
 50
48.9041387284867213
 51
68.6666416259131438
  0
ARC
  5
2E9D6
  8
0
 10
2936.5361485159241965
 20
133.9316987330120128
 30
0.0
 40
0.0337470390827903
 50
69.3261518729925257
 51
89.658741118661581
  0
ARC
  5
2E9D7
  8
0
 10
2936.5360642843329515
 20
133.95534972961741
 30
0.0
 40
0.0100994724606995
 50
88.3816286700926383
 51
126.0545267935288933
  0
ARC
  5
2E9D8
  8
0
 10
2936.442426742409225
 20
133.9510889458213114
 30
0.0
 40
0.0082658904510915
 50
77.8788055180334453
 51
131.0036395934052109
  0
ARC
  5
2E9D9
  8
0
 10
2936.4008471797451421
 20
133.8230949481757079
 30
0.0
 40
0.1428032914538973
 50
45.1140916639624123
 51
72.3428206142843635
  0
ARC
  5
2E9DA
  8
0
 10
2936.4924769328781622
 20
133.8540730063944011
 30
0.0
 40
0.0203659688425583
 50
247.6068271410696013
 51
311.3318641378597817
  0
ARC
  5
2E9DB
  8
0
 10
2936.5084006697029508
 20
133.8864293294820129
 30
0.0
 40
0.0563995955812723
 50
228.5669427777866076
 51
245.1715350572000887
  0
ARC
  5
2E9DC
  8
0
 10
2936.776053861769924
 20
134.2114701937582026
 30
0.0
 40
0.4774283389949564
 50
220.9571861317496939
 51
230.2985247110798923
  0
ARC
  5
2E9DD
  8
0
 10
2936.4365403572787727
 20
133.9174994075042946
 30
0.0
 40
0.0283367232409839
 50
190.3374463048976111
 51
222.0546673745772068
  0
ARC
  5
2E9DE
  8
0
 10
2936.4285616899392153
 20
133.9152910635891942
 30
0.0
 40
0.0201049404710448
 50
140.765135000791588
 51
188.2259114357487988
  0
ARC
  5
2E9DF
  8
0
 10
2936.3585028825459631
 20
133.7782471500794941
 30
0.0
 40
0.1291992290480895
 50
37.4018255155449708
 51
54.9281249445499071
  0
ARC
  5
2E9E0
  8
0
 10
2936.5368403804718582
 20
133.9639883543929955
 30
0.0
 40
0.1312886318883917
 50
217.5423586189789944
 51
234.7875918411131124
  0
ARC
  5
2E9E1
  8
0
 10
2936.3281288047460293
 20
133.8483501266848066
 30
0.0
 40
0.1159626851738143
 50
43.1581754367577091
 51
76.9790008183921088
  0
ARC
  5
2E9E2
  8
0
 10
2936.4074141903611235
 20
133.8554309008200107
 30
0.0
 40
0.0204053060179359
 50
234.5327761336288006
 51
311.2859397790746243
  0
ARC
  5
2E9E3
  8
0
 10
2936.3443456537829661
 20
133.9168587920981111
 30
0.0
 40
0.0209165391017971
 50
141.0563816255373979
 51
224.022061816019999
  0
ARC
  5
2E9E4
  8
0
 10
2936.7083259869928042
 20
134.2314730314220981
 30
0.0
 40
0.5019924684965817
 50
220.9717541724681098
 51
231.4629388499272125
  0
ARC
  5
2E9E5
  8
0
 10
2936.2679906241628487
 20
133.7751481380693122
 30
0.0
 40
0.1357461444787779
 50
39.2429760207613825
 51
52.565660572345891
  0
ARC
  5
2E9E6
  8
0
 10
2936.4545361353698354
 20
133.9676772059914924
 30
0.0
 40
0.1341770481489465
 50
219.1647176377979065
 51
232.643918955320089
  0
ARC
  5
2E9E7
  8
0
 10
2936.3321365611041074
 20
133.8696670849822965
 30
0.0
 40
0.0198711182177662
 50
240.0263948389481072
 51
311.2027168674622999
  0
ARC
  5
2E9E8
  8
0
 10
2936.3463876473460914
 20
133.8918629621063019
 30
0.0
 40
0.0462353420201328
 50
228.2457444209445043
 51
238.4697402565514039
  0
ARC
  5
2E9E9
  8
0
 10
2936.9615636849648581
 20
134.5739010553502908
 30
0.0
 40
0.9647212944733279
 50
223.0248129885281969
 51
227.9647204759478996
  0
ARC
  5
2E9EA
  8
0
 10
2936.273005288243894
 20
133.9334796667326941
 30
0.0
 40
0.0244301721718021
 50
186.687642717179898
 51
226.8466616924116863
  0
ARC
  5
2E9EB
  8
0
 10
2936.2688199849490047
 20
133.9319115149000083
 30
0.0
 40
0.0201192021448319
 50
139.9062479459286976
 51
183.638825221352306
  0
ARC
  5
2E9EC
  8
0
 10
2936.1157669664048626
 20
133.7036865909828123
 30
0.0
 40
0.31983867832762
 50
46.9271818234697591
 51
55.7388097789204622
  0
ARC
  5
2E9ED
  8
0
 10
2936.2603742501728448
 20
133.9168383666205955
 30
0.0
 40
0.06226587072592
 50
55.2950237316934405
 51
67.433378922892814
  0
ARC
  5
2E9EE
  8
0
 10
2936.2799760757261538
 20
133.9645231934005096
 30
0.0
 40
0.0107115750484726
 50
66.372003706106625
 51
89.0120191680930333
  0
ARC
  5
2E9EF
  8
0
 10
2936.2801518345067961
 20
133.9730798824066085
 30
0.0
 40
0.0021533121449588
 50
89.7621935899922079
 51
135.669308041615011
  0
ARC
  5
2E9F0
  8
0
 10
2935.9311893483968561
 20
133.7958532834595076
 30
0.0
 40
0.3499615836920322
 50
33.2529475225615414
 51
56.747052477447447
  0
ARC
  5
2E9F1
  8
0
 10
2936.1799166510481882
 20
133.9760402378460071
 30
0.0
 40
0.0198552052376129
 50
227.5800322138344995
 51
310.6326903669138915
  0
ARC
  5
2E9F2
  8
0
 10
2937.3497813767057778
 20
135.2121829910433064
 30
0.0
 40
1.72180178629906
 50
223.2605042163081919
 51
226.5894769844601058
  0
ARC
  5
2E9F3
  8
0
 10
2936.1112900468338012
 20
134.0446044138093953
 30
0.0
 40
0.0197742656580001
 50
139.2569508151354967
 51
218.8371492613649991
  0
ARC
  5
2E9F4
  8
0
 10
2936.2716079043971149
 20
134.073514187324605
 30
0.0
 40
0.0201065711477912
 50
265.664263833070379
 51
310.4148449515431025
  0
ARC
  5
2E9F5
  8
0
 10
2936.2724851745779233
 20
134.0780837769256948
 30
0.0
 40
0.0247350693307944
 50
235.9477241881662053
 51
264.4381214842571808
  0
ARC
  5
2E9F6
  8
0
 10
2936.3909256439969795
 20
134.2382733404803048
 30
0.0
 40
0.2239359300228714
 50
225.5770186342975023
 51
233.7895301434818975
  0
ARC
  5
2E9F7
  8
0
 10
2936.546270899404135
 20
134.4113978085117935
 30
0.0
 40
0.4564286324708796
 50
220.4197858688428084
 51
226.8615696460252877
  0
ARC
  5
2E9F8
  8
0
 10
2936.2271941057538243
 20
134.1429903390634877
 30
0.0
 40
0.0395617760917543
 50
196.131304386297586
 51
224.1029824352962123
  0
ARC
  5
2E9F9
  8
0
 10
2936.2089155958310585
 20
134.1362405750849121
 30
0.0
 40
0.0201765996483986
 50
139.6378591754144054
 51
192.1368055261050074
  0
ARC
  5
2E9FA
  8
0
 10
2936.218603187152894
 20
134.1395703845892911
 30
0.0
 40
0.0436790754388403
 50
61.0375923317749809
 51
77.7052996918876033
  0
ARC
  5
2E9FB
  8
0
 10
2936.2254576783529956
 20
134.1700277983700005
 30
0.0
 40
0.0124623965648186
 50
78.6785589039151887
 51
99.2675008377890435
  0
ARC
  5
2E9FC
  8
0
 10
2936.2243182491920379
 20
134.1769048623779099
 30
0.0
 40
0.0054916255341611
 50
99.0896512429542469
 51
137.8973939989018049
  0
ARC
  5
2E9FD
  8
0
 10
2936.3109864042630761
 20
134.0896639590849873
 30
0.0
 40
0.0068549587315995
 50
316.0649589534560846
 51
3.8871296077770099
  0
ARC
  5
2E9FE
  8
0
 10
2936.2809944613582047
 20
134.0858598045803944
 30
0.0
 40
0.0370776948294991
 50
6.611287001890541
 51
30.1815764754810303
  0
ARC
  5
2E9FF
  8
0
 10
2936.2590695021649481
 20
134.1856248889220922
 30
0.0
 40
0.0206246510804009
 50
139.3475013233259858
 51
179.7312567369849887
  0
ARC
  5
2EA00
  8
0
 10
2936.2672551285018017
 20
134.1863993211676984
 30
0.0
 40
0.0288180200723236
 50
181.3475097569659056
 51
219.071735035004906
  0
ARC
  5
2EA01
  8
0
 10
2936.4868311993009229
 20
134.3505703351951013
 30
0.0
 40
0.3029610132324921
 50
217.001969778500893
 51
227.5634387367059048
  0
ARC
  5
2EA02
  8
0
 10
2936.3689791539209182
 20
134.2128862829833054
 30
0.0
 40
0.1219674548625534
 50
224.7776807747885073
 51
242.7036683018500867
  0
ARC
  5
2EA03
  8
0
 10
2936.3206931757267739
 20
134.1243258268146974
 30
0.0
 40
0.0212493174118813
 50
248.9066037613984861
 51
310.1596863146381793
  0
ARC
  5
2EA04
  8
0
 10
2936.2213813099251638
 20
134.0860452448413866
 30
0.0
 40
0.0798865055893107
 50
30.7392630059592804
 51
59.260737199912441
  0
ARC
  5
2EA05
  8
0
 10
2936.3328768285009573
 20
134.1975407638176137
 30
0.0
 40
0.082631177288948
 50
211.2224646878543126
 51
238.7775355180160943
  0
ARC
  5
2EA06
  8
0
 10
2936.2763063436341326
 20
134.2233994009087894
 30
0.0
 40
0.0090322529659805
 50
86.3577760843371038
 51
135.4462663544402119
  0
ARC
  5
2EA07
  8
0
 10
2936.2739885592941391
 20
134.1929127329067057
 30
0.0
 40
0.0396063717381353
 50
62.0104480319174201
 51
85.8132461869223278
  0
ARC
  5
2EA08
  8
0
 10
2936.2033117190289886
 20
134.0670797290597989
 30
0.0
 40
0.1839210838682165
 50
38.0047204248440735
 51
60.9651533239226424
  0
ARC
  5
2EA09
  8
0
 10
2936.2703009560368628
 20
134.1137595247004981
 30
0.0
 40
0.1024915744957396
 50
20.543396351442361
 51
40.5017036175962701
  0
ARC
  5
2EA0A
  8
0
 10
2936.3453274189000695
 20
134.1418405302813142
 30
0.0
 40
0.0223822237443786
 50
353.3767737336403911
 51
20.6273596194925908
  0
ARC
  5
2EA0B
  8
0
 10
2936.359464561256118
 20
134.1404733047345985
 30
0.0
 40
0.0081862716539965
 50
316.6685226133258766
 51
351.4693683253232166
  0
ARC
  5
2EA0C
  8
0
 10
2936.067437754707953
 20
134.1331624972648058
 30
0.0
 40
0.0197509320008051
 50
278.5781636515588957
 51
310.2722369226200954
  0
ARC
  5
2EA0D
  8
0
 10
2936.0674367408469152
 20
134.1335363506530882
 30
0.0
 40
0.0201208289480595
 50
238.5578883865966873
 51
278.4222271925531231
  0
ARC
  5
2EA0E
  8
0
 10
2936.0805493783009297
 20
134.1531778088240117
 30
0.0
 40
0.0437284582625778
 50
227.0189332426120927
 51
237.3240891439020004
  0
ARC
  5
2EA0F
  8
0
 10
2936.5787944241242258
 20
134.6940620772037107
 30
0.0
 40
0.7791214863016264
 50
223.4860449835196903
 51
227.3311680085134867
  0
ARC
  5
2EA10
  8
0
 10
2935.8430855841188531
 20
133.9753804514917874
 30
0.0
 40
0.2514382558226543
 50
40.8928795753650078
 51
48.0740874804476874
  0
ARC
  5
2EA11
  8
0
 10
2936.1890792302287991
 20
134.3151914607578021
 30
0.0
 40
0.234541348461037
 50
220.6338272754942977
 51
228.3331397802849949
  0
ARC
  5
2EA12
  8
0
 10
2936.4171686540371411
 20
134.553566439435599
 30
0.0
 40
0.5652455871621905
 50
221.2102979782725072
 51
224.4279444619494086
  0
ARC
  5
2EA13
  8
0
 10
2936.007076871335812
 20
134.197017658841304
 30
0.0
 40
0.0219185852890835
 50
175.7557203106493944
 51
226.3096397917319962
  0
ARC
  5
2EA14
  8
0
 10
2936.0048906714969235
 20
134.1968506798523038
 30
0.0
 40
0.0197534675265808
 50
138.6918921269256941
 51
174.8033720646741926
  0
ARC
  5
2EA15
  8
0
 10
2936.1078336484961255
 20
134.1451099209209019
 30
0.0
 40
0.0027786546996469
 50
318.6852141924156854
 51
13.6132396834301606
  0
ARC
  5
2EA16
  8
0
 10
2935.9390543311887996
 20
134.0634952513848077
 30
0.0
 40
0.1901933071097177
 50
25.6296849550504113
 51
45.3740826489095497
  0
ARC
  5
2EA17
  8
0
 10
2936.4578920203612142
 20
134.7817816248856957
 30
0.0
 40
0.7874164833843411
 50
220.4262165067773083
 51
228.1483036883784052
  0
ARC
  5
2EA18
  8
0
 10
2935.9435087660071986
 20
134.2116123621401869
 30
0.0
 40
0.0197032754414095
 50
236.1160679436181056
 51
310.1949806284630995
  0
ARC
  5
2EA19
  8
0
 10
2935.8755037939367867
 20
134.2810908804407006
 30
0.0
 40
0.0197070643268629
 50
138.5853123463978136
 51
210.2364263292305111
  0
ARC
  5
2EA1A
  8
0
 10
2935.8691536592978082
 20
134.2922374799821057
 30
0.0
 40
0.0425478567520786
 50
47.4625200531170321
 51
55.8780822897920473
  0
ARC
  5
2EA1B
  8
0
 10
2935.8897210924878891
 20
134.3227863577467929
 30
0.0
 40
0.0057217327202501
 50
54.7774652513539024
 51
72.9393373874957121
  0
ARC
  5
2EA1C
  8
0
 10
2935.8911478275590525
 20
134.3273408691864006
 30
0.0
 40
0.000949467799593
 50
74.6129557323894801
 51
101.5552490572292044
  0
ARC
  5
2EA1D
  8
0
 10
2935.8910635171478134
 20
134.3278610667719022
 30
0.0
 40
0.0004234763839691
 50
104.4790628788364018
 51
136.3871483783086092
  0
ARC
  5
2EA1E
  8
0
 10
2935.271692329221878
 20
133.6982439067049029
 30
0.0
 40
0.8854716615832477
 50
38.0907042400183329
 51
43.8168110012439769
  0
ARC
  5
2EA1F
  8
0
 10
2935.8282739444412073
 20
134.1301758093188141
 30
0.0
 40
0.1809922581594343
 50
31.3972439332020201
 51
39.1715781267999787
  0
ARC
  5
2EA20
  8
0
 10
2935.97114316995021
 20
134.2171663600857983
 30
0.0
 40
0.0137243391028541
 50
17.0421389718380887
 51
32.1376266650822728
  0
ARC
  5
2EA21
  8
0
 10
2935.9822714952001661
 20
134.2206406735215012
 30
0.0
 40
0.0020673105069128
 50
357.4674270031903802
 51
15.3700923901070698
  0
ARC
  5
2EA22
  8
0
 10
2935.9838182411622256
 20
134.2205636414327046
 30
0.0
 40
0.0005187429304591
 50
313.8644360156760058
 51
358.4184832237888827
  0
ARC
  5
2EA23
  8
0
 10
2935.7766096101267976
 20
134.4261325084025032
 30
0.0
 40
0.0197496464448988
 50
137.816589814814904
 51
197.3213465055748941
  0
ARC
  5
2EA24
  8
0
 10
2935.7785581357429692
 20
134.4269042242848968
 30
0.0
 40
0.021840131034175
 50
197.7321322956678955
 51
217.2902639686870998
  0
ARC
  5
2EA25
  8
0
 10
2936.2114820770561892
 20
134.7948205618467057
 30
0.0
 40
0.5899521765942491
 50
220.2456741248695948
 51
223.65481451464359
  0
ARC
  5
2EA26
  8
0
 10
2935.8380874819299606
 20
134.3616555034153066
 30
0.0
 40
0.0199381001688532
 50
227.7098288691441041
 51
309.1682809210877849
  0
ARC
  5
2EA27
  8
0
 10
2935.7791169338020154
 20
134.443599362519592
 30
0.0
 40
0.0347071628550904
 50
45.8451104428184095
 51
61.1792742185735179
  0
ARC
  5
2EA28
  8
0
 10
2935.7938821144048234
 20
134.4701123313973881
 30
0.0
 40
0.0043631916100589
 50
63.2167965318577103
 51
83.5781612207665461
  0
ARC
  5
2EA29
  8
0
 10
2935.7942442124831359
 20
134.4734051039168037
 30
0.0
 40
0.0010506143007456
 50
83.1166216075366151
 51
134.2294446879139116
  0
ARC
  5
2EA2A
  8
0
 10
2935.4399242331319329
 20
134.1064505560096904
 30
0.0
 40
0.5133700065879611
 50
32.747514921956828
 51
42.2880222111188928
  0
ARC
  5
2EA2B
  8
0
 10
2935.8141961989749689
 20
134.3468996512521016
 30
0.0
 40
0.0685162196228305
 50
22.0760443440821383
 51
32.9358479587811175
  0
ARC
  5
2EA2C
  8
0
 10
2935.8699352464609547
 20
134.3692960008208956
 30
0.0
 40
0.0084484966636752
 50
3.1918428153447551
 51
23.3945876078454802
  0
ARC
  5
2EA2D
  8
0
 10
2935.8769860888678522
 20
134.3695886612717914
 30
0.0
 40
0.0013959109097898
 50
315.5976595331849808
 51
7.3155402244210714
  0
ARC
  5
2EA2E
  8
0
 10
2936.0923531677640312
 20
134.2224892357976955
 30
0.0
 40
0.0055990799536852
 50
320.3977439120957911
 51
15.97011696955955
  0
ARC
  5
2EA2F
  8
0
 10
2935.9400483882159278
 20
134.1593701077767946
 30
0.0
 40
0.1704297501728904
 50
22.2960095723347287
 51
43.825763260404031
  0
ARC
  5
2EA30
  8
0
 10
2935.9313205608827957
 20
134.2458732988401948
 30
0.0
 40
0.175935206904826
 50
23.3006758775931786
 51
43.1887121703107866
  0
ARC
  5
2EA31
  8
0
 10
2936.0707780376360461
 20
134.3068294089829067
 30
0.0
 40
0.0237542710931487
 50
355.8475569307104251
 51
21.3191785330254184
  0
ARC
  5
2EA32
  8
0
 10
2936.0890035927009194
 20
134.3057837421793863
 30
0.0
 40
0.0055078020806637
 50
311.6368205905317836
 51
352.9669143704387011
  0
ARC
  5
2EA33
  8
0
 10
2936.0961889128311668
 20
134.457477122003894
 30
0.0
 40
0.1022453191551642
 50
223.4517210628638111
 51
240.8380453167858946
  0
ARC
  5
2EA34
  8
0
 10
2936.056029777168078
 20
134.3883762983822123
 30
0.0
 40
0.0223782424479032
 50
244.4180682055201999
 51
279.1686036413969987
  0
ARC
  5
2EA35
  8
0
 10
2936.0562016034709814
 20
134.3864491025337884
 30
0.0
 40
0.0204487520801442
 50
279.5537273106975249
 51
308.8946423107074111
  0
ARC
  5
2EA36
  8
0
 10
2936.0909873261171015
 20
134.4006559323881049
 30
0.0
 40
0.009803659294818
 50
322.1098360781131191
 51
2.3422947100251168
  0
ARC
  5
2EA37
  8
0
 10
2936.0634091587699004
 20
134.4002493886945047
 30
0.0
 40
0.0373823519318758
 50
1.2373083586706151
 51
21.6729443662820387
  0
ARC
  5
2EA38
  8
0
 10
2935.9552165407831126
 20
134.3558607870014896
 30
0.0
 40
0.154325007902422
 50
22.15346044349171
 51
39.5719281814323409
  0
ARC
  5
2EA39
  8
0
 10
2935.9216059697942001
 20
134.334809967619691
 30
0.0
 40
0.1937126443872854
 50
38.038144474085172
 51
51.9105589165068366
  0
ARC
  5
2EA3A
  8
0
 10
2935.9923852249899028
 20
134.4247533918106967
 30
0.0
 40
0.0792600224471585
 50
52.0706399686833734
 51
64.7058094765227452
  0
ARC
  5
2EA3B
  8
0
 10
2936.0154998595789948
 20
134.4746842859630078
 30
0.0
 40
0.0242440142891152
 50
63.6771444380746132
 51
88.4713803324863761
  0
ARC
  5
2EA3C
  8
0
 10
2936.0160563179920246
 20
134.4914815351513937
 30
0.0
 40
0.0074386851396832
 50
89.304596293677335
 51
135.3040334650432044
  0
ARC
  5
2EA3D
  8
0
 10
2936.0613281826808816
 20
134.4801143863313939
 30
0.0
 40
0.0923024059116412
 50
203.9149388414639077
 51
223.6681595708014072
  0
ARC
  5
2EA3E
  8
0
 10
2935.9968272664159485
 20
134.4501823822922972
 30
0.0
 40
0.0212399439018618
 50
138.061302288351186
 51
200.6358643997886873
  0
ARC
  5
2EA3F
  8
0
 10
2935.954312668323837
 20
134.3511284588061869
 30
0.0
 40
0.0812899729850198
 50
29.1543889216725809
 51
57.173413779781491
  0
ARC
  5
2EA40
  8
0
 10
2936.0724538031959128
 20
134.4619303796197016
 30
0.0
 40
0.0853966470285822
 50
209.8408436915725872
 51
236.4869590098766139
  0
ARC
  5
2EA41
  8
0
 10
2936.1165191648728978
 20
134.3896982148854988
 30
0.0
 40
0.137130504966308
 50
223.5918111504979038
 51
235.7597919146475078
  0
ARC
  5
2EA42
  8
0
 10
2936.0504287185081012
 20
134.2937950116084096
 30
0.0
 40
0.020673001004585
 50
237.6303359017522894
 51
308.6627674464637039
  0
ARC
  5
2EA43
  8
0
 10
2936.1059177810311667
 20
134.4331154238915929
 30
0.0
 40
0.1595588129015473
 50
212.8890578956552133
 51
223.2557526235414969
  0
ARC
  5
2EA44
  8
0
 10
2935.9896661676561962
 20
134.3570249736611117
 30
0.0
 40
0.020635726502926
 50
138.8979410507691057
 51
210.7542955569163041
  0
ARC
  5
2EA45
  8
0
 10
2935.9138308605602106
 20
134.223404549558694
 30
0.0
 40
0.1288599569905163
 50
35.0486342624711114
 51
52.6214291093410935
  0
ARC
  5
2EA46
  8
0
 10
2936.0998447880638196
 20
134.402003942989495
 30
0.0
 40
0.132001917856859
 50
215.259367054466594
 51
232.410696317325403
  0
ARC
  5
2EA47
  8
0
 10
2936.0522537694728271
 20
134.2090028177211138
 30
0.0
 40
0.0208742844120937
 50
227.9877677442584911
 51
308.8295333537527085
  0
ARC
  5
2EA48
  8
0
 10
2936.3962533170538336
 20
134.6045242910049069
 30
0.0
 40
0.5450591133050962
 50
219.2058488594938126
 51
228.9471167019613915
  0
ARC
  5
2EA49
  8
0
 10
2935.9918156319458831
 20
134.2717340666725931
 30
0.0
 40
0.0214247010473053
 50
139.8731569209778058
 51
213.2474579331959035
  0
ARC
  5
2EA4A
  8
0
 10
2935.9049382122111638
 20
134.127281954800111
 30
0.0
 40
0.1434184013256974
 50
37.791906093478282
 51
50.3988743600894722
  0
ARC
  5
2EA4B
  8
0
 10
2936.1034243995359247
 20
134.319597488082195
 30
0.0
 40
0.1347449119450356
 50
217.3843441654873914
 51
230.8064362881096088
  0
ARC
  5
2EA4C
  8
0
 10
2935.7384731941219798
 20
134.4966900614022904
 30
0.0
 40
0.135512400305672
 50
38.4884184699158496
 51
57.609110989315667
  0
ARC
  5
2EA4D
  8
0
 10
2935.6393964135131682
 20
134.4034008227500863
 30
0.0
 40
0.2713601897897826
 50
28.8431755020196015
 51
40.8876153279876604
  0
ARC
  5
2EA4E
  8
0
 10
2935.7962385197261028
 20
134.4886618248737022
 30
0.0
 40
0.0928494517903512
 50
16.055928931775771
 51
29.4473086739774388
  0
ARC
  5
2EA4F
  8
0
 10
2935.8802613710518017
 20
134.5080958226153029
 30
0.0
 40
0.006082042506108
 50
314.9223517063553004
 51
352.6951004253709812
  0
ARC
  5
2EA50
  8
0
 10
2935.8616746705511105
 20
134.507977021237906
 30
0.0
 40
0.0246280775901655
 50
358.4771023188940262
 51
14.9770642632134408
  0
ARC
  5
2EA51
  8
0
 10
2935.9710656138959166
 20
134.6522244776558068
 30
0.0
 40
0.2199425348507214
 50
224.3992986713917048
 51
229.4073055072541081
  0
ARC
  5
2EA52
  8
0
 10
2935.8478560394341912
 20
134.5065077877470969
 30
0.0
 40
0.0291492794262396
 50
226.9400322702377935
 51
253.7865699002543067
  0
ARC
  5
2EA53
  8
0
 10
2935.8447244082440193
 20
134.4979416626055979
 30
0.0
 40
0.0200588804964163
 50
255.5443187828934128
 51
308.1403702102462034
  0
ARC
  5
2EA54
  8
0
 10
2935.6952850873990428
 20
134.4203073448792907
 30
0.0
 40
0.1440896500205453
 50
34.8964344894695486
 51
50.5995453718190973
  0
ARC
  5
2EA55
  8
0
 10
2935.906525474575119
 20
134.6155622073636096
 30
0.0
 40
0.1462495224017217
 50
215.0131044737283048
 51
230.4828753875582095
  0
ARC
  5
2EA56
  8
0
 10
2935.7845046864731557
 20
134.5631584081166068
 30
0.0
 40
0.0201443869592878
 50
137.4560615577589999
 51
193.6999428929632074
  0
ARC
  5
2EA57
  8
0
 10
2935.7912918792098935
 20
134.5650497703329052
 30
0.0
 40
0.0271873982557003
 50
194.1848538636666888
 51
216.4972926191092881
  0
ARC
  5
2EA58
  8
0
 10
2935.9903897218177917
 20
134.7093979623863049
 30
0.0
 40
0.2731056511288051
 50
215.9977619226991123
 51
221.8367951876545021
  0
ARC
  5
2EA59
  8
0
 10
2935.4027828082230371
 20
134.3231648478829925
 30
0.0
 40
0.435684790704396
 50
33.865185472825047
 51
40.9398013034248933
  0
ARC
  5
2EA5A
  8
0
 10
2935.6856006473008165
 20
134.5905851195498997
 30
0.0
 40
0.0458690299580991
 50
46.9910762100564128
 51
57.7762192469770781
  0
ARC
  5
2EA5B
  8
0
 10
2935.7041921483319129
 20
134.6203423495431082
 30
0.0
 40
0.0107826525460638
 50
57.0350232173814078
 51
75.4770210575986908
  0
ARC
  5
2EA5C
  8
0
 10
2935.706232228645149
 20
134.6282316217958055
 30
0.0
 40
0.0026338799615096
 50
75.4012059621807964
 51
106.4517638191757953
  0
ARC
  5
2EA5D
  8
0
 10
2935.7059563717161836
 20
134.6293281496965903
 30
0.0
 40
0.0015048233613941
 50
108.2028117951230968
 51
136.6761877072011089
  0
ARC
  5
2EA5E
  8
0
 10
2935.784553519552901
 20
134.5223067098621925
 30
0.0
 40
0.0020993148619764
 50
311.6745326202250794
 51
354.1637124388087727
  0
ARC
  5
2EA5F
  8
0
 10
2935.7773341952060946
 20
134.5230260376397098
 30
0.0
 40
0.0093543820301449
 50
354.277072886808412
 51
14.1897953336563791
  0
ARC
  5
2EA60
  8
0
 10
2935.7560515529498844
 20
134.518281392735588
 30
0.0
 40
0.0311568617687531
 50
13.0546623847122305
 51
20.2694673745352887
  0
ARC
  5
2EA61
  8
0
 10
2935.8501599143819476
 20
134.6936582905231887
 30
0.0
 40
0.2206648915800782
 50
213.7535964920137133
 51
223.9698273017395138
  0
ARC
  5
2EA62
  8
0
 10
2935.6846390114292262
 20
134.5797711665966858
 30
0.0
 40
0.0199534402080483
 50
136.8722155817164037
 51
205.9112993198872914
  0
ARC
  5
2EA63
  8
0
 10
2935.804976793140213
 20
134.5882457128467991
 30
0.0
 40
0.1155415903637881
 50
223.6648592189966962
 51
230.9004140990215888
  0
ARC
  5
2EA64
  8
0
 10
2935.7450059484299345
 20
134.5141621103009868
 30
0.0
 40
0.0202279323411838
 50
230.3852067771333054
 51
307.8202879394593765
  0
ARC
  5
2EA65
  8
0
 10
2935.5667645773642107
 20
134.4110056670054973
 30
0.0
 40
0.1818902460265776
 50
37.5567712696038924
 51
47.4902701821815612
  0
ARC
  5
2EA66
  8
0
 10
2935.835027946126047
 20
134.657026425418394
 30
0.0
 40
0.1834635790539667
 50
217.5994703746407026
 51
227.4475710771403101
  0
ARC
  5
2EA67
  8
0
 10
2935.8091100538481442
 20
134.6324475274552981
 30
0.0
 40
0.0214185290001831
 50
237.6361330077023979
 51
306.1262201448936935
  0
ARC
  5
2EA68
  8
0
 10
2935.8710187925630635
 20
134.7214588286311141
 30
0.0
 40
0.1298258304676491
 50
222.6523336251169098
 51
235.5857481955326875
  0
ARC
  5
2EA69
  8
0
 10
2936.075287459862011
 20
134.9250072562961122
 30
0.0
 40
0.4181277052419895
 50
220.071516284697509
 51
224.2014563464690013
  0
ARC
  5
2EA6A
  8
0
 10
2935.85216115391313
 20
134.7507629119137107
 30
0.0
 40
0.1350938607166271
 50
208.6070242129165138
 51
220.2504198560287989
  0
ARC
  5
2EA6B
  8
0
 10
2935.7527140927440996
 20
134.6967487891550945
 30
0.0
 40
0.0219258025065058
 50
137.4579799773210027
 51
209.1163169621509041
  0
ARC
  5
2EA6C
  8
0
 10
2935.8350611080882118
 20
134.7127534189390019
 30
0.0
 40
0.094787218727038
 50
209.4734649373949935
 51
233.4388440439412875
  0
ARC
  5
2EA6D
  8
0
 10
2935.6981385389558454
 20
134.5918012313927932
 30
0.0
 40
0.0920995531802085
 50
29.1183591604273992
 51
53.7939498208977085
  0
ARC
  5
2EA6E
  8
0
 10
2935.8435819539240583
 20
134.6416295190877008
 30
0.0
 40
0.0078995087964482
 50
312.3261794249904142
 51
2.1916973196904141
  0
ARC
  5
2EA6F
  8
0
 10
2935.8075399946601465
 20
134.6416114554459966
 30
0.0
 40
0.0439368558456838
 50
0.4175137871834232
 51
22.0865075657557206
  0
ARC
  5
2EA70
  8
0
 10
2935.6465033019730981
 20
134.5756184184675135
 30
0.0
 40
0.2179708320498608
 50
22.2440948147474984
 51
44.688089110484718
  0
ARC
  5
2EA71
  8
0
 10
2935.7514880404819451
 20
134.6855291448898129
 30
0.0
 40
0.0661785263470612
 50
40.9536374944890227
 51
66.138155520581094
  0
ARC
  5
2EA72
  8
0
 10
2935.7737653259118815
 20
134.7348883881550989
 30
0.0
 40
0.012033286538458
 50
68.0701250884572886
 51
95.2686079932564382
  0
ARC
  5
2EA73
  8
0
 10
2935.7732805414048016
 20
134.7416464598040875
 30
0.0
 40
0.0052610569172293
 50
96.7697551038237549
 51
135.2853649828574873
  0
ARC
  5
2EA74
  8
0
 10
2935.6447875847779869
 20
134.5585238854147008
 30
0.0
 40
0.0197142902001178
 50
137.2962592381277886
 51
215.5181315369183892
  0
ARC
  5
2EA75
  8
0
 10
2935.7057426530591329
 20
134.4934020308591869
 30
0.0
 40
0.0198623043967466
 50
221.0906089600381961
 51
308.6958945655890147
  0
LINE
  5
2EA76
  8
0
 10
2935.6907730076800362
 20
134.480347497042203
 30
0.0
 11
2935.6287414988191813
 21
134.5470706603879023
 31
0.0
  0
ARC
  5
2EA77
  8
0
 10
2935.7015460077018361
 20
134.7209284404362108
 30
0.0
 40
0.0779999423311695
 50
222.6144387922255987
 51
235.0125531811015946
  0
ARC
  5
2EA78
  8
0
 10
2935.6678636893971088
 20
134.6738881312313936
 30
0.0
 40
0.0201571391602494
 50
236.781985041063308
 51
307.0499953594076032
  0
ARC
  5
2EA79
  8
0
 10
2935.6100658035811648
 20
134.7399770199843942
 30
0.0
 40
0.0214325274616608
 50
165.7579013761285012
 51
215.9677645868603975
  0
ARC
  5
2EA7A
  8
0
 10
2935.6084659012108204
 20
134.7401187869031958
 30
0.0
 40
0.0198485744113233
 50
136.329804269703601
 51
165.0183291498487108
  0
ARC
  5
2EA7B
  8
0
 10
2935.4927931335209905
 20
134.576756616887792
 30
0.0
 40
0.176561622236082
 50
35.4140811200461627
 51
48.2157181455087525
  0
ARC
  5
2EA7C
  8
0
 10
2935.7549411360560043
 20
134.8112666792870016
 30
0.0
 40
0.1773682236570127
 50
215.4433104098143019
 51
228.1864888557165045
  0
ARC
  5
2EA7D
  8
0
 10
2935.7025470994731222
 20
134.680632584493793
 30
0.0
 40
0.0045494259390133
 50
315.7682168828446265
 51
6.0007695191574797
  0
ARC
  5
2EA7E
  8
0
 10
2935.6687809048530653
 20
134.6781678702535885
 30
0.0
 40
0.0384034187036757
 50
4.3910915787085907
 51
22.6929928487012198
  0
ARC
  5
2EA7F
  8
0
 10
2935.4345920593659685
 20
134.5761483318669036
 30
0.0
 40
0.2938452726628821
 50
23.42874611190393
 51
37.0537736064413821
  0
ARC
  5
2EA80
  8
0
 10
2935.4717578111408329
 20
134.610185751815095
 30
0.0
 40
0.2437213272589402
 50
35.9324533010497902
 51
44.0932919753190831
  0
ARC
  5
2EA81
  8
0
 10
2935.6067638363879269
 20
134.743118274352895
 30
0.0
 40
0.0542823105759133
 50
42.4759217777392806
 51
58.4948215342609572
  0
ARC
  5
2EA82
  8
0
 10
2935.6293440858571557
 20
134.780059657215503
 30
0.0
 40
0.010986587867626
 50
58.218917196095461
 51
79.362607340657604
  0
ARC
  5
2EA83
  8
0
 10
2935.6307442941488262
 20
134.7881000695520015
 30
0.0
 40
0.0028279461185147
 50
77.1727910652854661
 51
133.5619585496351931
  0
ARC
  5
2EA84
  8
0
 10
2937.1988132941428375
 20
136.1889253602583949
 30
0.0
 40
2.2349800758666389
 50
220.1765087503385132
 51
222.5594949290849058
  0
ARC
  5
2EA85
  8
0
 10
2935.5675651647261475
 20
134.6904213632010965
 30
0.0
 40
0.0199267605007467
 50
221.2433559209763132
 51
307.2019723962131934
  0
ARC
  5
2EA86
  8
0
 10
2935.5079666675560475
 20
134.7573953018442978
 30
0.0
 40
0.0197464655131673
 50
135.8663140124585027
 51
211.6276833364661059
  0
ARC
  5
2EA87
  8
0
 10
2934.8605313014809326
 20
134.290374156879011
 30
0.0
 40
0.8493349169936001
 50
28.5970784735807797
 51
36.3042127479252983
  0
ARC
  5
2EA88
  8
0
 10
2935.6041076463998252
 20
134.6956988301766955
 30
0.0
 40
0.0024621373220143
 50
346.4083278161327826
 51
29.355660109454071
  0
ARC
  5
2EA89
  8
0
 10
2935.4738466234712178
 20
134.8756840524048926
 30
0.0
 40
0.0200989346994893
 50
135.9140695038107083
 51
213.6442306700205052
  0
ARC
  5
2EA8A
  8
0
 10
2936.0955693103760495
 20
135.3566416238944896
 30
0.0
 40
0.8060895007898736
 50
217.6234602080982086
 51
224.1477026827456882
  0
ARC
  5
2EA8B
  8
0
 10
2935.5321080095741308
 20
134.8090892718585962
 30
0.0
 40
0.0204084913263605
 50
222.91885428741449
 51
306.0099860607949722
  0
ARC
  5
2EA8C
  8
0
 10
2935.4960306003458754
 20
134.9217144495644902
 30
0.0
 40
0.0058135042795316
 50
54.6882642077822823
 51
77.1693609342354279
  0
ARC
  5
2EA8D
  8
0
 10
2935.4969657325741537
 20
134.926036898471807
 30
0.0
 40
0.0013921502783008
 50
75.1892139452024963
 51
132.8466857547188056
  0
ARC
  5
2EA8E
  8
0
 10
2935.2029673569250008
 20
134.6608637167682048
 30
0.0
 40
0.398421447693871
 50
25.0899639113687201
 51
31.8934571424136593
  0
ARC
  5
2EA8F
  8
0
 10
2935.4875013631522052
 20
134.7937549554881969
 30
0.0
 40
0.0843844253161124
 50
15.7595260073762997
 51
25.2950138561428695
  0
ARC
  5
2EA90
  8
0
 10
2935.5531227748851961
 20
134.8123095923849917
 30
0.0
 40
0.0161903047969001
 50
1.760214211851109
 51
15.6379154770597495
  0
ARC
  5
2EA91
  8
0
 10
2935.5666318184630654
 20
134.8125845820264885
 30
0.0
 40
0.0026828491495339
 50
317.8900546892116949
 51
4.7534541343235741
  0
ARC
  5
2EA92
  8
0
 10
2935.4470229750500039
 20
134.8936832067626028
 30
0.0
 40
0.0201472823793797
 50
221.6790052030652021
 51
289.5709800941173739
  0
ARC
  5
2EA93
  8
0
 10
2934.7042999924669857
 20
134.5183390686106009
 30
0.0
 40
0.8659676959743711
 50
26.7562014441004017
 51
32.4473734708103834
  0
ARC
  5
2EA94
  8
0
 10
2935.7178325791219322
 20
134.9833196209079063
 30
0.0
 40
0.2065988773773762
 50
220.5377643246856962
 51
229.8085210535861904
  0
ARC
  5
2EA95
  8
0
 10
2935.597116033391103
 20
134.8434205913177095
 30
0.0
 40
0.0219126997005494
 50
234.8651537869857009
 51
303.9482049206508236
  0
ARC
  5
2EA96
  8
0
 10
2935.5415791332948174
 20
134.9089553316601098
 30
0.0
 40
0.0210534328085581
 50
135.1181598420951957
 51
208.1933338423478119
  0
ARC
  5
2EA97
  8
0
 10
2935.6316855479708465
 20
134.8475699893523938
 30
0.0
 40
0.0050720099942492
 50
310.2050223251671923
 51
352.7516942900455206
  0
ARC
  5
2EA98
  8
0
 10
2935.6178815569478502
 20
134.8498010303291039
 30
0.0
 40
0.019053015155975
 50
351.3334627213226895
 51
9.9572986434945392
  0
ARC
  5
2EA99
  8
0
 10
2935.5287205581071248
 20
134.8311514698924896
 30
0.0
 40
0.1101352998034308
 50
11.4929124938338507
 51
25.8269423271708405
  0
ARC
  5
2EA9A
  8
0
 10
2935.384705648255931
 20
134.7677656387880916
 30
0.0
 40
0.2674399118557007
 50
24.6086387013069796
 51
42.6652162002335018
  0
ARC
  5
2EA9B
  8
0
 10
2935.5456646427551277
 20
134.9159362730952125
 30
0.0
 40
0.048665504191254
 50
42.8186478846514689
 51
63.0976781906079935
  0
ARC
  5
2EA9C
  8
0
 10
2935.5656748943911225
 20
134.954329181816604
 30
0.0
 40
0.0053942340263985
 50
68.128766537447035
 51
125.3003351417077056
  0
ARC
  5
2EA9D
  8
0
 10
2935.4693019869309865
 20
134.7917229554768141
 30
0.0
 40
0.1124150006762093
 50
29.9121115759976384
 51
50.076791591373933
  0
ARC
  5
2EA9E
  8
0
 10
2935.6410116526740239
 20
134.9357761393212058
 30
0.0
 40
0.1151480185925789
 50
210.1538252177097092
 51
229.8350779496394978
  0
ARC
  5
2EA9F
  8
0
 10
2935.4348258239801908
 20
135.0035979897153879
 30
0.0
 40
0.0206473695489784
 50
224.8763308581739011
 51
304.0068572876699022
  0
ARC
  5
2EAA0
  8
0
 10
2935.6105687668327846
 20
135.1854709044731067
 30
0.0
 40
0.2735535600969885
 50
219.3974476771240063
 51
225.8985726718555043
  0
ARC
  5
2EAA1
  8
0
 10
2935.518402606042855
 20
135.1519953412021096
 30
0.0
 40
0.1806577372394489
 50
210.0431658643313995
 51
218.7022953258831137
  0
ARC
  5
2EAA2
  8
0
 10
2935.3797609600919714
 20
135.071808322432986
 30
0.0
 40
0.0204969932494988
 50
133.6263411388445945
 51
210.0361512477718122
  0
ARC
  5
2EAA3
  8
0
 10
2935.26984515453114
 20
134.9267967758430018
 30
0.0
 40
0.1579181310474491
 50
31.7176961337928915
 51
46.036396506800763
  0
ARC
  5
2EAA4
  8
0
 10
2935.5160869109508894
 20
135.1253260007079007
 30
0.0
 40
0.1608268924435639
 50
211.8478418927907967
 51
225.9062507478116117
  0
ARC
  5
2EAA5
  8
0
 10
2935.1081623427330669
 20
134.8785196944112101
 30
0.0
 40
0.3878382808190644
 50
24.695546907030451
 51
36.7500190780179068
  0
ARC
  5
2EAA6
  8
0
 10
2935.3111967919658127
 20
134.9687773448717962
 30
0.0
 40
0.1656879765265023
 50
15.0550887636834805
 51
25.6722624849419994
  0
ARC
  5
2EAA7
  8
0
 10
2935.4491296648661773
 20
135.0064426414234902
 30
0.0
 40
0.0227125001929954
 50
359.6220719510885147
 51
13.6807307902023094
  0
ARC
  5
2EAA8
  8
0
 10
2935.4678063816750182
 20
135.0061074716072085
 30
0.0
 40
0.0040395441565524
 50
316.7889666782774043
 51
2.629979317978099
  0
ARC
  5
2EAA9
  8
0
 10
2935.4008702145038114
 20
135.1104516547518131
 30
0.0
 40
0.0133155846607872
 50
50.9433167039594821
 51
63.3085555218926217
  0
ARC
  5
2EAAA
  8
0
 10
2935.4047691488249257
 20
135.1183368318125133
 30
0.0
 40
0.0045196969541432
 50
62.5675694060152026
 51
84.5611732148116175
  0
ARC
  5
2EAAB
  8
0
 10
2935.4050220356161844
 20
135.1210746278084969
 30
0.0
 40
0.0017702742193072
 50
84.3104025071136505
 51
132.278904480262895
  0
ARC
  5
2EAAC
  8
0
 10
2934.9564855351441111
 20
134.9664745584873913
 30
0.0
 40
0.4333382045020909
 50
18.4685348049962883
 51
36.6628215654998115
  0
ARC
  5
2EAAD
  8
0
 10
2935.2778808319108066
 20
135.1743124022576978
 30
0.0
 40
0.0199396531775318
 50
132.5734704545722025
 51
209.3510940172158996
  0
ARC
  5
2EAAE
  8
0
 10
2935.3327848548060501
 20
135.1045742137957006
 30
0.0
 40
0.0200876009361163
 50
221.6886930889700125
 51
303.6526213117679163
  0
ARC
  5
2EAAF
  8
0
 10
2931.3149326282718903
 20
128.2647071014748121
 30
0.0
 40
7.8850101000687456
 50
23.3979468440645384
 51
35.1123359530658092
  0
ARC
  5
2EAB0
  8
0
 10
2939.4200008708648966
 20
137.3341101362561005
 30
0.0
 40
4.6734846411999991
 50
234.8261845402695087
 51
236.1463168224902063
  0
ARC
  5
2EAB1
  8
0
 10
2939.2939677369267883
 20
137.4146889559727924
 30
0.0
 40
4.6436675758999986
 50
232.2364546896099
 51
232.7575686398398034
  0
LINE
  5
2EAB2
  8
0
 10
2938.1445751489159193
 20
104.5532786168422064
 30
0.0
 11
2938.1481066917631324
 21
95.2536516353742968
 31
0.0
  0
LINE
  5
2EAB3
  8
0
 10
2938.6957906544798789
 20
104.5532786168422064
 30
0.0
 11
2938.6962936798800001
 21
95.505319696442271
 31
0.0
  0
ARC
  5
2EAB4
  8
0
 10
2953.8113850869722228
 20
95.4523068951657052
 30
0.0
 40
15.6645381035658193
 50
180.7266357301357971
 51
186.2215913153590066
  0
ARC
  5
2EAB5
  8
0
 10
2944.8155383695529963
 20
94.44567295029006
 30
0.0
 40
6.6126325285409351
 50
185.9981367123635891
 51
194.046048471678688
  0
ARC
  5
2EAB6
  8
0
 10
2941.0522133945191854
 20
93.5323003566871449
 30
0.0
 40
2.740286256852039
 50
194.6168963582022968
 51
204.2003000128709118
  0
ARC
  5
2EAB7
  8
0
 10
2939.3112133615409221
 20
92.736651696839985
 30
0.0
 40
0.8262180757463861
 50
203.3652551132105941
 51
228.3408644381106001
  0
ARC
  5
2EAB8
  8
0
 10
2939.0707605918069021
 20
92.4787299682953261
 30
0.0
 40
0.4737642068018788
 50
229.3332393979694075
 51
260.8691124716261243
  0
ARC
  5
2EAB9
  8
0
 10
2939.05092361299603
 20
92.4166532326848937
 30
0.0
 40
0.4094418841916162
 50
262.2314694101884811
 51
282.2974868557104742
  0
ARC
  5
2EABA
  8
0
 10
2939.0303600762467795
 20
92.4752771465262384
 30
0.0
 40
0.4711618331180466
 50
283.222401307553298
 51
308.7207254072275759
  0
ARC
  5
2EABB
  8
0
 10
2938.7603180793598767
 20
92.7709290132314948
 30
0.0
 40
0.8711293241045702
 50
310.414615976099924
 51
338.4484246090840998
  0
ARC
  5
2EABC
  8
0
 10
2937.2644607718411862
 20
93.462204791418543
 30
0.0
 40
2.5180744967188642
 50
336.321349938128094
 51
344.1805648068905725
  0
ARC
  5
2EABD
  8
0
 10
2934.4720330598320288
 20
94.2321236145543253
 30
0.0
 40
5.4146643101614966
 50
344.3972308349905234
 51
351.1287618624442075
  0
ARC
  5
2EABE
  8
0
 10
2928.7331122160708219
 20
95.1256920713798024
 30
0.0
 40
11.2227341115239003
 50
351.1397143315348899
 51
355.9980628675389767
  0
ARC
  5
2EABF
  8
0
 10
2919.6843245911341
 20
95.7259125601664635
 30
0.0
 40
20.2913739517245588
 50
356.0905650099269906
 51
0.3508023699857794
  0
LINE
  5
2EAC0
  8
0
 10
2939.9753182134800227
 20
95.850148894142265
 30
0.0
 11
2939.9753182134800227
 21
126.5659760134215048
 31
0.0
  0
ARC
  5
2EAC1
  8
0
 10
2957.6611413235918917
 20
95.6065846622397544
 30
0.0
 40
18.96511799969932
 50
180.3059344383333098
 51
183.8291654516077926
  0
ARC
  5
2EAC2
  8
0
 10
2947.6248015760647831
 20
94.8856993769858548
 30
0.0
 40
8.9031763333889948
 50
183.5136276383821894
 51
190.8559196243832901
  0
ARC
  5
2EAC3
  8
0
 10
2947.4370344442681926
 20
95.1108441730285676
 30
0.0
 40
8.7649266154601957
 50
192.5327503508084135
 51
196.9246774525842909
  0
ARC
  5
2EAC4
  8
0
 10
2945.4001163716170595
 20
90.962326403920585
 30
0.0
 40
6.5461552372750091
 50
162.1541694677748069
 51
165.880317854333498
  0
ARC
  5
2EAC5
  8
0
 10
2933.2657057642550171
 20
94.4954498161637559
 30
0.0
 40
6.0975274572929399
 50
345.49698523983011
 51
354.2158058216127756
  0
ARC
  5
2EAC6
  8
0
 10
2923.3761810216828962
 20
95.589581582648961
 30
0.0
 40
16.0472317975577887
 50
353.887763817657401
 51
359.9261509837779727
  0
ARC
  5
2EAC7
  8
0
 10
1168.9223542371551048
 20
97.3362729107022631
 30
0.0
 40
1770.5019273793270713
 50
359.9428054110446737
 51
0.0231489594666083
  0
LINE
  5
2EAC8
  8
0
 10
2939.4241371110801992
 20
98.051600925873899
 30
0.0
 11
2939.4241371110801992
 21
126.7044068075503986
 31
0.0
  0
ENDSEC
  0
EOF
