  0
SECTION
  2
HEADER
  9
$ACADVER
  1
AC1009
  9
$INSBASE
 10
4275.4414925965738803
 20
215.3159347068169893
 30
0.0
  9
$EXTMIN
 10
4272.2958232463515742
 20
211.8041236832168863
 30
0.0
  9
$EXTMAX
 10
4275.4414925965738803
 20
218.8277457304168934
 30
0.0
  9
$LIMMIN
 10
0.0
 20
0.0
  9
$LIMMAX
 10
11.6929133858000007
 20
8.2677165353999982
  9
$ORTHOMODE
 70
     0
  9
$REGENMODE
 70
     1
  9
$FILLMODE
 70
     1
  9
$QTEXTMODE
 70
     0
  9
$MIRRTEXT
 70
     0
  9
$DRAGMODE
 70
     2
  9
$LTSCALE
 40
0.6431102362
  9
$OSMODE
 70
  4095
  9
$ATTMODE
 70
     1
  9
$TEXTSIZE
 40
0.2
  9
$TRACEWID
 40
0.05
  9
$TEXTSTYLE
  7
STANDARD
  9
$CLAYER
  8
0
  9
$CELTYPE
  6
BYLAYER
  9
$CECOLOR
 62
   256
  9
$DIMSCALE
 40
1.0
  9
$DIMASZ
 40
0.1875
  9
$DIMEXO
 40
0.0625
  9
$DIMDLI
 40
0.4443307087
  9
$DIMRND
 40
0.0
  9
$DIMDLE
 40
0.0
  9
$DIMEXE
 40
0.125
  9
$DIMTP
 40
0.01
  9
$DIMTM
 40
0.01
  9
$DIMTXT
 40
2.0
  9
$DIMCEN
 40
0.1052362205
  9
$DIMTSZ
 40
0.0
  9
$DIMTOL
 70
     1
  9
$DIMLIM
 70
     0
  9
$DIMTIH
 70
     1
  9
$DIMTOH
 70
     1
  9
$DIMSE1
 70
     0
  9
$DIMSE2
 70
     0
  9
$DIMTAD
 70
     0
  9
$DIMZIN
 70
     0
  9
$DIMBLK
  1

  9
$DIMASO
 70
     1
  9
$DIMSHO
 70
     1
  9
$DIMPOST
  1
\X
  9
$DIMAPOST
  1

  9
$DIMALT
 70
     1
  9
$DIMALTD
 70
     2
  9
$DIMALTF
 40
25.3999999999999986
  9
$DIMLFAC
 40
1.0
  9
$DIMTOFL
 70
     0
  9
$DIMTVP
 40
0.0
  9
$DIMTIX
 70
     0
  9
$DIMSOXD
 70
     0
  9
$DIMSAH
 70
     0
  9
$DIMBLK1
  1

  9
$DIMBLK2
  1

  9
$DIMSTYLE
  2
STANDARD
  9
$DIMCLRD
 70
     0
  9
$DIMCLRE
 70
     0
  9
$DIMCLRT
 70
     0
  9
$DIMTFAC
 40
1.0
  9
$DIMGAP
 40
0.09
  9
$LUNITS
 70
     2
  9
$LUPREC
 70
     4
  9
$SKETCHINC
 40
0.1
  9
$FILLETRAD
 40
0.0
  9
$AUNITS
 70
     0
  9
$AUPREC
 70
     0
  9
$MENU
  1
.
  9
$ELEVATION
 40
0.0
  9
$PELEVATION
 40
0.0
  9
$THICKNESS
 40
0.0
  9
$LIMCHECK
 70
     0
  9
$BLIPMODE
 70
     0
  9
$CHAMFERA
 40
0.0
  9
$CHAMFERB
 40
0.0
  9
$SKPOLY
 70
     0
  9
$TDCREATE
 40
2458060.468368056230247
  9
$TDUPDATE
 40
2459873.5949884261935949
  9
$TDINDWG
 40
0.5602038194
  9
$TDUSRTIMER
 40
0.5602038194
  9
$USRTIMER
 70
     1
  9
$ANGBASE
 50
0.0
  9
$ANGDIR
 70
     0
  9
$PDMODE
 70
     0
  9
$PDSIZE
 40
0.3125
  9
$PLINEWID
 40
0.0
  9
$COORDS
 70
     1
  9
$SPLFRAME
 70
     0
  9
$SPLINETYPE
 70
     6
  9
$SPLINESEGS
 70
     8
  9
$ATTDIA
 70
     1
  9
$ATTREQ
 70
     1
  9
$HANDLING
 70
     1
  9
$HANDSEED
  5
97DF
  9
$SURFTAB1
 70
     6
  9
$SURFTAB2
 70
     6
  9
$SURFTYPE
 70
     6
  9
$SURFU
 70
     6
  9
$SURFV
 70
     6
  9
$UCSNAME
  2

  9
$UCSORG
 10
0.0
 20
0.0
 30
0.0
  9
$UCSXDIR
 10
1.0
 20
0.0
 30
0.0
  9
$UCSYDIR
 10
0.0
 20
1.0
 30
0.0
  9
$PUCSNAME
  2

  9
$PUCSORG
 10
0.0
 20
0.0
 30
0.0
  9
$PUCSXDIR
 10
1.0
 20
0.0
 30
0.0
  9
$PUCSYDIR
 10
0.0
 20
1.0
 30
0.0
  9
$USERI1
 70
     0
  9
$USERI2
 70
     0
  9
$USERI3
 70
     0
  9
$USERI4
 70
     0
  9
$USERI5
 70
     0
  9
$USERR1
 40
0.0
  9
$USERR2
 40
0.0
  9
$USERR3
 40
0.0
  9
$USERR4
 40
0.0
  9
$USERR5
 40
0.0
  9
$WORLDVIEW
 70
     1
  9
$SHADEDGE
 70
     3
  9
$SHADEDIF
 70
    70
  9
$TILEMODE
 70
     1
  9
$MAXACTVP
 70
    64
  9
$PLIMCHECK
 70
     0
  9
$PEXTMIN
 10
1.0000000000000000E+20
 20
1.0000000000000000E+20
 30
1.0000000000000000E+20
  9
$PEXTMAX
 10
-1.0000000000000000E+20
 20
-1.0000000000000000E+20
 30
-1.0000000000000000E+20
  9
$PLIMMIN
 10
0.0
 20
0.0
  9
$PLIMMAX
 10
12.0
 20
9.0
  9
$UNITMODE
 70
     0
  9
$VISRETAIN
 70
     1
  9
$PLINEGEN
 70
     0
  9
$PSLTSCALE
 70
     1
  0
ENDSEC
  0
SECTION
  2
TABLES
  0
TABLE
  2
VPORT
 70
     1
  0
VPORT
  2
*ACTIVE
 70
     0
 10
0.0
 20
0.0
 11
1.0
 21
1.0
 12
0.000005577713182
 22
0.0000014792778842
 13
0.0
 23
0.0
 14
1.0
 24
1.0
 15
0.0
 25
0.0
 16
0.0
 26
0.0
 36
31.9495155084790987
 17
4273.8686523437490905
 27
215.3159332275390909
 37
0.0
 40
7.078422739375819
 41
2.095052083333333
 42
50.0
 43
0.0
 44
0.0
 50
0.0
 51
0.0
 71
     0
 72
   100
 73
     1
 74
     1
 75
     0
 76
     0
 77
     0
 78
     0
  0
ENDTAB
  0
TABLE
  2
LTYPE
 70
     2
  0
LTYPE
  2
CONTINUOUS
 70
     0
  3
Solid line
 72
    65
 73
     0
 40
0.0
  0
LTYPE
  2
PHANTOM2
 70
     0
  3
___ _ _ ___ _ _ ___ _ _ ___ _ _
 72
    65
 73
     6
 40
1.25
 49
0.625
 49
-0.125
 49
0.125
 49
-0.125
 49
0.125
 49
-0.125
  0
ENDTAB
  0
TABLE
  2
LAYER
 70
     2
  0
LAYER
  2
0
 70
     0
 62
   255
  6
CONTINUOUS
  0
LAYER
  2
DEFPOINTS
 70
     0
 62
     7
  6
CONTINUOUS
  0
ENDTAB
  0
TABLE
  2
STYLE
 70
     1
  0
STYLE
  2
STANDARD
 70
     0
 40
0.0
 41
0.8
 50
0.0
 71
     0
 42
0.2
  3
txt
  4

  0
ENDTAB
  0
TABLE
  2
VIEW
 70
     0
  0
ENDTAB
  0
TABLE
  2
UCS
 70
     0
  0
ENDTAB
  0
TABLE
  2
APPID
 70
     9
  0
APPID
  2
ACAD
 70
     0
  0
APPID
  2
ACAD_MLEADERVER
 70
     0
  0
APPID
  2
ACAD_EXEMPT_FROM_CAD_STANDARDS
 70
     0
  0
APPID
  2
ACAD_NAV_VCDISPLAY
 70
     0
  0
APPID
  2
ACAECLAYERSTANDARD
 70
     0
  0
APPID
  2
ACCMTRANSPARENCY
 70
     0
  0
APPID
  2
ACAD_DSTYLE_DIMJAG
 70
     0
  0
APPID
  2
ACAD_DSTYLE_DIMTALN
 70
     0
  0
APPID
  2
ACDBATTR
 70
     0
  0
ENDTAB
  0
TABLE
  2
DIMSTYLE
 70
     1
  0
DIMSTYLE
  2
STANDARD
 70
     0
  3

  4

  5

  6

  7

 40
1.0
 41
0.1875
 42
0.0625
 43
0.38
 44
0.125
 45
0.0
 46
0.0
 47
0.01
 48
0.01
140
0.15625
141
0.09
142
0.0
143
25.3999999999999986
144
1.0
145
0.0
146
1.0
147
0.09
 71
     1
 72
     0
 73
     1
 74
     1
 75
     0
 76
     0
 77
     0
 78
     4
170
     0
171
     2
172
     0
173
     0
174
     0
175
     0
176
     0
177
     0
178
     0
  0
ENDTAB
  0
ENDSEC
  0
SECTION
  2
BLOCKS
  0
BLOCK
  8
0
  2
$MODEL_SPACE
 70
     0
 10
0.0
 20
0.0
 30
0.0
  3
$MODEL_SPACE
  1

  0
ENDBLK
  5
21
  8
0
  0
BLOCK
 67
     1
  8
0
  2
$PAPER_SPACE
 70
     0
 10
0.0
 20
0.0
 30
0.0
  3
$PAPER_SPACE
  1

  0
ENDBLK
  5
1D
 67
     1
  8
0
  0
BLOCK
  8
0
  2
_FILLED
 70
     0
 10
0.0
 20
0.0
 30
0.0
  3
_FILLED
  1

  0
SOLID
  5
6F59
  8
0
  6
BYBLOCK
 62
     0
 10
0.0
 20
0.0
 30
0.0
 11
-1.0
 21
0.1666666667
 31
0.0
 12
-1.0
 22
-0.1666666667
 32
0.0
 13
-1.0
 23
-0.1666666667
 33
0.0
  0
ENDBLK
  5
6F5A
  8
0
  6
BYBLOCK
 62
     0
  0
ENDSEC
  0
SECTION
  2
ENTITIES
  0
ATTDEF
  5
3930
  8
DEFPOINTS
 10
4275.4303843802927076
 20
215.3146659043131876
 30
0.0
 40
0.001
  1
K-10317IN-4
  3

  2
MODELNUMBER
 70
     0
1001
ACDBATTR
1070
     0
1070
     1
  0
ATTDEF
  5
3931
  8
DEFPOINTS
 10
4275.4303843802927076
 20
215.3129992376466078
 30
0.0
 40
0.001
  1
STANCE
  3

  2
TRADENAME
 70
     0
1001
ACDBATTR
1070
     0
1070
     1
  0
ATTDEF
  5
3932
  8
DEFPOINTS
 10
4275.4303843802927076
 20
215.3113325709799142
 30
0.0
 40
0.001
  1
VALVE TRIM
  3

  2
PRODUCT
 70
     0
1001
ACDBATTR
1070
     0
1070
     1
  0
LINE
  5
9518
  8
0
 10
4272.3155072836862018
 20
217.3239977182149971
 30
0.0
 11
4273.2836932655409328
 21
217.3239977182149971
 31
0.0
  0
LINE
  5
9519
  8
0
 10
4273.8391303917742334
 20
217.3239977182149971
 30
0.0
 11
4274.4982006472118883
 21
217.3239977182149971
 31
0.0
  0
LINE
  5
951A
  8
0
 10
4272.3548784232725666
 20
211.8712417934169139
 30
0.0
 11
4272.7367681870737215
 21
211.8712417934169139
 31
0.0
  0
LINE
  5
951B
  8
0
 10
4275.4414925965738803
 20
218.8277457304168934
 30
0.0
 11
4275.4414925965738803
 21
211.8041236832168863
 31
0.0
  0
LINE
  5
951C
  8
0
 10
4274.4966107067739358
 20
218.7270422142769917
 30
0.0
 11
4274.4966107067739358
 21
217.353166817748189
 31
0.0
  0
LINE
  5
951D
  8
0
 10
4274.4966107067739358
 20
215.3653367833169057
 30
0.0
 11
4274.4966107067739358
 21
211.9040901228032965
 31
0.0
  0
LINE
  5
951E
  8
0
 10
4274.7789603372539204
 20
218.6129006086169966
 30
0.0
 11
4274.7789603372539204
 21
212.0189688050170105
 31
0.0
  0
LINE
  5
951F
  8
0
 10
4274.5145801776079679
 20
211.8852179680785923
 30
0.0
 11
4275.4414925965738803
 21
211.8041236832168863
 31
0.0
  0
ARC
  5
9520
  8
0
 10
4274.5163131611043354
 20
211.904859119542607
 30
0.0
 40
0.0197174557848547
 50
182.2351486671306873
 51
264.9577205247402958
  0
ARC
  5
9521
  8
0
 10
4274.0845271042517197
 20
212.0137306507602091
 30
0.0
 40
0.69445298858752
 50
347.5085094938806947
 51
0.4321775300289263
  0
LINE
  5
9522
  8
0
 10
4274.5145801776079679
 20
218.7466514455553011
 30
0.0
 11
4275.4414925965738803
 21
218.8277457304168934
 31
0.0
  0
ARC
  5
9523
  8
0
 10
4274.5163001774290024
 20
218.7270372445773035
 30
0.0
 40
0.0196894712825661
 50
95.0115364240392211
 51
179.9855383205498924
  0
ARC
  5
9524
  8
0
 10
4274.0845271042517197
 20
218.6181387628737127
 30
0.0
 40
0.69445298858752
 50
359.5678224699710768
 51
12.4914905061192307
  0
LINE
  5
9525
  8
0
 10
4272.295823305173144
 20
211.9302969115169049
 30
0.0
 11
4272.295823305173144
 21
217.3043212186169058
 31
0.0
  0
LINE
  5
9526
  8
0
 10
4272.7958233051740535
 20
211.9302969115169049
 30
0.0
 11
4272.7958233051740535
 21
215.3183863719517035
 31
0.0
  0
LINE
  5
9528
  8
0
 10
4273.8273193681734483
 20
217.3121866753170082
 30
0.0
 11
4273.8273193681734483
 21
215.4066748643168978
 31
0.0
  0
LINE
  5
9529
  8
0
 10
4273.7840398613725483
 20
217.2897224753170065
 30
0.0
 11
4273.7840398613725483
 21
215.4291390643168995
 31
0.0
  0
LINE
  5
952A
  8
0
 10
4273.7131461398739702
 20
215.3948638407169085
 30
0.0
 11
4273.2013351162740946
 21
215.3948638407169085
 31
0.0
  0
LINE
  5
952B
  8
0
 10
4273.8391303917742334
 20
215.3948638407169085
 30
0.0
 11
4274.498219863671693
 21
215.3948638407169085
 31
0.0
  0
LINE
  5
952C
  8
0
 10
4273.7131461398739702
 20
215.3948638407169085
 30
0.0
 11
4273.7131461398739702
 21
216.3594307698168961
 31
0.0
  0
ARC
  5
952D
  8
0
 10
4273.0438548012725732
 20
214.4432561064855918
 30
0.0
 40
0.964550325002035
 50
80.6033594002976201
 51
99.3966405997023941
  0
ARC
  5
952E
  8
0
 10
4272.8758880075029083
 20
215.3154339527580987
 30
0.0
 40
0.0801191196791396
 50
82.4792006110567968
 51
177.888151184985702
  0
ARC
  5
952F
  8
0
 10
4272.3154517710236178
 20
217.3043692720428055
 30
0.0
 40
0.0196285246717885
 50
89.8379579962413146
 51
180.1402683741434885
  0
ARC
  5
9530
  8
0
 10
4262.3950744684107121
 20
216.3577929455821049
 30
0.0
 40
9.9458907746014713
 50
354.5390237663723951
 51
5.4609762336276049
  0
LINE
  5
9531
  8
0
 10
4273.2836932655409328
 20
217.3239977182149971
 30
0.0
 11
4273.7131461398739702
 21
216.3594307698168961
 31
0.0
  0
ARC
  5
9532
  8
0
 10
4273.839130424717041
 20
217.3121866616710918
 30
0.0
 40
0.0118110565439122
 50
90.0001598118461459
 51
179.9999338037791858
  0
ARC
  5
9533
  8
0
 10
4273.8030541512425771
 20
217.2846276205069103
 30
0.0
 40
0.0196850391100414
 50
89.9999996191785954
 51
165.000024754928404
  0
ARC
  5
9534
  8
0
 10
4273.3335954570056856
 20
217.375630960040894
 30
0.0
 40
0.4585634407290002
 50
340.7977440616880926
 51
349.2022559499561112
  0
ARC
  5
9535
  8
0
 10
4273.6905888448636688
 20
217.2451871405436918
 30
0.0
 40
0.0787401575268603
 50
270.7269321706717733
 51
344.9999999665640189
  0
ARC
  5
9536
  8
0
 10
4273.7018324048021896
 20
216.3590329836129911
 30
0.0
 40
0.8074853259058382
 50
90.7269321706717875
 51
113.2551270535414005
  0
LINE
  5
9537
  8
0
 10
4273.8030541512425771
 20
217.3043126596168975
 30
0.0
 11
4273.8273193681734483
 21
217.3043126596168975
 31
0.0
  0
ARC
  5
9538
  8
0
 10
4273.8390732468224087
 20
215.4066177193651868
 30
0.0
 40
0.0117540175609114
 50
179.7214418440705117
 51
270.2785581559506909
  0
ARC
  5
9539
  8
0
 10
4273.8030541512425771
 20
215.4342339191269957
 30
0.0
 40
0.0196850391100414
 50
194.9999752450715107
 51
270.0000003808214046
  0
ARC
  5
953A
  8
0
 10
4273.3335954570056856
 20
215.343230579593012
 30
0.0
 40
0.4585634407290002
 50
10.7977440500438693
 51
19.2022559383118896
  0
ARC
  5
953B
  8
0
 10
4273.6905888448636688
 20
215.4736743990902141
 30
0.0
 40
0.0787401575268603
 50
15.0000000334360397
 51
73.3528051227757629
  0
LINE
  5
953C
  8
0
 10
4273.8030541512425771
 20
215.4145488800168948
 30
0.0
 11
4273.8273193681734483
 21
215.4145488800168948
 31
0.0
  0
ARC
  5
953D
  8
0
 10
4256.5305767344143533
 20
216.3592518005326042
 30
0.0
 40
17.9935055994498185
 50
356.8335167114605042
 51
3.166483288539514
  0
ARC
  5
953E
  8
0
 10
4272.3548784232725666
 20
211.9302969115169049
 30
0.0
 40
0.0590551180999981
 50
179.9999999999967031
 51
270.0
  0
ARC
  5
953F
  8
0
 10
4272.7367681870737215
 20
211.9302969115169049
 30
0.0
 40
0.0590551180999981
 50
270.0
 51
0.0000000000032569
  0
ENDSEC
  0
EOF
