  0
SECTION
  2
HEADER
  9
$ACADVER
  1
AC1009
  9
$INSBASE
 10
89.4512045286334683
 20
18.2657373269672689
 30
0.0
  9
$EXTMIN
 10
88.3094722451334633
 20
18.2608947147123288
 30
0.0
  9
$EXTMAX
 10
90.5929368121334733
 20
30.7263672481619601
 30
0.0
  9
$LIMMIN
 10
0.0
 20
0.0
  9
$LIMMAX
 10
46.8110236219999933
 20
33.1102362204999991
  9
$ORTHOMODE
 70
     0
  9
$REGENMODE
 70
     1
  9
$FILLMODE
 70
     1
  9
$QTEXTMODE
 70
     0
  9
$MIRRTEXT
 70
     0
  9
$DRAGMODE
 70
     2
  9
$LTSCALE
 40
2.5746062992000001
  9
$OSMODE
 70
  4095
  9
$ATTMODE
 70
     1
  9
$TEXTSIZE
 40
0.001
  9
$TRACEWID
 40
0.05
  9
$TEXTSTYLE
  7
STANDARD
  9
$CLAYER
  8
0
  9
$CELTYPE
  6
BYLAYER
  9
$CECOLOR
 62
   256
  9
$DIMSCALE
 40
1.0
  9
$DIMASZ
 40
0.1875
  9
$DIMEXO
 40
0.0625
  9
$DIMDLI
 40
1.778818897599999
  9
$DIMRND
 40
0.0
  9
$DIMDLE
 40
0.0
  9
$DIMEXE
 40
0.125
  9
$DIMTP
 40
0.0
  9
$DIMTM
 40
0.0
  9
$DIMTXT
 40
0.15625
  9
$DIMCEN
 40
0.4212992126
  9
$DIMTSZ
 40
0.0
  9
$DIMTOL
 70
     0
  9
$DIMLIM
 70
     0
  9
$DIMTIH
 70
     1
  9
$DIMTOH
 70
     1
  9
$DIMSE1
 70
     0
  9
$DIMSE2
 70
     0
  9
$DIMTAD
 70
     0
  9
$DIMZIN
 70
     0
  9
$DIMBLK
  1
CLOSED
  9
$DIMASO
 70
     1
  9
$DIMSHO
 70
     1
  9
$DIMPOST
  1

  9
$DIMAPOST
  1

  9
$DIMALT
 70
     0
  9
$DIMALTD
 70
     2
  9
$DIMALTF
 40
25.3999999999999986
  9
$DIMLFAC
 40
1.0
  9
$DIMTOFL
 70
     0
  9
$DIMTVP
 40
0.0
  9
$DIMTIX
 70
     0
  9
$DIMSOXD
 70
     0
  9
$DIMSAH
 70
     0
  9
$DIMBLK1
  1

  9
$DIMBLK2
  1

  9
$DIMSTYLE
  2
STANDARD
  9
$DIMCLRD
 70
     0
  9
$DIMCLRE
 70
     0
  9
$DIMCLRT
 70
     0
  9
$DIMTFAC
 40
1.0
  9
$DIMGAP
 40
0.09
  9
$LUNITS
 70
     2
  9
$LUPREC
 70
     4
  9
$SKETCHINC
 40
0.1
  9
$FILLETRAD
 40
0.0
  9
$AUNITS
 70
     0
  9
$AUPREC
 70
     0
  9
$MENU
  1
.
  9
$ELEVATION
 40
0.0
  9
$PELEVATION
 40
0.0
  9
$THICKNESS
 40
0.0
  9
$LIMCHECK
 70
     0
  9
$BLIPMODE
 70
     0
  9
$CHAMFERA
 40
0.0
  9
$CHAMFERB
 40
0.0
  9
$SKPOLY
 70
     0
  9
$TDCREATE
 40
2457200.4849421298131347
  9
$TDUPDATE
 40
2459865.608113425783813
  9
$TDINDWG
 40
0.2202482639
  9
$TDUSRTIMER
 40
0.2202482639
  9
$USRTIMER
 70
     1
  9
$ANGBASE
 50
0.0
  9
$ANGDIR
 70
     0
  9
$PDMODE
 70
     0
  9
$PDSIZE
 40
0.3125
  9
$PLINEWID
 40
0.0
  9
$COORDS
 70
     1
  9
$SPLFRAME
 70
     0
  9
$SPLINETYPE
 70
     6
  9
$SPLINESEGS
 70
     8
  9
$ATTDIA
 70
     1
  9
$ATTREQ
 70
     1
  9
$HANDLING
 70
     1
  9
$HANDSEED
  5
2F78
  9
$SURFTAB1
 70
     6
  9
$SURFTAB2
 70
     6
  9
$SURFTYPE
 70
     6
  9
$SURFU
 70
     6
  9
$SURFV
 70
     6
  9
$UCSNAME
  2

  9
$UCSORG
 10
0.0
 20
0.0
 30
0.0
  9
$UCSXDIR
 10
1.0
 20
0.0
 30
0.0
  9
$UCSYDIR
 10
0.0
 20
1.0
 30
0.0
  9
$PUCSNAME
  2

  9
$PUCSORG
 10
0.0
 20
0.0
 30
0.0
  9
$PUCSXDIR
 10
1.0
 20
0.0
 30
0.0
  9
$PUCSYDIR
 10
0.0
 20
1.0
 30
0.0
  9
$USERI1
 70
     0
  9
$USERI2
 70
     0
  9
$USERI3
 70
     0
  9
$USERI4
 70
     0
  9
$USERI5
 70
     0
  9
$USERR1
 40
0.0
  9
$USERR2
 40
0.0
  9
$USERR3
 40
0.0
  9
$USERR4
 40
0.0
  9
$USERR5
 40
0.0
  9
$WORLDVIEW
 70
     1
  9
$SHADEDGE
 70
     3
  9
$SHADEDIF
 70
    70
  9
$TILEMODE
 70
     1
  9
$MAXACTVP
 70
    64
  9
$PLIMCHECK
 70
     0
  9
$PEXTMIN
 10
1.0000000000000000E+20
 20
1.0000000000000000E+20
 30
1.0000000000000000E+20
  9
$PEXTMAX
 10
-1.0000000000000000E+20
 20
-1.0000000000000000E+20
 30
-1.0000000000000000E+20
  9
$PLIMMIN
 10
0.0
 20
0.0
  9
$PLIMMAX
 10
12.0
 20
9.0
  9
$UNITMODE
 70
     0
  9
$VISRETAIN
 70
     1
  9
$PLINEGEN
 70
     0
  9
$PSLTSCALE
 70
     1
  0
ENDSEC
  0
SECTION
  2
TABLES
  0
TABLE
  2
VPORT
 70
     1
  0
VPORT
  2
*ACTIVE
 70
     0
 10
0.0
 20
0.0
 11
1.0
 21
1.0
 12
89.4518166316793213
 22
24.7878805023186288
 13
0.0
 23
0.0
 14
1.0
 24
1.0
 15
0.0
 25
0.0
 16
0.0
 26
0.0
 36
1.0
 17
0.0
 27
0.0
 37
0.0
 40
12.5643538782569806
 41
2.095052083333333
 42
50.0
 43
0.0
 44
0.0
 50
0.0
 51
0.0
 71
     0
 72
   100
 73
     1
 74
     1
 75
     0
 76
     0
 77
     0
 78
     0
  0
ENDTAB
  0
TABLE
  2
LTYPE
 70
     1
  0
LTYPE
  2
CONTINUOUS
 70
     0
  3
Solid line
 72
    65
 73
     0
 40
0.0
  0
ENDTAB
  0
TABLE
  2
LAYER
 70
     2
  0
LAYER
  2
0
 70
     0
 62
     7
  6
CONTINUOUS
  0
LAYER
  2
DEFPOINTS
 70
     0
 62
     7
  6
CONTINUOUS
  0
ENDTAB
  0
TABLE
  2
STYLE
 70
     1
  0
STYLE
  2
STANDARD
 70
     0
 40
0.0
 41
0.8
 50
0.0
 71
     0
 42
0.001
  3
txt
  4

  0
ENDTAB
  0
TABLE
  2
VIEW
 70
     0
  0
ENDTAB
  0
TABLE
  2
UCS
 70
     0
  0
ENDTAB
  0
TABLE
  2
APPID
 70
     6
  0
APPID
  2
ACAD
 70
     0
  0
APPID
  2
ACAD_MLEADERVER
 70
     0
  0
APPID
  2
ACAD_NAV_VCDISPLAY
 70
     0
  0
APPID
  2
ACAD_EXEMPT_FROM_CAD_STANDARDS
 70
     0
  0
APPID
  2
ACAD_DSTYLE_DIMRADIAL_EXTENSION
 70
     0
  0
APPID
  2
ACDBATTR
 70
     0
  0
ENDTAB
  0
TABLE
  2
DIMSTYLE
 70
     1
  0
DIMSTYLE
  2
STANDARD
 70
     0
  3

  4

  5
CLOSED
  6
CLOSED
  7
CLOSED
 40
1.0
 41
0.1875
 42
0.0625
 43
0.38
 44
0.125
 45
0.0
 46
0.0
 47
1.5
 48
1.5
140
0.15625
141
0.09
142
0.0
143
25.3999999999999986
144
1.0
145
0.0
146
1.0
147
0.09
 71
     0
 72
     0
 73
     1
 74
     1
 75
     0
 76
     0
 77
     0
 78
     4
170
     0
171
     2
172
     0
173
     0
174
     0
175
     0
176
     0
177
     0
178
     0
  0
ENDTAB
  0
ENDSEC
  0
SECTION
  2
BLOCKS
  0
BLOCK
  8
0
  2
$MODEL_SPACE
 70
     2
 10
0.0
 20
0.0
 30
0.0
  3
$MODEL_SPACE
  1

  0
ENDBLK
  5
21
  8
0
  0
BLOCK
 67
     1
  8
0
  2
$PAPER_SPACE
 70
     0
 10
0.0
 20
0.0
 30
0.0
  3
$PAPER_SPACE
  1

  0
ENDBLK
  5
1D
 67
     1
  8
0
  0
BLOCK
  8
0
  2
_CLOSED
 70
     0
 10
0.0
 20
0.0
 30
0.0
  3
_CLOSED
  1

  0
LINE
  5
233
  8
0
  6
BYBLOCK
 62
     0
 10
0.0
 20
0.0
 30
0.0
 11
-1.0
 21
0.1666666667
 31
0.0
  0
LINE
  5
234
  8
0
  6
BYBLOCK
 62
     0
 10
-1.0
 20
0.1666666667
 30
0.0
 11
-1.0
 21
-0.1666666667
 31
0.0
  0
LINE
  5
235
  8
0
  6
BYBLOCK
 62
     0
 10
-1.0
 20
-0.1666666667
 30
0.0
 11
0.0
 21
0.0
 31
0.0
  0
LINE
  5
236
  8
0
  6
BYBLOCK
 62
     0
 10
-1.0
 20
0.0
 30
0.0
 11
0.0
 21
0.0
 31
0.0
  0
ENDBLK
  5
237
  8
0
  6
BYBLOCK
 62
     0
  0
ENDSEC
  0
SECTION
  2
ENTITIES
  0
ATTDEF
  5
A78
  8
DEFPOINTS
 10
89.4471629940848345
 20
18.2642280480456698
 30
0.0
 40
0.001
  1
K-10379T-9
  3

  2
MODELNUMBER
 70
     0
1001
ACDBATTR
1070
     0
1070
     1
  0
ATTDEF
  5
A79
  8
DEFPOINTS
 10
89.4471629940848345
 20
18.2625613813790011
 30
0.0
 40
0.001
  1
OBLO
  3

  2
TRADENAME
 70
     0
1001
ACDBATTR
1070
     0
1070
     1
  0
ATTDEF
  5
A7A
  8
DEFPOINTS
 10
89.4471629940848345
 20
18.2608947147123288
 30
0.0
 40
0.001
  1
BATHROOM SINK FAUCET
  3

  2
PRODUCT
 70
     0
1001
ACDBATTR
1070
     0
1070
     1
  0
LINE
  5
2A0D
  8
0
 10
89.9531730324334546
 20
29.3484144923672687
 30
0.0
 11
88.9492360247334659
 21
29.3484144923672687
 31
0.0
  0
LINE
  5
2A0E
  8
0
 10
89.9531730324334546
 20
29.2893593742672707
 30
0.0
 11
88.9492360247334659
 21
29.2893593742672707
 31
0.0
  0
LINE
  5
2A0F
  8
0
 10
88.3094722451334633
 20
18.2657373269672689
 30
0.0
 11
90.5929368121334733
 21
18.2657373269672689
 31
0.0
  0
LINE
  5
2A10
  8
0
 10
88.3685722451334641
 20
18.5019577994672701
 30
0.0
 11
90.5338368121334724
 21
18.5019577994672701
 31
0.0
  0
LINE
  5
2A11
  8
0
 10
90.5929368121334733
 20
18.4428577994672693
 30
0.0
 11
90.5929368121334733
 21
18.2657373269672689
 31
0.0
  0
LINE
  5
2A12
  8
0
 10
88.3094722451334633
 20
18.4428577994672693
 30
0.0
 11
88.3094722451334633
 21
18.2657373269672689
 31
0.0
  0
ARC
  5
2A13
  8
0
 10
88.3685722451334641
 20
18.4428577994672693
 30
0.0
 40
0.0591
 50
89.9999999999983658
 51
180.0000000000007958
  0
ARC
  5
2A14
  8
0
 10
90.5338368121334724
 20
18.4428577994672693
 30
0.0
 40
0.0591
 50
0.0000000000020356
 51
89.9999999999967457
  0
LINE
  5
2A15
  8
0
 10
88.9492360247334659
 20
30.6589195462997601
 30
0.0
 11
88.9492360247334659
 21
29.3484144923672687
 31
0.0
  0
LINE
  5
2A16
  8
0
 10
88.9492360247334659
 20
29.2893593742672707
 30
0.0
 11
88.9492360247334659
 21
18.5019577994672701
 31
0.0
  0
ARC
  5
2A17
  8
0
 10
89.4542164819017387
 20
18.7556092279486393
 30
0.0
 40
11.9707583991309594
 50
90.0144161471896069
 51
92.1451058786160786
  0
ARC
  5
2A18
  8
0
 10
89.0083360247334667
 20
30.6589195462997601
 30
0.0
 40
0.0591
 50
92.1236228148747642
 51
179.9999999999982094
  0
LINE
  5
2A19
  8
0
 10
89.0023856310334622
 20
29.3484144923672687
 30
0.0
 11
89.0023856310334622
 21
29.2893593742672707
 31
0.0
  0
LINE
  5
2A1A
  8
0
 10
89.9531730324334546
 20
30.6589195462997601
 30
0.0
 11
89.9531730324334546
 21
29.3484144923672687
 31
0.0
  0
LINE
  5
2A1B
  8
0
 10
89.9531730324334546
 20
29.2893593742672707
 30
0.0
 11
89.9531730324334546
 21
18.5019577994672701
 31
0.0
  0
ARC
  5
2A1C
  8
0
 10
89.8940730324334538
 20
30.6589195462997601
 30
0.0
 40
0.0591
 50
0.0000000000016284
 51
87.8763771851252358
  0
LINE
  5
2A1D
  8
0
 10
89.9000234261334725
 20
29.3484144923672687
 30
0.0
 11
89.9000234261334725
 21
29.2893593742672707
 31
0.0
  0
ARC
  5
2A1E
  8
0
 10
89.4481925752651819
 20
18.7556092279486393
 30
0.0
 40
11.9707583991309594
 50
87.8548941213839356
 51
89.9855838528103931
  0
ARC
  5
2A20
  8
0
 10
89.4538859996459337
 20
25.8151826998878917
 30
0.0
 40
0.6008796772840196
 50
242.4877521962056051
 51
269.7443124012200997
  0
LINE
  5
2A21
  8
0
 10
89.1061286674334667
 20
25.4521592536672685
 30
0.0
 11
89.1665975683334722
 21
25.4872613513672697
 31
0.0
  0
ARC
  5
2A22
  8
0
 10
89.412683553036004
 20
25.6773202882642089
 30
0.0
 40
0.3321928844105754
 50
220.5173788879162089
 51
240.1626062273882098
  0
ARC
  5
2A23
  8
0
 10
89.2331066803953945
 20
25.4017063427567784
 30
0.0
 40
0.0190201478017548
 50
318.7383742956046717
 51
351.5548214845832717
  0
LINE
  5
2A24
  8
0
 10
89.1061286674334667
 20
25.4345468787672715
 30
0.0
 11
89.1061286674334667
 21
25.4521592536672685
 31
0.0
  0
LINE
  5
2A25
  8
0
 10
89.1125786835334708
 20
25.4338880087672692
 30
0.0
 11
89.1601475522330844
 21
25.4615016589673608
 31
0.0
  0
ARC
  5
2A26
  8
0
 10
89.4064932303740818
 20
25.6895126043485789
 30
0.0
 40
0.3945235991813126
 50
220.5152120694272924
 51
240.1524734151086022
  0
ARC
  5
2A27
  8
0
 10
89.2093824357112908
 20
25.3530238176863989
 30
0.0
 40
0.0057526884898505
 50
277.5808639144933068
 51
325.0242662580708952
  0
LINE
  5
2A28
  8
0
 10
89.214096159297938
 20
25.3497262072147294
 30
0.0
 11
89.2474042397334557
 21
25.3891625865672701
 31
0.0
  0
LINE
  5
2A29
  8
0
 10
89.390872041733715
 20
25.3511972510673509
 30
0.0
 11
89.3908720417340561
 21
25.3688096259671489
 31
0.0
  0
LINE
  5
2A2A
  8
0
 10
89.3780535246334864
 20
25.3085407310672714
 30
0.0
 11
89.3908720417340561
 21
25.3688096259671489
 31
0.0
  0
LINE
  5
2A2B
  8
0
 10
89.3794208331334659
 20
25.2929539445672802
 30
0.0
 11
89.3895047332335366
 21
25.3403654751672285
 31
0.0
  0
ARC
  5
2A2C
  8
0
 10
89.445173293764924
 20
25.7788888076517999
 30
0.0
 40
0.4751130145083355
 50
242.0132369589553889
 51
261.8785902335729929
  0
ARC
  5
2A2D
  8
0
 10
89.4456390646959392
 20
25.7544707937653214
 30
0.0
 40
0.3895304393131849
 50
240.1776247712408008
 51
261.9175750092794033
  0
LINE
  5
2A2E
  8
0
 10
89.3780535246334864
 20
25.3085407310672714
 30
0.0
 11
89.3780629873072172
 21
25.2904636959031883
 31
0.0
  0
ARC
  5
2A2F
  8
0
 10
89.3771732947133586
 20
25.2909072520792293
 30
0.0
 40
0.0017415494201276
 50
309.5956167865336965
 51
320.2034633742514984
  0
ARC
  5
2A30
  8
0
 10
89.3833127101119942
 20
25.2906757761458607
 30
0.0
 40
0.0052540049070142
 50
182.3133981200950018
 51
187.393276020222288
  0
ARC
  5
2A31
  8
0
 10
89.3790121381690312
 20
25.2901236834473089
 30
0.0
 40
0.000918162801087
 50
187.7609226439782049
 51
217.4576223914801858
  0
ARC
  5
2A32
  8
0
 10
89.3642443106687807
 20
25.2956083995438199
 30
0.0
 40
0.0154069129076494
 50
337.8221329834090056
 51
350.0790164664865074
  0
ARC
  5
2A33
  8
0
 10
89.3232509085304969
 20
25.3542309640683392
 30
0.0
 40
0.0676891503139689
 50
348.1798295468828996
 51
357.4312398044070278
  0
ARC
  5
2A34
  8
0
 10
89.4487743823738271
 20
25.7561109733261588
 30
0.0
 40
0.4718409443529276
 50
261.4080824484981918
 51
270.2950946532307057
  0
ARC
  5
2A35
  8
0
 10
89.4512045284839843
 20
25.7634503938581005
 30
0.0
 40
0.4275601865908217
 50
261.7028667954547814
 51
270.0000000133280196
  0
LINE
  5
2A36
  8
0
 10
89.422654981533455
 20
25.7191851044672717
 30
0.0
 11
89.422661221533474
 21
25.7218865632672689
 31
0.0
  0
LINE
  5
2A37
  8
0
 10
89.4275824813334737
 20
25.7275656836256985
 30
0.0
 11
89.4275824813334737
 21
25.7488624668249884
 31
0.0
  0
ARC
  5
2A38
  8
0
 10
89.4245236737406799
 20
25.7284723042649794
 30
0.0
 40
0.0068440275731964
 50
187.612288398750394
 51
254.2090587875651124
  0
ARC
  5
2A39
  8
0
 10
89.4208062923808598
 20
25.728465784859619
 30
0.0
 40
0.0068357091038768
 50
285.7451327697328907
 51
352.4335211962991252
  0
ARC
  5
2A3A
  8
0
 10
89.1081660155965665
 20
25.4344703540067911
 30
0.0
 40
0.0020387848284473
 50
177.848926519725012
 51
218.1703311678184036
  0
ARC
  5
2A3B
  8
0
 10
89.1077747570077463
 20
25.441514489012711
 30
0.0
 40
0.009013374009097
 50
273.0105428963299801
 51
302.2068617878508121
  0
ARC
  5
2A3C
  8
0
 10
89.1081368286259448
 20
25.4346299896733612
 30
0.0
 40
0.0021193601557467
 50
222.0538184520690095
 51
273.0105428963211125
  0
LINE
  5
2A3D
  8
0
 10
89.0363445697076941
 20
25.7131201552112891
 30
0.0
 11
89.0363445696741564
 21
25.6955077802846397
 31
0.0
  0
LINE
  5
2A3E
  8
0
 10
89.1090419924334753
 20
25.7024931228672706
 30
0.0
 11
89.1090419924334753
 21
25.6848807479672701
 31
0.0
  0
LINE
  5
2A3F
  8
0
 10
89.1012876006334693
 20
25.6816112043672717
 30
0.0
 11
89.044098961447574
 21
25.6899711364652106
 31
0.0
  0
ARC
  5
2A40
  8
0
 10
89.0445275486951857
 20
25.698769958698481
 30
0.0
 40
0.0088092542091526
 50
201.7349057473792868
 51
267.2113486940526741
  0
ARC
  5
2A41
  8
0
 10
89.1027762896869859
 20
25.6889108090839287
 30
0.0
 40
0.00744986063704
 50
258.4731122258480127
 51
327.2511275350352093
  0
LINE
  5
2A42
  8
0
 10
89.0363445696334708
 20
25.713120155167271
 30
0.0
 11
89.1090419924334753
 21
25.7024931228672706
 31
0.0
  0
LINE
  5
2A43
  8
0
 10
89.044098961447574
 20
25.5709483750693387
 30
0.0
 11
89.1012876006364394
 21
25.5793083071263503
 31
0.0
  0
ARC
  5
2A44
  8
0
 10
89.3215855244325354
 20
25.6347339335884996
 30
0.0
 40
0.2916433827703031
 50
167.9723262582342045
 51
192.0716670329057081
  0
ARC
  5
2A45
  8
0
 10
89.3434664354346353
 20
25.6348628494839303
 30
0.0
 40
0.2397010839464391
 50
167.9557064991342088
 51
192.0442934964925996
  0
ARC
  5
2A46
  8
0
 10
89.1010369670753164
 20
25.5878578943107797
 30
0.0
 40
0.0085532600922695
 50
271.6791610404973767
 51
339.3745919177156907
  0
ARC
  5
2A47
  8
0
 10
89.3460560989721273
 20
25.6594530523793516
 30
0.0
 40
0.3170739525555868
 50
196.233368790330104
 51
220.8265366607461999
  0
ARC
  5
2A48
  8
0
 10
89.3617908937280276
 20
25.6567624365231985
 30
0.0
 40
0.2585170248699768
 50
192.1261027356916031
 51
220.9702456781425894
  0
ARC
  5
2A49
  8
0
 10
-27052.0558148156196694
 20
25.5967056836351396
 30
0.0
 40
27141.1648568106502353
 50
359.999974961652299
 51
0.0000121418626587
  0
ARC
  5
2A4A
  8
0
 10
89.0421072846361881
 20
25.5848672936649386
 30
0.0
 40
0.0140606924222107
 50
268.0284667006795871
 51
278.1432524565755102
  0
ARC
  5
2A4B
  8
0
 10
89.0416312974531081
 20
25.5769696996338709
 30
0.0
 40
0.006154779936145
 50
211.6392764032001992
 51
269.9279264845516764
  0
LINE
  5
2A4C
  8
0
 10
89.2519205896334711
 20
25.3989129860695613
 30
0.0
 11
89.2519205896334853
 21
25.4165253609348198
 31
0.0
  0
LINE
  5
2A4D
  8
0
 10
89.4177399615419972
 20
25.7275656829392609
 30
0.0
 11
89.4177399615419972
 21
25.7488623134558203
 31
0.0
  0
LINE
  5
2A4E
  8
0
 10
89.4462832688334544
 20
25.8590756126772803
 30
0.0
 11
89.4462832688334544
 21
25.8499530514672706
 31
0.0
  0
ARC
  5
2A4F
  8
0
 10
89.4544370621738381
 20
25.8528849157879002
 30
0.0
 40
0.0086648816629046
 50
199.7770930007665982
 51
248.0954492235653106
  0
LINE
  5
2A50
  8
0
 10
89.4462832688334544
 20
25.7898540065474613
 30
0.0
 11
89.4462832688334544
 21
25.7679803728672709
 31
0.0
  0
ARC
  5
2A51
  8
0
 10
89.4544370621738381
 20
25.7709122371879005
 30
0.0
 40
0.0086648816629046
 50
199.7770930007665982
 51
248.0954492235653106
  0
LINE
  5
2A52
  8
0
 10
89.4462832688334544
 20
25.7078813619305606
 30
0.0
 11
89.4462832688334544
 21
25.68600771599003
 31
0.0
  0
ARC
  5
2A53
  8
0
 10
89.4544370621738381
 20
25.6889395803106595
 30
0.0
 40
0.0086648816629046
 50
199.7770930007665982
 51
248.0954492235653106
  0
LINE
  5
2A54
  8
0
 10
89.4462832688334544
 20
25.6259086833305609
 30
0.0
 11
89.4462832688334544
 21
25.6040350157672805
 31
0.0
  0
ARC
  5
2A55
  8
0
 10
89.4544370621738381
 20
25.6069668800878993
 30
0.0
 40
0.0086648816629046
 50
199.7770930007665982
 51
248.0954492235653106
  0
LINE
  5
2A56
  8
0
 10
89.4462832688334544
 20
25.5439360047305613
 30
0.0
 11
89.4462832688334544
 21
25.5220623371672808
 31
0.0
  0
ARC
  5
2A57
  8
0
 10
89.4544370621738381
 20
25.5249942014878997
 30
0.0
 40
0.0086648816629046
 50
199.7770930007665982
 51
248.0954492235653106
  0
LINE
  5
2A58
  8
0
 10
89.4177399617334743
 20
25.8308349919705016
 30
0.0
 11
89.4177399617334743
 21
25.8089667121672797
 31
0.0
  0
LINE
  5
2A59
  8
0
 10
89.4275824813334737
 20
25.8308351452479883
 30
0.0
 11
89.4275824813334737
 21
25.8089667121672797
 31
0.0
  0
LINE
  5
2A5A
  8
0
 10
89.4269106064334665
 20
25.83051340236727
 30
0.0
 11
89.4511982886334636
 21
25.8421441223672801
 31
0.0
  0
LINE
  5
2A5B
  8
0
 10
89.4184118366334673
 20
25.83051340236727
 30
0.0
 11
89.3941179144334654
 21
25.8421415682672695
 31
0.0
  0
ARC
  5
2A5C
  8
0
 10
89.4194213569786172
 20
25.8379205708350206
 30
0.0
 40
0.0074756455264322
 50
262.2389961427958269
 51
295.682844814077896
  0
ARC
  5
2A5D
  8
0
 10
89.4260313152771573
 20
25.8387464509668483
 30
0.0
 40
0.0082798696958656
 50
245.9820667255347075
 51
276.0960923176098163
  0
ARC
  5
2A5E
  8
0
 10
89.4261841536828541
 20
25.8121783876109383
 30
0.0
 40
0.0090343365463995
 50
200.823879640981886
 51
247.0486625833790981
  0
ARC
  5
2A5F
  8
0
 10
89.4197170099685366
 20
25.8116207632704615
 30
0.0
 40
0.0083011822682672
 50
290.7734697471041159
 51
341.354028542100707
  0
LINE
  5
2A60
  8
0
 10
89.4269106062420036
 20
25.7485407238525887
 30
0.0
 11
89.4511982884420007
 21
25.7601714438525917
 31
0.0
  0
LINE
  5
2A61
  8
0
 10
89.4184118364420044
 20
25.7485407238525887
 30
0.0
 11
89.3941179142420026
 21
25.7601688897525882
 31
0.0
  0
ARC
  5
2A62
  8
0
 10
89.4194213567871685
 20
25.7559478923203393
 30
0.0
 40
0.0074756455264322
 50
262.2389961427958269
 51
295.682844814077896
  0
ARC
  5
2A63
  8
0
 10
89.4260313150856945
 20
25.7567737724521706
 30
0.0
 40
0.0082798696958656
 50
245.9820667255347075
 51
276.0960923176098163
  0
LINE
  5
2A64
  8
0
 10
89.422654981533455
 20
25.5552397472672688
 30
0.0
 11
89.422661221533474
 21
25.5579412060672695
 31
0.0
  0
LINE
  5
2A65
  8
0
 10
89.4275824813334737
 20
25.5636203264256991
 30
0.0
 11
89.4275824813334737
 21
25.5849171096249997
 31
0.0
  0
ARC
  5
2A66
  8
0
 10
89.4245236737406799
 20
25.5645269470649801
 30
0.0
 40
0.0068440275731964
 50
187.6122883987503087
 51
254.2090587875651124
  0
ARC
  5
2A67
  8
0
 10
89.4208062923808598
 20
25.5645204276596196
 30
0.0
 40
0.0068357091038768
 50
285.7451327697328907
 51
352.4335211962991252
  0
LINE
  5
2A68
  8
0
 10
89.4177399615419972
 20
25.5636203257392616
 30
0.0
 11
89.4177399615419972
 21
25.584916956255821
 31
0.0
  0
LINE
  5
2A69
  8
0
 10
89.4269106062420036
 20
25.5845953666525894
 30
0.0
 11
89.4511982884420007
 21
25.5962260866525888
 31
0.0
  0
LINE
  5
2A6A
  8
0
 10
89.4184118364420044
 20
25.5845953666525894
 30
0.0
 11
89.3941179142420026
 21
25.5962235325525889
 31
0.0
  0
ARC
  5
2A6B
  8
0
 10
89.4194213567871685
 20
25.59200253512034
 30
0.0
 40
0.0074756455264322
 50
262.2389961427958269
 51
295.682844814077896
  0
ARC
  5
2A6C
  8
0
 10
89.4260313150856945
 20
25.5928284152521712
 30
0.0
 40
0.0082798696958656
 50
245.9820667255347075
 51
276.0960923176098163
  0
LINE
  5
2A6D
  8
0
 10
89.422654981533455
 20
25.4732670687672709
 30
0.0
 11
89.422661221533474
 21
25.4759685275672716
 31
0.0
  0
LINE
  5
2A6E
  8
0
 10
89.4275824813334737
 20
25.4816476479257012
 30
0.0
 11
89.4275824813334737
 21
25.5029444311250018
 31
0.0
  0
ARC
  5
2A6F
  8
0
 10
89.4245236737406799
 20
25.4825542685649786
 30
0.0
 40
0.0068440275731964
 50
187.6122883987503087
 51
254.2090587875651124
  0
ARC
  5
2A70
  8
0
 10
89.4208062923808598
 20
25.4825477491596217
 30
0.0
 40
0.0068357091038768
 50
285.7451327697328907
 51
352.4335211962991252
  0
LINE
  5
2A71
  8
0
 10
89.4177399615419972
 20
25.4816476472392601
 30
0.0
 11
89.4177399615419972
 21
25.5029442777558302
 31
0.0
  0
LINE
  5
2A72
  8
0
 10
89.4269106062420036
 20
25.5026226881525915
 30
0.0
 11
89.4511982884420007
 21
25.5142534081525909
 31
0.0
  0
LINE
  5
2A73
  8
0
 10
89.4184118364420044
 20
25.5026226881525915
 30
0.0
 11
89.3941179142420026
 21
25.514250854052591
 31
0.0
  0
ARC
  5
2A74
  8
0
 10
89.4194213567871685
 20
25.5100298566203385
 30
0.0
 40
0.0074756455264322
 50
262.2389961427958269
 51
295.682844814077896
  0
ARC
  5
2A75
  8
0
 10
89.4260313150856945
 20
25.5108557367521591
 30
0.0
 40
0.0082798696958656
 50
245.9820667255347075
 51
276.0960923176098163
  0
LINE
  5
2A76
  8
0
 10
89.3655683673334664
 20
25.4732670687672709
 30
0.0
 11
89.3655746073334711
 21
25.4759685275672716
 31
0.0
  0
LINE
  5
2A77
  8
0
 10
89.370495867133485
 20
25.4816476479257012
 30
0.0
 11
89.370495867133485
 21
25.5029444311250018
 31
0.0
  0
ARC
  5
2A78
  8
0
 10
89.3674370595406771
 20
25.4825542685649786
 30
0.0
 40
0.0068440275731964
 50
187.6122883987503087
 51
254.2090587875651124
  0
ARC
  5
2A79
  8
0
 10
89.3637196781808569
 20
25.4825477491596217
 30
0.0
 40
0.0068357091038768
 50
285.7451327697328907
 51
352.4335211962991252
  0
LINE
  5
2A7A
  8
0
 10
89.3606533473419944
 20
25.4816476472392601
 30
0.0
 11
89.3606533473419944
 21
25.5029442777558302
 31
0.0
  0
LINE
  5
2A7B
  8
0
 10
89.3698239920420008
 20
25.5026226881525915
 30
0.0
 11
89.3941116742419979
 21
25.5142534081525909
 31
0.0
  0
LINE
  5
2A7C
  8
0
 10
89.3613252222420016
 20
25.5026226881525915
 30
0.0
 11
89.3370313000419998
 21
25.514250854052591
 31
0.0
  0
ARC
  5
2A7D
  8
0
 10
89.3623347425871657
 20
25.5100298566203385
 30
0.0
 40
0.0074756455264322
 50
262.2389961427958269
 51
295.682844814077896
  0
ARC
  5
2A7E
  8
0
 10
89.3689447008856916
 20
25.5108557367521591
 30
0.0
 40
0.0082798696958656
 50
245.9820667255347075
 51
276.0960923176098163
  0
LINE
  5
2A7F
  8
0
 10
89.3655683673334664
 20
25.5552397472672688
 30
0.0
 11
89.3655746073334711
 21
25.5579412060672695
 31
0.0
  0
LINE
  5
2A80
  8
0
 10
89.370495867133485
 20
25.5636203264256991
 30
0.0
 11
89.370495867133485
 21
25.5849171096249997
 31
0.0
  0
ARC
  5
2A81
  8
0
 10
89.3674370595406771
 20
25.5645269470649801
 30
0.0
 40
0.0068440275731964
 50
187.6122883987503087
 51
254.2090587875651124
  0
ARC
  5
2A82
  8
0
 10
89.3637196781808569
 20
25.5645204276596196
 30
0.0
 40
0.0068357091038768
 50
285.7451327697328907
 51
352.4335211962991252
  0
LINE
  5
2A83
  8
0
 10
89.3606533473419944
 20
25.5636203257392616
 30
0.0
 11
89.3606533473419944
 21
25.584916956255821
 31
0.0
  0
LINE
  5
2A84
  8
0
 10
89.3698239920420008
 20
25.5845953666525894
 30
0.0
 11
89.3941116742419979
 21
25.5962260866525888
 31
0.0
  0
LINE
  5
2A85
  8
0
 10
89.3613252222420016
 20
25.5845953666525894
 30
0.0
 11
89.3370313000419998
 21
25.5962235325525889
 31
0.0
  0
ARC
  5
2A86
  8
0
 10
89.3623347425871657
 20
25.59200253512034
 30
0.0
 40
0.0074756455264322
 50
262.2389961427958269
 51
295.682844814077896
  0
ARC
  5
2A87
  8
0
 10
89.3689447008856916
 20
25.5928284152521712
 30
0.0
 40
0.0082798696958656
 50
245.9820667255347075
 51
276.0960923176098163
  0
LINE
  5
2A88
  8
0
 10
89.3941116744334749
 20
25.5142534079672707
 30
0.0
 11
89.3941179144334654
 21
25.5169548667672714
 31
0.0
  0
LINE
  5
2A89
  8
0
 10
89.3990391742334651
 20
25.5226339871257011
 30
0.0
 11
89.3990391742334651
 21
25.5439307703250016
 31
0.0
  0
ARC
  5
2A8A
  8
0
 10
89.3959803666406714
 20
25.5235406077649785
 30
0.0
 40
0.0068440275731964
 50
187.6122883987503087
 51
254.2090587875651124
  0
ARC
  5
2A8B
  8
0
 10
89.3922629852808512
 20
25.5235340883596216
 30
0.0
 40
0.0068357091038768
 50
285.7451327697328907
 51
352.4335211962991252
  0
LINE
  5
2A8C
  8
0
 10
89.3891966544420029
 20
25.52263398643926
 30
0.0
 11
89.3891966544420029
 21
25.54393061695583
 31
0.0
  0
LINE
  5
2A8D
  8
0
 10
89.3983672991419951
 20
25.5436090273525913
 30
0.0
 11
89.4226549813420064
 21
25.5552397473525907
 31
0.0
  0
LINE
  5
2A8E
  8
0
 10
89.3898685293420101
 20
25.5436090273525913
 30
0.0
 11
89.3655746071420083
 21
25.5552371932525908
 31
0.0
  0
ARC
  5
2A8F
  8
0
 10
89.39087804968716
 20
25.5510161958203383
 30
0.0
 40
0.0074756455264322
 50
262.2389961427958269
 51
295.682844814077896
  0
ARC
  5
2A90
  8
0
 10
89.3974880079857002
 20
25.5518420759521696
 30
0.0
 40
0.0082798696958656
 50
245.9820667255347075
 51
276.0960923176098163
  0
LINE
  5
2A91
  8
0
 10
89.3370250602334721
 20
25.5142534079672707
 30
0.0
 11
89.3370313002334626
 21
25.5169548667672714
 31
0.0
  0
LINE
  5
2A92
  8
0
 10
89.3419525600334765
 20
25.5226339871257011
 30
0.0
 11
89.3419525600334765
 21
25.5439307703250016
 31
0.0
  0
ARC
  5
2A93
  8
0
 10
89.3388937524406685
 20
25.5235406077649785
 30
0.0
 40
0.0068440275731964
 50
187.6122883987503087
 51
254.2090587875651124
  0
ARC
  5
2A94
  8
0
 10
89.3351763710808484
 20
25.5235340883596216
 30
0.0
 40
0.0068357091038768
 50
285.7451327697328907
 51
352.4335211962991252
  0
LINE
  5
2A95
  8
0
 10
89.3321100402419859
 20
25.52263398643926
 30
0.0
 11
89.3321100402419859
 21
25.54393061695583
 31
0.0
  0
LINE
  5
2A96
  8
0
 10
89.3412806849420065
 20
25.5436090273525913
 30
0.0
 11
89.3655683671420036
 21
25.5552397473525907
 31
0.0
  0
LINE
  5
2A97
  8
0
 10
89.3327819151420073
 20
25.5436090273525913
 30
0.0
 11
89.3084879929420055
 21
25.5552371932525908
 31
0.0
  0
ARC
  5
2A98
  8
0
 10
89.3337914354871572
 20
25.5510161958203383
 30
0.0
 40
0.0074756455264322
 50
262.2389961427958269
 51
295.682844814077896
  0
ARC
  5
2A99
  8
0
 10
89.3404013937856973
 20
25.5518420759521696
 30
0.0
 40
0.0082798696958656
 50
245.9820667255347075
 51
276.0960923176098163
  0
LINE
  5
2A9A
  8
0
 10
89.3084817532334654
 20
25.5552397472672688
 30
0.0
 11
89.3084879932334843
 21
25.5579412060672695
 31
0.0
  0
LINE
  5
2A9B
  8
0
 10
89.3134092530334698
 20
25.5636203264256991
 30
0.0
 11
89.3134092530334698
 21
25.5849171096249997
 31
0.0
  0
ARC
  5
2A9C
  8
0
 10
89.310350445440676
 20
25.5645269470649801
 30
0.0
 40
0.0068440275731964
 50
187.6122883987503087
 51
254.2090587875651124
  0
ARC
  5
2A9D
  8
0
 10
89.3066330640808559
 20
25.5645204276596196
 30
0.0
 40
0.0068357091038768
 50
285.7451327697328907
 51
352.4335211962991252
  0
LINE
  5
2A9E
  8
0
 10
89.3035667332420076
 20
25.5636203257392616
 30
0.0
 11
89.3035667332420076
 21
25.584916956255821
 31
0.0
  0
LINE
  5
2A9F
  8
0
 10
89.3127373779419855
 20
25.5845953666525894
 30
0.0
 11
89.3370250601419968
 21
25.5962260866525888
 31
0.0
  0
LINE
  5
2AA0
  8
0
 10
89.3042386081419863
 20
25.5845953666525894
 30
0.0
 11
89.2799446859419845
 21
25.5962235325525889
 31
0.0
  0
ARC
  5
2AA1
  8
0
 10
89.3052481284871646
 20
25.59200253512034
 30
0.0
 40
0.0074756455264322
 50
262.2389961427958269
 51
295.682844814077896
  0
ARC
  5
2AA2
  8
0
 10
89.3118580867856764
 20
25.5928284152521712
 30
0.0
 40
0.0082798696958656
 50
245.9820667255347075
 51
276.0960923176098163
  0
LINE
  5
2AA3
  8
0
 10
89.279944172033467
 20
25.5142556148672703
 30
0.0
 11
89.2799504120334717
 21
25.5169570736672711
 31
0.0
  0
LINE
  5
2AA4
  8
0
 10
89.2848716718334572
 20
25.5226361940257007
 30
0.0
 11
89.2848716718334572
 21
25.5439329772250012
 31
0.0
  0
ARC
  5
2AA5
  8
0
 10
89.2818128642406776
 20
25.5235428146649816
 30
0.0
 40
0.0068440275731964
 50
187.6122883987503087
 51
254.2090587875651124
  0
ARC
  5
2AA6
  8
0
 10
89.2780954828808575
 20
25.5235362952596212
 30
0.0
 40
0.0068357091038768
 50
285.7451327697328907
 51
352.4335211962991252
  0
LINE
  5
2AA7
  8
0
 10
89.275029152041995
 20
25.5226361933392596
 30
0.0
 11
89.275029152041995
 21
25.5439328238558296
 31
0.0
  0
LINE
  5
2AA8
  8
0
 10
89.2841997967420156
 20
25.5436112342525909
 30
0.0
 11
89.3084874789419985
 21
25.5552419542525904
 31
0.0
  0
LINE
  5
2AA9
  8
0
 10
89.2757010269420022
 20
25.5436112342525909
 30
0.0
 11
89.2514071047420146
 21
25.5552394001525904
 31
0.0
  0
ARC
  5
2AAA
  8
0
 10
89.2767105472871663
 20
25.5510184027203415
 30
0.0
 40
0.0074756455264322
 50
262.2389961427958269
 51
295.682844814077896
  0
ARC
  5
2AAB
  8
0
 10
89.2833205055856922
 20
25.5518442828521692
 30
0.0
 40
0.0082798696958656
 50
245.9820667255347075
 51
276.0960923176098163
  0
LINE
  5
2AAC
  8
0
 10
89.2514008647419956
 20
25.5552419541525886
 30
0.0
 11
89.2514071047420146
 21
25.5579434129525893
 31
0.0
  0
LINE
  5
2AAD
  8
0
 10
89.256328364542
 20
25.563622533311019
 30
0.0
 11
89.256328364542
 21
25.5849193165103088
 31
0.0
  0
ARC
  5
2AAE
  8
0
 10
89.2532695569492063
 20
25.5645291539502999
 30
0.0
 40
0.0068440275731964
 50
187.6122883987503087
 51
254.2090587875651124
  0
ARC
  5
2AAF
  8
0
 10
89.2495521755893861
 20
25.5645226345449395
 30
0.0
 40
0.0068357091038768
 50
285.7451327697328907
 51
352.4335211962991252
  0
LINE
  5
2AB0
  8
0
 10
89.2464858447505378
 20
25.5636225326245814
 30
0.0
 11
89.2464858447505378
 21
25.5849191631411408
 31
0.0
  0
LINE
  5
2AB1
  8
0
 10
89.2556564894505158
 20
25.5845975735379092
 30
0.0
 11
89.2799446855590588
 21
25.596223532623231
 31
0.0
  0
LINE
  5
2AB2
  8
0
 10
89.2471577196505166
 20
25.5845975735379092
 30
0.0
 11
89.2228518319334682
 21
25.5962260865672704
 31
0.0
  0
ARC
  5
2AB3
  8
0
 10
89.2481672399956949
 20
25.5920047420056598
 30
0.0
 40
0.0074756455264322
 50
262.2389961427958269
 51
295.682844814077896
  0
ARC
  5
2AB4
  8
0
 10
89.2547771982942066
 20
25.592830622137491
 30
0.0
 40
0.0082798696958656
 50
245.9820667255347075
 51
276.0960923176098163
  0
LINE
  5
2AB5
  8
0
 10
89.2799446859419845
 20
25.5962235325525889
 30
0.0
 11
89.2799504120334717
 21
25.5989297522672707
 31
0.0
  0
LINE
  5
2AB6
  8
0
 10
89.2848716718334572
 20
25.6046088726257004
 30
0.0
 11
89.2848716718334572
 21
25.6259056558250009
 31
0.0
  0
ARC
  5
2AB7
  8
0
 10
89.2818128642406776
 20
25.6055154932649813
 30
0.0
 40
0.0068440275731964
 50
187.6122883987503087
 51
254.2090587875651124
  0
ARC
  5
2AB8
  8
0
 10
89.2780954828808575
 20
25.6055089738596209
 30
0.0
 40
0.0068357091038768
 50
285.7451327697328907
 51
352.4335211962991252
  0
LINE
  5
2AB9
  8
0
 10
89.275029152041995
 20
25.6046088719392593
 30
0.0
 11
89.275029152041995
 21
25.6259055024558293
 31
0.0
  0
LINE
  5
2ABA
  8
0
 10
89.2841997967420156
 20
25.6255839128525906
 30
0.0
 11
89.3084874789419985
 21
25.6372146328525901
 31
0.0
  0
LINE
  5
2ABB
  8
0
 10
89.2757010269420022
 20
25.6255839128525906
 30
0.0
 11
89.2514071047420146
 21
25.6372120787525901
 31
0.0
  0
ARC
  5
2ABC
  8
0
 10
89.2767105472871663
 20
25.6329910813203412
 30
0.0
 40
0.0074756455264322
 50
262.2389961427958269
 51
295.682844814077896
  0
ARC
  5
2ABD
  8
0
 10
89.2833205055856922
 20
25.6338169614521583
 30
0.0
 40
0.0082798696958656
 50
245.9820667255347075
 51
276.0960923176098163
  0
LINE
  5
2ABE
  8
0
 10
89.2228518319334682
 20
25.5962260865672704
 30
0.0
 11
89.222858071933473
 21
25.5989275453672711
 31
0.0
  0
LINE
  5
2ABF
  8
0
 10
89.2277793317334869
 20
25.6046066657257008
 30
0.0
 11
89.2277793317334869
 21
25.6259034489250013
 31
0.0
  0
ARC
  5
2AC0
  8
0
 10
89.2247205241406789
 20
25.6055132863649817
 30
0.0
 40
0.0068440275731964
 50
187.6122883987503087
 51
254.2090587875651124
  0
ARC
  5
2AC1
  8
0
 10
89.2210031427808588
 20
25.6055067669596212
 30
0.0
 40
0.0068357091038768
 50
285.7451327697328907
 51
352.4335211962991252
  0
LINE
  5
2AC2
  8
0
 10
89.2179368119419962
 20
25.6046066650392596
 30
0.0
 11
89.2179368119419962
 21
25.625903295555819
 31
0.0
  0
LINE
  5
2AC3
  8
0
 10
89.2271074566420026
 20
25.625581705952591
 30
0.0
 11
89.2513951388419997
 21
25.6372124259525904
 31
0.0
  0
LINE
  5
2AC4
  8
0
 10
89.2186086868420034
 20
25.625581705952591
 30
0.0
 11
89.1914553973136321
 21
25.6385784939050403
 31
0.0
  0
ARC
  5
2AC5
  8
0
 10
89.2196182071871675
 20
25.6329888744203416
 30
0.0
 40
0.0074756455264322
 50
262.2389961427958269
 51
295.682844814077896
  0
ARC
  5
2AC6
  8
0
 10
89.2262281654856935
 20
25.6338147545521586
 30
0.0
 40
0.0082798696958656
 50
245.9820667255347075
 51
276.0960923176098163
  0
LINE
  5
2AC7
  8
0
 10
89.2228518319334682
 20
25.6781987651672701
 30
0.0
 11
89.222858071933473
 21
25.6809002239672708
 31
0.0
  0
LINE
  5
2AC8
  8
0
 10
89.2277793317334869
 20
25.6865793443257004
 30
0.0
 11
89.2277793317334869
 21
25.707876127525001
 31
0.0
  0
ARC
  5
2AC9
  8
0
 10
89.2247205241406789
 20
25.6874859649649814
 30
0.0
 40
0.0068440275731964
 50
187.6122883987503087
 51
254.2090587875651124
  0
ARC
  5
2ACA
  8
0
 10
89.2210031427808588
 20
25.6874794455596209
 30
0.0
 40
0.0068357091038768
 50
285.7451327697328907
 51
352.4335211962991252
  0
LINE
  5
2ACB
  8
0
 10
89.2179368119419962
 20
25.6865793436392593
 30
0.0
 11
89.2179368119419962
 21
25.7078759741558187
 31
0.0
  0
LINE
  5
2ACC
  8
0
 10
89.2271074566420026
 20
25.7075543845525907
 30
0.0
 11
89.2513951388419997
 21
25.7191851045525901
 31
0.0
  0
LINE
  5
2ACD
  8
0
 10
89.2186086868420034
 20
25.7075543845525907
 30
0.0
 11
89.2054050641393701
 21
25.7138742333610004
 31
0.0
  0
ARC
  5
2ACE
  8
0
 10
89.2196182071871675
 20
25.7149615530203413
 30
0.0
 40
0.0074756455264322
 50
262.2389961427958269
 51
295.682844814077896
  0
ARC
  5
2ACF
  8
0
 10
89.2262281654856935
 20
25.715787433152169
 30
0.0
 40
0.0082798696958656
 50
245.9820667255347075
 51
276.0960923176098163
  0
LINE
  5
2AD0
  8
0
 10
89.2799384461334711
 20
25.6781987651672701
 30
0.0
 11
89.2799446861334758
 21
25.6809002239672708
 31
0.0
  0
LINE
  5
2AD1
  8
0
 10
89.2848659459334755
 20
25.6865793443257004
 30
0.0
 11
89.2848659459334755
 21
25.707876127525001
 31
0.0
  0
ARC
  5
2AD2
  8
0
 10
89.2818071383406817
 20
25.6874859649649814
 30
0.0
 40
0.0068440275731964
 50
187.6122883987503087
 51
254.2090587875651124
  0
ARC
  5
2AD3
  8
0
 10
89.2780897569808616
 20
25.6874794455596209
 30
0.0
 40
0.0068357091038768
 50
285.7451327697328907
 51
352.4335211962991252
  0
LINE
  5
2AD4
  8
0
 10
89.275023426141999
 20
25.6865793436392593
 30
0.0
 11
89.275023426141999
 21
25.7078759741558187
 31
0.0
  0
LINE
  5
2AD5
  8
0
 10
89.2841940708420054
 20
25.7075543845525907
 30
0.0
 11
89.3084817530420025
 21
25.7191851045525901
 31
0.0
  0
LINE
  5
2AD6
  8
0
 10
89.2756953010420062
 20
25.7075543845525907
 30
0.0
 11
89.2514013788420044
 21
25.7191825504525902
 31
0.0
  0
ARC
  5
2AD7
  8
0
 10
89.2767048213871703
 20
25.7149615530203413
 30
0.0
 40
0.0074756455264322
 50
262.2389961427958269
 51
295.682844814077896
  0
ARC
  5
2AD8
  8
0
 10
89.2833147796856963
 20
25.715787433152169
 30
0.0
 40
0.0082798696958656
 50
245.9820667255347075
 51
276.0960923176098163
  0
LINE
  5
2AD9
  8
0
 10
89.3370250602334721
 20
25.6781987651672701
 30
0.0
 11
89.3370313002334626
 21
25.6809002239672708
 31
0.0
  0
LINE
  5
2ADA
  8
0
 10
89.3419525600334765
 20
25.6865793443257004
 30
0.0
 11
89.3419525600334765
 21
25.707876127525001
 31
0.0
  0
ARC
  5
2ADB
  8
0
 10
89.3388937524406685
 20
25.6874859649649814
 30
0.0
 40
0.0068440275731964
 50
187.6122883987503087
 51
254.2090587875651124
  0
ARC
  5
2ADC
  8
0
 10
89.3351763710808484
 20
25.6874794455596209
 30
0.0
 40
0.0068357091038768
 50
285.7451327697328907
 51
352.4335211962991252
  0
LINE
  5
2ADD
  8
0
 10
89.3321100402419859
 20
25.6865793436392593
 30
0.0
 11
89.3321100402419859
 21
25.7078759741558187
 31
0.0
  0
LINE
  5
2ADE
  8
0
 10
89.3412806849420065
 20
25.7075543845525907
 30
0.0
 11
89.3655683671420036
 21
25.7191851045525901
 31
0.0
  0
LINE
  5
2ADF
  8
0
 10
89.3327819151420073
 20
25.7075543845525907
 30
0.0
 11
89.3084879929420055
 21
25.7191825504525902
 31
0.0
  0
ARC
  5
2AE0
  8
0
 10
89.3337914354871572
 20
25.7149615530203413
 30
0.0
 40
0.0074756455264322
 50
262.2389961427958269
 51
295.682844814077896
  0
ARC
  5
2AE1
  8
0
 10
89.3404013937856973
 20
25.715787433152169
 30
0.0
 40
0.0082798696958656
 50
245.9820667255347075
 51
276.0960923176098163
  0
LINE
  5
2AE2
  8
0
 10
89.3655683673334664
 20
25.6372124258672685
 30
0.0
 11
89.3655746073334711
 21
25.6399138846672692
 31
0.0
  0
LINE
  5
2AE3
  8
0
 10
89.370495867133485
 20
25.6455930050256988
 30
0.0
 11
89.370495867133485
 21
25.6668897882249993
 31
0.0
  0
ARC
  5
2AE4
  8
0
 10
89.3674370595406771
 20
25.6464996256649798
 30
0.0
 40
0.0068440275731964
 50
187.6122883987503087
 51
254.2090587875651124
  0
ARC
  5
2AE5
  8
0
 10
89.3637196781808569
 20
25.6464931062596193
 30
0.0
 40
0.0068357091038768
 50
285.7451327697328907
 51
352.4335211962991252
  0
LINE
  5
2AE6
  8
0
 10
89.3606533473419944
 20
25.6455930043392613
 30
0.0
 11
89.3606533473419944
 21
25.6668896348558206
 31
0.0
  0
LINE
  5
2AE7
  8
0
 10
89.3698239920420008
 20
25.6665680452525891
 30
0.0
 11
89.3941116742419979
 21
25.6781987652525885
 31
0.0
  0
LINE
  5
2AE8
  8
0
 10
89.3613252222420016
 20
25.6665680452525891
 30
0.0
 11
89.3370313000419998
 21
25.6781962111525885
 31
0.0
  0
ARC
  5
2AE9
  8
0
 10
89.3623347425871657
 20
25.6739752137203396
 30
0.0
 40
0.0074756455264322
 50
262.2389961427958269
 51
295.682844814077896
  0
ARC
  5
2AEA
  8
0
 10
89.3689447008856916
 20
25.6748010938521709
 30
0.0
 40
0.0082798696958656
 50
245.9820667255347075
 51
276.0960923176098163
  0
LINE
  5
2AEB
  8
0
 10
89.3084817532334654
 20
25.6372124258672685
 30
0.0
 11
89.3084879932334843
 21
25.6399138846672692
 31
0.0
  0
LINE
  5
2AEC
  8
0
 10
89.3134092530334698
 20
25.6455930050256988
 30
0.0
 11
89.3134092530334698
 21
25.6668897882249993
 31
0.0
  0
ARC
  5
2AED
  8
0
 10
89.310350445440676
 20
25.6464996256649798
 30
0.0
 40
0.0068440275731964
 50
187.6122883987503087
 51
254.2090587875651124
  0
ARC
  5
2AEE
  8
0
 10
89.3066330640808559
 20
25.6464931062596193
 30
0.0
 40
0.0068357091038768
 50
285.7451327697328907
 51
352.4335211962991252
  0
LINE
  5
2AEF
  8
0
 10
89.3035667332420076
 20
25.6455930043392613
 30
0.0
 11
89.3035667332420076
 21
25.6668896348558206
 31
0.0
  0
LINE
  5
2AF0
  8
0
 10
89.3127373779419855
 20
25.6665680452525891
 30
0.0
 11
89.3370250601419968
 21
25.6781987652525885
 31
0.0
  0
LINE
  5
2AF1
  8
0
 10
89.3042386081419863
 20
25.6665680452525891
 30
0.0
 11
89.2799446859419845
 21
25.6781962111525885
 31
0.0
  0
ARC
  5
2AF2
  8
0
 10
89.3052481284871646
 20
25.6739752137203396
 30
0.0
 40
0.0074756455264322
 50
262.2389961427958269
 51
295.682844814077896
  0
ARC
  5
2AF3
  8
0
 10
89.3118580867856764
 20
25.6748010938521709
 30
0.0
 40
0.0082798696958656
 50
245.9820667255347075
 51
276.0960923176098163
  0
LINE
  5
2AF4
  8
0
 10
89.3370250602334721
 20
25.5962260865672704
 30
0.0
 11
89.3370313002334626
 21
25.5989275453672711
 31
0.0
  0
LINE
  5
2AF5
  8
0
 10
89.3419525600334765
 20
25.6046066657257008
 30
0.0
 11
89.3419525600334765
 21
25.6259034489250013
 31
0.0
  0
ARC
  5
2AF6
  8
0
 10
89.3388937524406685
 20
25.6055132863649817
 30
0.0
 40
0.0068440275731964
 50
187.6122883987503087
 51
254.2090587875651124
  0
ARC
  5
2AF7
  8
0
 10
89.3351763710808484
 20
25.6055067669596212
 30
0.0
 40
0.0068357091038768
 50
285.7451327697328907
 51
352.4335211962991252
  0
LINE
  5
2AF8
  8
0
 10
89.3321100402419859
 20
25.6046066650392596
 30
0.0
 11
89.3321100402419859
 21
25.625903295555819
 31
0.0
  0
LINE
  5
2AF9
  8
0
 10
89.3412806849420065
 20
25.625581705952591
 30
0.0
 11
89.3655683671420036
 21
25.6372124259525904
 31
0.0
  0
LINE
  5
2AFA
  8
0
 10
89.3327819151420073
 20
25.625581705952591
 30
0.0
 11
89.3084879929420055
 21
25.6372098718525905
 31
0.0
  0
ARC
  5
2AFB
  8
0
 10
89.3337914354871572
 20
25.6329888744203416
 30
0.0
 40
0.0074756455264322
 50
262.2389961427958269
 51
295.682844814077896
  0
ARC
  5
2AFC
  8
0
 10
89.3404013937856973
 20
25.6338147545521586
 30
0.0
 40
0.0082798696958656
 50
245.9820667255347075
 51
276.0960923176098163
  0
LINE
  5
2AFD
  8
0
 10
89.3941116744334749
 20
25.5962260865672704
 30
0.0
 11
89.3941179144334654
 21
25.5989275453672711
 31
0.0
  0
LINE
  5
2AFE
  8
0
 10
89.3990391742334651
 20
25.6046066657257008
 30
0.0
 11
89.3990391742334651
 21
25.6259034489250013
 31
0.0
  0
ARC
  5
2AFF
  8
0
 10
89.3959803666406714
 20
25.6055132863649817
 30
0.0
 40
0.0068440275731964
 50
187.6122883987503087
 51
254.2090587875651124
  0
ARC
  5
2B00
  8
0
 10
89.3922629852808512
 20
25.6055067669596212
 30
0.0
 40
0.0068357091038768
 50
285.7451327697328907
 51
352.4335211962991252
  0
LINE
  5
2B01
  8
0
 10
89.3891966544420029
 20
25.6046066650392596
 30
0.0
 11
89.3891966544420029
 21
25.625903295555819
 31
0.0
  0
LINE
  5
2B02
  8
0
 10
89.3983672991419951
 20
25.625581705952591
 30
0.0
 11
89.4226549813420064
 21
25.6372124259525904
 31
0.0
  0
LINE
  5
2B03
  8
0
 10
89.3898685293420101
 20
25.625581705952591
 30
0.0
 11
89.3655746071420083
 21
25.6372098718525905
 31
0.0
  0
ARC
  5
2B04
  8
0
 10
89.39087804968716
 20
25.6329888744203416
 30
0.0
 40
0.0074756455264322
 50
262.2389961427958269
 51
295.682844814077896
  0
ARC
  5
2B05
  8
0
 10
89.3974880079857002
 20
25.6338147545521586
 30
0.0
 40
0.0082798696958656
 50
245.9820667255347075
 51
276.0960923176098163
  0
LINE
  5
2B06
  8
0
 10
89.3941116744334749
 20
25.6781987651672701
 30
0.0
 11
89.3941179144334654
 21
25.6809002239672708
 31
0.0
  0
LINE
  5
2B07
  8
0
 10
89.3990391742334651
 20
25.6865793443257004
 30
0.0
 11
89.3990391742334651
 21
25.707876127525001
 31
0.0
  0
ARC
  5
2B08
  8
0
 10
89.3959803666406714
 20
25.6874859649649814
 30
0.0
 40
0.0068440275731964
 50
187.6122883987503087
 51
254.2090587875651124
  0
ARC
  5
2B09
  8
0
 10
89.3922629852808512
 20
25.6874794455596209
 30
0.0
 40
0.0068357091038768
 50
285.7451327697328907
 51
352.4335211962991252
  0
LINE
  5
2B0A
  8
0
 10
89.3891966544420029
 20
25.6865793436392593
 30
0.0
 11
89.3891966544420029
 21
25.7078759741558187
 31
0.0
  0
LINE
  5
2B0B
  8
0
 10
89.3983672991419951
 20
25.7075543845525907
 30
0.0
 11
89.4226549813420064
 21
25.7191851045525901
 31
0.0
  0
LINE
  5
2B0C
  8
0
 10
89.3898685293420101
 20
25.7075543845525907
 30
0.0
 11
89.3655746071420083
 21
25.7191825504525902
 31
0.0
  0
ARC
  5
2B0D
  8
0
 10
89.39087804968716
 20
25.7149615530203413
 30
0.0
 40
0.0074756455264322
 50
262.2389961427958269
 51
295.682844814077896
  0
ARC
  5
2B0E
  8
0
 10
89.3974880079857002
 20
25.715787433152169
 30
0.0
 40
0.0082798696958656
 50
245.9820667255347075
 51
276.0960923176098163
  0
LINE
  5
2B0F
  8
0
 10
89.3655683673334664
 20
25.7191851044672717
 30
0.0
 11
89.3655746073334711
 21
25.7218865632672689
 31
0.0
  0
LINE
  5
2B10
  8
0
 10
89.370495867133485
 20
25.7275656836256985
 30
0.0
 11
89.370495867133485
 21
25.7488624668249884
 31
0.0
  0
ARC
  5
2B11
  8
0
 10
89.3674370595406771
 20
25.7284723042649794
 30
0.0
 40
0.0068440275731964
 50
187.6122883987503087
 51
254.2090587875651124
  0
ARC
  5
2B12
  8
0
 10
89.3637196781808569
 20
25.728465784859619
 30
0.0
 40
0.0068357091038768
 50
285.7451327697328907
 51
352.4335211962991252
  0
LINE
  5
2B13
  8
0
 10
89.3606533473419944
 20
25.7275656829392609
 30
0.0
 11
89.3606533473419944
 21
25.7488623134558203
 31
0.0
  0
LINE
  5
2B14
  8
0
 10
89.3698239920420008
 20
25.7485407238525887
 30
0.0
 11
89.3941116742419979
 21
25.7601714438525917
 31
0.0
  0
LINE
  5
2B15
  8
0
 10
89.3613252222420016
 20
25.7485407238525887
 30
0.0
 11
89.3370313000419998
 21
25.7601688897525882
 31
0.0
  0
ARC
  5
2B16
  8
0
 10
89.3623347425871657
 20
25.7559478923203393
 30
0.0
 40
0.0074756455264322
 50
262.2389961427958269
 51
295.682844814077896
  0
ARC
  5
2B17
  8
0
 10
89.3689447008856916
 20
25.7567737724521706
 30
0.0
 40
0.0082798696958656
 50
245.9820667255347075
 51
276.0960923176098163
  0
LINE
  5
2B18
  8
0
 10
89.3084817532334654
 20
25.7191851044672717
 30
0.0
 11
89.3084879932334843
 21
25.7218865632672689
 31
0.0
  0
LINE
  5
2B19
  8
0
 10
89.3134092530334698
 20
25.7275656836256985
 30
0.0
 11
89.3134092530334698
 21
25.7488624668249884
 31
0.0
  0
ARC
  5
2B1A
  8
0
 10
89.310350445440676
 20
25.7284723042649794
 30
0.0
 40
0.0068440275731964
 50
187.6122883987503087
 51
254.2090587875651124
  0
ARC
  5
2B1B
  8
0
 10
89.3066330640808559
 20
25.728465784859619
 30
0.0
 40
0.0068357091038768
 50
285.7451327697328907
 51
352.4335211962991252
  0
LINE
  5
2B1C
  8
0
 10
89.3035667332420076
 20
25.7275656829392609
 30
0.0
 11
89.3035667332420076
 21
25.7488623134558203
 31
0.0
  0
LINE
  5
2B1D
  8
0
 10
89.3127373779419855
 20
25.7485407238525887
 30
0.0
 11
89.3370250601419968
 21
25.7601714438525917
 31
0.0
  0
LINE
  5
2B1E
  8
0
 10
89.3042386081419863
 20
25.7485407238525887
 30
0.0
 11
89.2799446859419845
 21
25.7601688897525882
 31
0.0
  0
ARC
  5
2B1F
  8
0
 10
89.3052481284871646
 20
25.7559478923203393
 30
0.0
 40
0.0074756455264322
 50
262.2389961427958269
 51
295.682844814077896
  0
ARC
  5
2B20
  8
0
 10
89.3118580867856764
 20
25.7567737724521706
 30
0.0
 40
0.0082798696958656
 50
245.9820667255347075
 51
276.0960923176098163
  0
LINE
  5
2B21
  8
0
 10
89.2513951390334768
 20
25.7191851044672717
 30
0.0
 11
89.2514013790334531
 21
25.7218865632672689
 31
0.0
  0
LINE
  5
2B22
  8
0
 10
89.256322638833467
 20
25.7275656836256985
 30
0.0
 11
89.256322638833467
 21
25.7488624668249884
 31
0.0
  0
ARC
  5
2B23
  8
0
 10
89.2532638312406732
 20
25.7284723042649794
 30
0.0
 40
0.0068440275731964
 50
187.6122883987503087
 51
254.2090587875651124
  0
ARC
  5
2B24
  8
0
 10
89.2495464498808531
 20
25.728465784859619
 30
0.0
 40
0.0068357091038768
 50
285.7451327697328907
 51
352.4335211962991252
  0
LINE
  5
2B25
  8
0
 10
89.2464801190420047
 20
25.7275656829392609
 30
0.0
 11
89.2464801190420047
 21
25.7488623134558203
 31
0.0
  0
LINE
  5
2B26
  8
0
 10
89.2556507637419969
 20
25.7485407238525887
 30
0.0
 11
89.2799384459420082
 21
25.7601714438525917
 31
0.0
  0
LINE
  5
2B27
  8
0
 10
89.2471519939419835
 20
25.7485407238525887
 30
0.0
 11
89.230135673642323
 21
25.7566855015390992
 31
0.0
  0
ARC
  5
2B28
  8
0
 10
89.2481615142871618
 20
25.7559478923203393
 30
0.0
 40
0.0074756455264322
 50
262.2389961427958269
 51
295.682844814077896
  0
ARC
  5
2B29
  8
0
 10
89.254771472585702
 20
25.7567737724521706
 30
0.0
 40
0.0082798696958656
 50
245.9820667255347075
 51
276.0960923176098163
  0
LINE
  5
2B2A
  8
0
 10
89.2799384460223848
 20
25.7601714437141105
 30
0.0
 11
89.2799446860224037
 21
25.7628729025141112
 31
0.0
  0
LINE
  5
2B2B
  8
0
 10
89.2848659458224034
 20
25.7685520228725409
 30
0.0
 11
89.2848659458224034
 21
25.7898488060718307
 31
0.0
  0
ARC
  5
2B2C
  8
0
 10
89.2818071382295955
 20
25.7694586435118183
 30
0.0
 40
0.0068440275731964
 50
187.6122883987503087
 51
254.2090587875651124
  0
ARC
  5
2B2D
  8
0
 10
89.2780897568697753
 20
25.7694521241064614
 30
0.0
 40
0.0068357091038768
 50
285.7451327697328907
 51
352.4335211962991252
  0
LINE
  5
2B2E
  8
0
 10
89.275023426030927
 20
25.7685520221860997
 30
0.0
 11
89.275023426030927
 21
25.7898486527026591
 31
0.0
  0
LINE
  5
2B2F
  8
0
 10
89.2841940707309334
 20
25.7895270630994311
 30
0.0
 11
89.3084817529309305
 21
25.8011577830994305
 31
0.0
  0
LINE
  5
2B30
  8
0
 10
89.2756953009309342
 20
25.7895270630994311
 30
0.0
 11
89.2654701363152867
 21
25.7944212876518399
 31
0.0
  0
ARC
  5
2B31
  8
0
 10
89.2767048212760841
 20
25.796934231567171
 30
0.0
 40
0.0074756455264322
 50
262.2389961427958269
 51
295.682844814077896
  0
ARC
  5
2B32
  8
0
 10
89.2833147795746243
 20
25.7977601116989987
 30
0.0
 40
0.0082798696958656
 50
245.9820667255347075
 51
276.0960923176098163
  0
LINE
  5
2B33
  8
0
 10
89.3370250601224001
 20
25.7601714437141105
 30
0.0
 11
89.3370313001224048
 21
25.7628729025141112
 31
0.0
  0
LINE
  5
2B34
  8
0
 10
89.3419525599224045
 20
25.7685520228725409
 30
0.0
 11
89.3419525599224045
 21
25.7898488060718307
 31
0.0
  0
ARC
  5
2B35
  8
0
 10
89.3388937523296107
 20
25.7694586435118183
 30
0.0
 40
0.0068440275731964
 50
187.6122883987503087
 51
254.2090587875651124
  0
ARC
  5
2B36
  8
0
 10
89.3351763709697906
 20
25.7694521241064614
 30
0.0
 40
0.0068357091038768
 50
285.7451327697328907
 51
352.4335211962991252
  0
LINE
  5
2B37
  8
0
 10
89.332110040130928
 20
25.7685520221860997
 30
0.0
 11
89.332110040130928
 21
25.7898486527026591
 31
0.0
  0
LINE
  5
2B38
  8
0
 10
89.3412806848309344
 20
25.7895270630994311
 30
0.0
 11
89.3655683670309315
 21
25.8011577830994305
 31
0.0
  0
LINE
  5
2B39
  8
0
 10
89.3327819150309352
 20
25.7895270630994311
 30
0.0
 11
89.3084879928309334
 21
25.8011552289994306
 31
0.0
  0
ARC
  5
2B3A
  8
0
 10
89.3337914353760993
 20
25.796934231567171
 30
0.0
 40
0.0074756455264322
 50
262.2389961427958269
 51
295.682844814077896
  0
ARC
  5
2B3B
  8
0
 10
89.3404013936746253
 20
25.7977601116989987
 30
0.0
 40
0.0082798696958656
 50
245.9820667255347075
 51
276.0960923176098163
  0
LINE
  5
2B3C
  8
0
 10
89.3941116743224029
 20
25.7601714437141105
 30
0.0
 11
89.3941179143223934
 21
25.7628729025141112
 31
0.0
  0
LINE
  5
2B3D
  8
0
 10
89.3990391741224073
 20
25.7685520228725409
 30
0.0
 11
89.3990391741224073
 21
25.7898488060718307
 31
0.0
  0
ARC
  5
2B3E
  8
0
 10
89.3959803665296135
 20
25.7694586435118183
 30
0.0
 40
0.0068440275731964
 50
187.6122883987503087
 51
254.2090587875651124
  0
ARC
  5
2B3F
  8
0
 10
89.3922629851697934
 20
25.7694521241064614
 30
0.0
 40
0.0068357091038768
 50
285.7451327697328907
 51
352.4335211962991252
  0
LINE
  5
2B40
  8
0
 10
89.3891966543309309
 20
25.7685520221860997
 30
0.0
 11
89.3891966543309309
 21
25.7898486527026591
 31
0.0
  0
LINE
  5
2B41
  8
0
 10
89.3983672990309373
 20
25.7895270630994311
 30
0.0
 11
89.4226549812309344
 21
25.8011577830994305
 31
0.0
  0
LINE
  5
2B42
  8
0
 10
89.3898685292309239
 20
25.7895270630994311
 30
0.0
 11
89.3655746070309362
 21
25.8011552289994306
 31
0.0
  0
ARC
  5
2B43
  8
0
 10
89.3908780495760737
 20
25.796934231567171
 30
0.0
 40
0.0074756455264322
 50
262.2389961427958269
 51
295.682844814077896
  0
ARC
  5
2B44
  8
0
 10
89.3974880078746139
 20
25.7977601116989987
 30
0.0
 40
0.0082798696958656
 50
245.9820667255347075
 51
276.0960923176098163
  0
LINE
  5
2B45
  8
0
 10
89.3655683673334664
 20
25.8011577829672802
 30
0.0
 11
89.3655746073334711
 21
25.8038592417672703
 31
0.0
  0
LINE
  5
2B46
  8
0
 10
89.370495867133485
 20
25.8095383621257
 30
0.0
 11
89.370495867133485
 21
25.8308351453249898
 31
0.0
  0
ARC
  5
2B47
  8
0
 10
89.3674370595406771
 20
25.8104449827649809
 30
0.0
 40
0.0068440275731964
 50
187.6122883987503087
 51
254.2090587875651124
  0
ARC
  5
2B48
  8
0
 10
89.3637196781808569
 20
25.8104384633596204
 30
0.0
 40
0.0068357091038768
 50
285.7451327697328907
 51
352.4335211962991252
  0
LINE
  5
2B49
  8
0
 10
89.3606533473419944
 20
25.8095383614392588
 30
0.0
 11
89.3606533473419944
 21
25.8308349919558182
 31
0.0
  0
LINE
  5
2B4A
  8
0
 10
89.3698239920420008
 20
25.8305134023525902
 30
0.0
 11
89.3941116742419979
 21
25.8421441223525896
 31
0.0
  0
LINE
  5
2B4B
  8
0
 10
89.3613252222420016
 20
25.8305134023525902
 30
0.0
 11
89.3428749886820981
 21
25.8393445155405708
 31
0.0
  0
ARC
  5
2B4C
  8
0
 10
89.3623347425871657
 20
25.8379205708203408
 30
0.0
 40
0.0074756455264322
 50
262.2389961427958269
 51
295.682844814077896
  0
ARC
  5
2B4D
  8
0
 10
89.3689447008856916
 20
25.8387464509521685
 30
0.0
 40
0.0082798696958656
 50
245.9820667255347075
 51
276.0960923176098163
  0
LINE
  5
2B4E
  8
0
 10
89.3084817532334654
 20
25.8011577829672802
 30
0.0
 11
89.3084879932334843
 21
25.8038592417672703
 31
0.0
  0
LINE
  5
2B4F
  8
0
 10
89.3134092530334698
 20
25.8095383621257
 30
0.0
 11
89.3134092530334698
 21
25.8261678201182896
 31
0.0
  0
ARC
  5
2B50
  8
0
 10
89.310350445440676
 20
25.8104449827649809
 30
0.0
 40
0.0068440275731964
 50
187.6122883987503087
 51
254.2090587875651124
  0
ARC
  5
2B51
  8
0
 10
89.3066330640808559
 20
25.8104384633596204
 30
0.0
 40
0.0068357091038768
 50
285.7451327697328907
 51
352.4335211962991252
  0
LINE
  5
2B52
  8
0
 10
89.3035667332420076
 20
25.8095383614392588
 30
0.0
 11
89.3035667332420076
 21
25.8208733728793405
 31
0.0
  0
LINE
  5
2B53
  8
0
 10
89.2513951390334768
 20
25.6372124258672685
 30
0.0
 11
89.2514013790334531
 21
25.6399138846672692
 31
0.0
  0
LINE
  5
2B54
  8
0
 10
89.256322638833467
 20
25.6455930050256988
 30
0.0
 11
89.256322638833467
 21
25.6668897882249993
 31
0.0
  0
ARC
  5
2B55
  8
0
 10
89.2532638312406732
 20
25.6464996256649798
 30
0.0
 40
0.0068440275731964
 50
187.6122883987503087
 51
254.2090587875651124
  0
ARC
  5
2B56
  8
0
 10
89.2495464498808531
 20
25.6464931062596193
 30
0.0
 40
0.0068357091038768
 50
285.7451327697328907
 51
352.4335211962991252
  0
LINE
  5
2B57
  8
0
 10
89.2464801190420047
 20
25.6455930043392613
 30
0.0
 11
89.2464801190420047
 21
25.6668896348558206
 31
0.0
  0
LINE
  5
2B58
  8
0
 10
89.2556507637419969
 20
25.6665680452525891
 30
0.0
 11
89.2799384459420082
 21
25.6781987652525885
 31
0.0
  0
LINE
  5
2B59
  8
0
 10
89.2471519939419835
 20
25.6665680452525891
 30
0.0
 11
89.2228580717420101
 21
25.6781962111525885
 31
0.0
  0
ARC
  5
2B5A
  8
0
 10
89.2481615142871618
 20
25.6739752137203396
 30
0.0
 40
0.0074756455264322
 50
262.2389961427958269
 51
295.682844814077896
  0
ARC
  5
2B5B
  8
0
 10
89.254771472585702
 20
25.6748010938521709
 30
0.0
 40
0.0082798696958656
 50
245.9820667255347075
 51
276.0960923176098163
  0
LINE
  5
2B5C
  8
0
 10
89.3941116744334749
 20
25.8421441222672712
 30
0.0
 11
89.3941179144334654
 21
25.8448455810672684
 31
0.0
  0
LINE
  5
2B5D
  8
0
 10
89.3990391742334651
 20
25.8505247014257016
 30
0.0
 11
89.3990391742334651
 21
25.85478543000022
 31
0.0
  0
ARC
  5
2B5E
  8
0
 10
89.3959803666406714
 20
25.851431322064979
 30
0.0
 40
0.0068440275731964
 50
187.6122883987503087
 51
254.2090587875651124
  0
ARC
  5
2B5F
  8
0
 10
89.3922629852808512
 20
25.8514248026596185
 30
0.0
 40
0.0068357091038768
 50
285.7451327697328907
 51
352.4335211962991252
  0
LINE
  5
2B60
  8
0
 10
89.3891966544420029
 20
25.8505247007392605
 30
0.0
 11
89.3891966544420029
 21
25.8529216967851205
 31
0.0
  0
LINE
  5
2B61
  8
0
 10
89.4177399617334743
 20
25.6668950226770782
 30
0.0
 11
89.4177399617334743
 21
25.6450213550672714
 31
0.0
  0
LINE
  5
2B62
  8
0
 10
89.422661221533474
 20
25.6372098718672703
 30
0.0
 11
89.446953878733467
 21
25.6255878521672713
 31
0.0
  0
ARC
  5
2B63
  8
0
 10
89.4480326002993849
 20
25.6283732742123789
 30
0.0
 40
0.0029922845273026
 50
248.8949964553823122
 51
285.6726510775212091
  0
LINE
  5
2B64
  8
0
 10
89.4488409387188597
 20
25.6254922404236289
 30
0.0
 11
89.4512045285834745
 21
25.6262517716433393
 31
0.0
  0
ARC
  5
2B65
  8
0
 10
89.435760410858876
 20
25.6508944015172204
 30
0.0
 40
0.0189434715066553
 50
198.0473670813138085
 51
226.2519617767183888
  0
LINE
  5
2B66
  8
0
 10
89.3941179144334654
 20
25.6781962111672684
 30
0.0
 11
89.4184105717334745
 21
25.6665741914672694
 31
0.0
  0
LINE
  5
2B67
  8
0
 10
89.422661221533474
 20
25.6674076007659515
 30
0.0
 11
89.4512045285834745
 21
25.6809002240433415
 31
0.0
  0
LINE
  5
2B68
  8
0
 10
89.422661221533474
 20
25.71918255046727
 30
0.0
 11
89.446953878733467
 21
25.707560530767271
 31
0.0
  0
LINE
  5
2B69
  8
0
 10
89.422661221533474
 20
25.8011552289672714
 30
0.0
 11
89.446962766501187
 21
25.7895289223505202
 31
0.0
  0
ARC
  5
2B6A
  8
0
 10
89.4482805237560115
 20
25.7949208320194501
 30
0.0
 40
0.0055554637014381
 50
256.2558731618901788
 51
301.7577931324652241
  0
LINE
  5
2B6B
  8
0
 10
89.422661221533474
 20
25.5552371932672706
 30
0.0
 11
89.446953878733467
 21
25.5436151735672716
 31
0.0
  0
ARC
  5
2B6C
  8
0
 10
89.4480962857766571
 20
25.5502401250162912
 30
0.0
 40
0.0067227282820415
 50
260.2161312890218028
 51
297.5387514320840978
  0
LINE
  5
2B6D
  8
0
 10
89.422661221533474
 20
25.4732645147672692
 30
0.0
 11
89.446955143633474
 21
25.4616363487672714
 31
0.0
  0
ARC
  5
2B6E
  8
0
 10
89.4495002881039625
 20
25.5613749481629888
 30
0.0
 40
0.2977180459174844
 50
89.6720174629104889
 51
120.5373315808816983
  0
ARC
  5
2B6F
  8
0
 10
89.4161356910182121
 20
25.6179324952407796
 30
0.0
 40
0.2320525871880231
 50
120.5373315806748025
 51
148.1207457057768977
  0
ARC
  5
2B70
  8
0
 10
89.3750054637954463
 20
25.6435131491963517
 30
0.0
 40
0.1836163874176852
 50
148.1207457057770966
 51
184.1109952128344958
  0
ARC
  5
2B71
  8
0
 10
89.3766165001489128
 20
25.6436289404730502
 30
0.0
 40
0.185231579589523
 50
184.1109952128346094
 51
219.7174474422716912
  0
LINE
  5
2B72
  8
0
 10
89.1665975683334722
 20
25.4872613513672697
 30
0.0
 11
89.1665975683334722
 21
25.4696489764672798
 31
0.0
  0
ARC
  5
2B73
  8
0
 10
89.1547005873847809
 20
25.4724406896406492
 30
0.0
 40
0.012220139857464
 50
296.4704824395886931
 51
346.7940590435388799
  0
LINE
  5
2B74
  8
0
 10
89.1125786835334708
 20
25.8270315027672694
 30
0.0
 11
89.1601475521991063
 21
25.7994178525872186
 31
0.0
  0
LINE
  5
2B75
  8
0
 10
89.2519205896334711
 20
25.8884250878672688
 30
0.0
 11
89.2169911948334686
 21
25.9297810846672796
 31
0.0
  0
LINE
  5
2B76
  8
0
 10
89.2140961592826756
 20
25.9111933043090197
 30
0.0
 11
89.2474042397334557
 21
25.8717569249672685
 31
0.0
  0
LINE
  5
2B77
  8
0
 10
89.2519205896334711
 20
25.8884250878672688
 30
0.0
 11
89.2519205896334711
 21
25.8708127129672683
 31
0.0
  0
LINE
  5
2B78
  8
0
 10
89.3780535246334864
 20
25.982379992967271
 30
0.0
 11
89.3780535246493457
 21
25.9787973428344507
 31
0.0
  0
LINE
  5
2B79
  8
0
 10
89.2514071047420146
 20
25.5552394001525904
 30
0.0
 11
89.2222321557977125
 21
25.5412755707362216
 31
0.0
  0
LINE
  5
2B7A
  8
0
 10
89.2799446861334758
 20
25.514250853967269
 30
0.0
 11
89.2580258648334848
 21
25.5037595183672714
 31
0.0
  0
LINE
  5
2B7B
  8
0
 10
89.2799446861334758
 20
25.514250853967269
 30
0.0
 11
89.3042462311048268
 21
25.5026245473487592
 31
0.0
  0
LINE
  5
2B7C
  8
0
 10
89.3127386504334737
 20
25.5026282445672692
 30
0.0
 11
89.3370313002334626
 21
25.514250853967269
 31
0.0
  0
LINE
  5
2B7D
  8
0
 10
89.3655746073334711
 20
25.4732645147672692
 30
0.0
 11
89.3330371322334713
 21
25.4576917024672689
 31
0.0
  0
LINE
  5
2B7E
  8
0
 10
89.3655746073334711
 20
25.4732645147672692
 30
0.0
 11
89.3898761521554661
 21
25.461638208170001
 31
0.0
  0
LINE
  5
2B7F
  8
0
 10
89.3983672994334739
 20
25.4616363487672714
 30
0.0
 11
89.422661221533474
 21
25.4732645147672692
 31
0.0
  0
ARC
  5
2B80
  8
0
 10
89.4499119633652953
 20
25.7282582629774588
 30
0.0
 40
0.3000105276789248
 50
241.4932903571194913
 51
270.2468538735586208
  0
ARC
  5
2B81
  8
0
 10
89.4212354249441148
 20
25.6754573957342416
 30
0.0
 40
0.239924960048631
 50
218.7552535589971967
 51
241.493290357119605
  0
ARC
  5
2B82
  8
0
 10
89.4511180966334507
 20
25.7654604919671186
 30
0.0
 40
0.3186041715998489
 50
260.5922366582586278
 51
269.1305014644420908
  0
ARC
  5
2B83
  8
0
 10
89.4486868914334963
 20
25.7528220705673796
 30
0.0
 40
0.3057292396001142
 50
250.6051577513024995
 51
258.779535203933392
  0
ARC
  5
2B84
  8
0
 10
89.4308851182334053
 20
25.7145022220671713
 30
0.0
 40
0.2633422665998801
 50
231.5827198516969077
 51
241.0876460975630096
  0
LINE
  5
2B85
  8
0
 10
89.2516202076969449
 20
25.5217029002479485
 30
0.0
 11
89.2516415180334661
 21
25.5105288313672709
 31
0.0
  0
ARC
  5
2B86
  8
0
 10
89.2605139243704002
 20
25.5125013768623887
 30
0.0
 40
0.0090890335134117
 50
192.5343444612055919
 51
254.112879279598701
  0
LINE
  5
2B87
  8
0
 10
89.2228518319334682
 20
25.5962260866672686
 30
0.0
 11
89.200703016454483
 21
25.5856187316152699
 31
0.0
  0
LINE
  5
2B88
  8
0
 10
89.251620207633465
 20
25.5217029335294185
 30
0.0
 11
89.2298464697757936
 21
25.5449200423401486
 31
0.0
  0
ARC
  5
2B89
  8
0
 10
89.3055764753391941
 20
25.5079775987002613
 30
0.0
 40
0.0055158597240048
 50
256.0445625739699267
 51
301.8599522349874746
  0
ARC
  5
2B8A
  8
0
 10
89.311401209472649
 20
25.5079583366221208
 30
0.0
 40
0.0055004083658434
 50
238.0191122581256025
 51
284.0590470374378924
  0
LINE
  5
2B8B
  8
0
 10
89.3233132981334705
 20
25.4740457656672703
 30
0.0
 11
89.3233132981334705
 21
25.4632033674672691
 31
0.0
  0
LINE
  5
2B8C
  8
0
 10
89.3035667333334686
 20
25.5029496315952784
 30
0.0
 11
89.3035667333334686
 21
25.4731404575672684
 31
0.0
  0
LINE
  5
2B8D
  8
0
 10
89.3134092530334698
 20
25.50294908861461
 30
0.0
 11
89.3134092530334698
 21
25.4679438897672696
 31
0.0
  0
LINE
  5
2B8E
  8
0
 10
89.3891966546334658
 20
25.4619579383732706
 30
0.0
 11
89.3891966546334658
 21
25.4420942281672708
 31
0.0
  0
LINE
  5
2B8F
  8
0
 10
89.3990391743334669
 20
25.4402991411672694
 30
0.0
 11
89.3990391743334669
 21
25.4619579383745887
 31
0.0
  0
LINE
  5
2B90
  8
0
 10
89.4462832688334544
 20
25.46195793832673
 30
0.0
 11
89.4462832688334544
 21
25.4357390253664697
 31
0.0
  0
ARC
  5
2B91
  8
0
 10
89.459104812765375
 20
25.7588544636120496
 30
0.0
 40
0.6305179211176358
 50
90.7179253238532084
 51
113.4808469614217046
  0
ARC
  5
2B92
  8
0
 10
89.4027549902005489
 20
25.907080694947151
 30
0.0
 40
0.4721712632009674
 50
114.3759202060797975
 51
152.6365692683870918
  0
ARC
  5
2B93
  8
0
 10
89.2576327206012934
 20
25.9821874613383308
 30
0.0
 40
0.3087653285126159
 50
152.6365692683870918
 51
177.1999648670675924
  0
ARC
  5
2B94
  8
0
 10
89.4514033133088162
 20
25.4748626174307802
 30
0.0
 40
0.5127904815518428
 50
90.0222108708548205
 51
98.2238232484789933
  0
ARC
  5
2B95
  8
0
 10
89.4530689102294048
 20
25.4797837747791398
 30
0.0
 40
0.508163621890745
 50
98.4890581472460553
 51
117.6824147648783025
  0
ARC
  5
2B96
  8
0
 10
89.3974952417119653
 20
25.5857149987048196
 30
0.0
 40
0.3885398080622184
 50
117.6824147648783025
 51
138.5855149077557087
  0
ARC
  5
2B97
  8
0
 10
89.3492323696152368
 20
25.6282861339618506
 30
0.0
 40
0.324184494527941
 50
138.5855149077557087
 51
164.8299686943144877
  0
ARC
  5
2B98
  8
0
 10
89.3795851399102474
 20
25.6744673291192207
 30
0.0
 40
0.4417560145221809
 50
208.0328083644224932
 51
242.6040316210088861
  0
ARC
  5
2B99
  8
0
 10
89.3018756165787551
 20
25.6330913475607716
 30
0.0
 40
0.353717716797075
 50
184.4745992365544964
 51
208.0328083644222943
  0
ARC
  5
2B9A
  8
0
 10
89.4516086750342794
 20
25.7588888277872599
 30
0.0
 40
0.3636320897126786
 50
197.2413737428325931
 51
269.9363205521211171
  0
ARC
  5
2B9B
  8
0
 10
89.3920479156335972
 20
25.6745676772704599
 30
0.0
 40
0.2310711750333412
 50
119.2546464515584006
 51
256.4667512011952795
  0
ARC
  5
2B9C
  8
0
 10
89.4633283373994459
 20
25.5267228140849411
 30
0.0
 40
0.3950216994586477
 50
91.7587696483521427
 51
117.7951158035005932
  0
ARC
  5
2B9D
  8
0
 10
89.4512045286334683
 20
25.4757338005672196
 30
0.0
 40
0.4974384492000538
 50
90.0000000057590057
 51
98.2971331425438564
  0
ARC
  5
2B9E
  8
0
 10
89.4456510742907653
 20
25.9818280789190794
 30
0.0
 40
0.0676654570759226
 50
182.5671370730183014
 51
191.8217937550519139
  0
ARC
  5
2B9F
  8
0
 10
89.4127124977529633
 20
25.58794901272584
 30
0.0
 40
0.3243796171204798
 50
119.8299177833601021
 51
139.4665674870059036
  0
ARC
  5
2BA0
  8
0
 10
89.3654097241767005
 20
25.646061124014139
 30
0.0
 40
0.262505208279245
 50
143.3959811962403137
 51
167.5859524142593955
  0
ARC
  5
2BA1
  8
0
 10
89.250215984613547
 20
25.8706295204786798
 30
0.0
 40
0.0017144205323931
 50
311.7378714399890782
 51
6.133987149595586
  0
ARC
  5
2BA2
  8
0
 10
89.2522819016690789
 20
25.875318751194019
 30
0.0
 40
0.0060397178764932
 50
216.138125432971492
 51
261.1942849375651008
  0
ARC
  5
2BA3
  8
0
 10
89.2287256916356455
 20
25.9238908293138905
 30
0.0
 40
0.019371379871233
 50
188.7508548187551014
 51
220.9559500925726923
  0
ARC
  5
2BA4
  8
0
 10
89.1176814337217138
 20
25.8376980278153496
 30
0.0
 40
0.0118242469563601
 50
192.3014072580255061
 51
244.4340519433530972
  0
LINE
  5
2BA5
  8
0
 10
89.1061286674334667
 20
25.8351788201672683
 30
0.0
 11
89.1061286674334667
 21
25.8427533262792402
 31
0.0
  0
LINE
  5
2BA6
  8
0
 10
89.2095798093334764
 20
25.9209437037672785
 30
0.0
 11
89.2095798093334764
 21
25.9257899503302482
 31
0.0
  0
ARC
  5
2BA7
  8
0
 10
89.1640664340524438
 20
25.8073894528077012
 30
0.0
 40
0.0088827948898769
 50
243.8210186829165877
 51
283.733537790636376
  0
ARC
  5
2BA8
  8
0
 10
89.4508056096526758
 20
25.4395997476692592
 30
0.0
 40
0.0059461536462176
 50
220.487385345182787
 51
273.8467815951606212
  0
ARC
  5
2BA9
  8
0
 10
89.4479584920189126
 20
25.4690826587058083
 30
0.0
 40
0.0075136036416179
 50
262.3259367502166128
 51
295.5959037917029946
  0
LINE
  5
2BAA
  8
0
 10
89.422661221533474
 20
25.8311834680672803
 30
0.0
 11
89.422661221533474
 21
25.8494888732672692
 31
0.0
  0
LINE
  5
2BAB
  8
0
 10
89.422661221533474
 20
25.8494888732672692
 30
0.0
 11
89.4085174414008748
 21
25.8562587238122283
 31
0.0
  0
LINE
  5
2BAC
  8
0
 10
89.422661221533474
 20
25.8494888732672692
 30
0.0
 11
89.4425572833680178
 21
25.8590120250711806
 31
0.0
  0
ARC
  5
2BAD
  8
0
 10
89.4481834443960508
 20
25.7135741028548814
 30
0.0
 40
0.0061437555476629
 50
258.4673274096865043
 51
299.4545165762463057
  0
ARC
  5
2BAE
  8
0
 10
89.4196911439210993
 20
25.6712667140243802
 30
0.0
 40
0.0048697141769222
 50
254.7692619416903881
 51
307.5828507389616107
  0
ARC
  5
2BAF
  8
0
 10
89.3912063967474353
 20
25.4669912587521985
 30
0.0
 40
0.0055158590636553
 50
256.0445570416541727
 51
301.8599539509892224
  0
ARC
  5
2BB0
  8
0
 10
89.3971063204741085
 20
25.4674488316104188
 30
0.0
 40
0.0059476907063019
 50
239.8379007810478072
 51
282.2402586770476773
  0
ARC
  5
2BB1
  8
0
 10
89.3948613460981534
 20
25.445272944098221
 30
0.0
 40
0.00649561116137
 50
209.2987641486930102
 51
310.0291365692378918
  0
ARC
  5
2BB2
  8
0
 10
89.3328323457263025
 20
25.4686637753919882
 30
0.0
 40
0.0109739838608851
 50
209.8398605224060987
 51
271.0692637985342799
  0
ARC
  5
2BB3
  8
0
 10
89.3115932530522088
 20
25.4764236674932008
 30
0.0
 40
0.0086720520185891
 50
202.2467835800312059
 51
282.0876814744174226
  0
LINE
  5
2BB4
  8
0
 10
89.3233132981334705
 20
25.474045765566391
 30
0.0
 11
89.3606533475334714
 21
25.4919183960835305
 31
0.0
  0
LINE
  5
2BB5
  8
0
 10
89.3233132981334705
 20
25.4740457656672703
 30
0.0
 11
89.3134092530334698
 21
25.4786921542076001
 31
0.0
  0
LINE
  5
2BB6
  8
0
 10
89.2516202291632794
 20
25.5217029105724116
 30
0.0
 11
89.2750234262334743
 21
25.5329047353672713
 31
0.0
  0
LINE
  5
2BB7
  8
0
 10
89.222858071933473
 20
25.6781962111672684
 30
0.0
 11
89.1924982142095502
 21
25.6636646150715109
 31
0.0
  0
LINE
  5
2BB8
  8
0
 10
89.4512045285834745
 20
25.8085025339911986
 30
0.0
 11
89.4275824813334737
 21
25.8197400572672713
 31
0.0
  0
LINE
  5
2BB9
  8
0
 10
89.4512045285834745
 20
25.7265298554433386
 30
0.0
 11
89.4275824813334737
 21
25.7377673787172689
 31
0.0
  0
LINE
  5
2BBA
  8
0
 10
89.4462832688334544
 20
25.5328356822672689
 30
0.0
 11
89.422661221533474
 21
25.5215981589672793
 31
0.0
  0
LINE
  5
2BBB
  8
0
 10
89.422661221533474
 20
25.5215981589672793
 30
0.0
 11
89.3990391743334669
 21
25.5328356822672689
 31
0.0
  0
LINE
  5
2BBC
  8
0
 10
89.3941179144334654
 20
25.4806118197672795
 30
0.0
 11
89.370495867133485
 21
25.4922960395253497
 31
0.0
  0
LINE
  5
2BBD
  8
0
 10
89.3941179144334654
 20
25.4806118197672795
 30
0.0
 11
89.4177399615419972
 21
25.4922959624975398
 31
0.0
  0
LINE
  5
2BBE
  8
0
 10
89.3655746073334711
 20
25.5215981589672793
 30
0.0
 11
89.3419525600334765
 21
25.5332823787253496
 31
0.0
  0
LINE
  5
2BBF
  8
0
 10
89.3655746073334711
 20
25.5215981589672793
 30
0.0
 11
89.3891966546334658
 21
25.5328356822672689
 31
0.0
  0
LINE
  5
2BC0
  8
0
 10
89.3134092530334698
 20
25.5742687180253512
 30
0.0
 11
89.3370313002334626
 21
25.5625844982672703
 31
0.0
  0
LINE
  5
2BC1
  8
0
 10
89.3370313002334626
 20
25.5625844982672703
 30
0.0
 11
89.3606533475334714
 21
25.5738220215672705
 31
0.0
  0
LINE
  5
2BC2
  8
0
 10
89.370495867133485
 20
25.5742687180253512
 30
0.0
 11
89.3941179144334654
 21
25.5625844982672703
 31
0.0
  0
LINE
  5
2BC3
  8
0
 10
89.3941179144334654
 20
25.5625844982672703
 30
0.0
 11
89.4177399617334743
 21
25.5738220215672705
 31
0.0
  0
LINE
  5
2BC4
  8
0
 10
89.3419525600334765
 20
25.6152550573253492
 30
0.0
 11
89.3655746073334711
 21
25.6035708375672684
 31
0.0
  0
LINE
  5
2BC5
  8
0
 10
89.3655746073334711
 20
25.6035708375672684
 30
0.0
 11
89.3891966544420029
 21
25.6152549802975393
 31
0.0
  0
LINE
  5
2BC6
  8
0
 10
89.3134092530334698
 20
25.6562413966253509
 30
0.0
 11
89.3370313002334626
 21
25.64455717686727
 31
0.0
  0
LINE
  5
2BC7
  8
0
 10
89.3370313002334626
 20
25.64455717686727
 30
0.0
 11
89.3606533473419944
 21
25.656241319597541
 31
0.0
  0
LINE
  5
2BC8
  8
0
 10
89.2848659459334755
 20
25.6972277359253383
 30
0.0
 11
89.3084879932334843
 21
25.6855435161672716
 31
0.0
  0
LINE
  5
2BC9
  8
0
 10
89.3084879932334843
 20
25.6855435161672716
 30
0.0
 11
89.3321100402419859
 21
25.697227658897539
 31
0.0
  0
LINE
  5
2BCA
  8
0
 10
89.2277793317334869
 20
25.6968500924672796
 30
0.0
 11
89.2514013790334531
 21
25.6855435161672716
 31
0.0
  0
LINE
  5
2BCB
  8
0
 10
89.2514013790334531
 20
25.6855435161672716
 30
0.0
 11
89.2750234262334743
 21
25.6968500924672796
 31
0.0
  0
LINE
  5
2BCC
  8
0
 10
89.3704958672334726
 20
25.6557947001172693
 30
0.0
 11
89.3941179144334654
 21
25.64455717686727
 31
0.0
  0
LINE
  5
2BCD
  8
0
 10
89.3941179144334654
 20
25.64455717686727
 30
0.0
 11
89.4177399617334743
 21
25.6559581888721802
 31
0.0
  0
LINE
  5
2BCE
  8
0
 10
89.3990391742334651
 20
25.6152550573253492
 30
0.0
 11
89.422661221533474
 21
25.6035708375672684
 31
0.0
  0
LINE
  5
2BCF
  8
0
 10
89.422661221533474
 20
25.6035708375672684
 30
0.0
 11
89.4462832688334544
 21
25.6148083608172712
 31
0.0
  0
LINE
  5
2BD0
  8
0
 10
89.2848659459334755
 20
25.5328356822672689
 30
0.0
 11
89.3084879932334843
 21
25.5215981589672793
 31
0.0
  0
LINE
  5
2BD1
  8
0
 10
89.3084879932334843
 20
25.5215981589672793
 30
0.0
 11
89.3321100402419859
 21
25.5332823016975397
 31
0.0
  0
LINE
  5
2BD2
  8
0
 10
89.2848659459334755
 20
25.6148083608172712
 30
0.0
 11
89.3084879932334843
 21
25.6035708375672684
 31
0.0
  0
LINE
  5
2BD3
  8
0
 10
89.3084879932334843
 20
25.6035708375672684
 30
0.0
 11
89.3321100402419859
 21
25.6152549802975393
 31
0.0
  0
LINE
  5
2BD4
  8
0
 10
89.256322638833467
 20
25.5738220215672705
 30
0.0
 11
89.2799446861334758
 21
25.5625844982672703
 31
0.0
  0
LINE
  5
2BD5
  8
0
 10
89.2799446861334758
 20
25.5625844982672703
 30
0.0
 11
89.3035667333334686
 21
25.5738220215672705
 31
0.0
  0
LINE
  5
2BD6
  8
0
 10
89.3419525601334641
 20
25.6968500924672796
 30
0.0
 11
89.3655746073334711
 21
25.6855435161672716
 31
0.0
  0
LINE
  5
2BD7
  8
0
 10
89.3655746073334711
 20
25.6855435161672716
 30
0.0
 11
89.3891966544420029
 21
25.697227658897539
 31
0.0
  0
LINE
  5
2BD8
  8
0
 10
89.3134092530334698
 20
25.7377673787172689
 30
0.0
 11
89.3370313002334626
 21
25.7265298554672697
 31
0.0
  0
LINE
  5
2BD9
  8
0
 10
89.3370313002334626
 20
25.7265298554672697
 30
0.0
 11
89.3606533473419944
 21
25.7382139981975406
 31
0.0
  0
LINE
  5
2BDA
  8
0
 10
89.2848659459334755
 20
25.7787537180172706
 30
0.0
 11
89.3084879932334843
 21
25.7675161947672713
 31
0.0
  0
LINE
  5
2BDB
  8
0
 10
89.3084879932334843
 20
25.7675161947672713
 30
0.0
 11
89.332110040130928
 21
25.7788227709224707
 31
0.0
  0
LINE
  5
2BDC
  8
0
 10
89.3606533475334714
 20
25.8197400572672713
 30
0.0
 11
89.3370313002334626
 21
25.8085025339672711
 31
0.0
  0
LINE
  5
2BDD
  8
0
 10
89.3370313002334626
 20
25.8085025339672711
 30
0.0
 11
89.3134092530334698
 21
25.8198091103672702
 31
0.0
  0
LINE
  5
2BDE
  8
0
 10
89.2514013790334531
 20
25.7675161947672713
 30
0.0
 11
89.2424373638871771
 21
25.7718067763033787
 31
0.0
  0
LINE
  5
2BDF
  8
0
 10
89.2514013790334531
 20
25.7675161947672713
 30
0.0
 11
89.2750234262334743
 21
25.7787537180172706
 31
0.0
  0
LINE
  5
2BE0
  8
0
 10
89.222858071933473
 20
25.7265298554672697
 30
0.0
 11
89.2464801190420047
 21
25.7378364317235011
 31
0.0
  0
LINE
  5
2BE1
  8
0
 10
89.222858071933473
 20
25.7265298554672697
 30
0.0
 11
89.2135604132966762
 21
25.7309801338121211
 31
0.0
  0
LINE
  5
2BE2
  8
0
 10
89.2464801191334658
 20
25.6557947001172693
 30
0.0
 11
89.222858071933473
 21
25.64455717686727
 31
0.0
  0
LINE
  5
2BE3
  8
0
 10
89.222858071933473
 20
25.64455717686727
 30
0.0
 11
89.1920685119725647
 21
25.6592944478145206
 31
0.0
  0
LINE
  5
2BE4
  8
0
 10
89.256322638833467
 20
25.6557947001172693
 30
0.0
 11
89.2799446861334758
 21
25.64455717686727
 31
0.0
  0
LINE
  5
2BE5
  8
0
 10
89.2799446861334758
 20
25.64455717686727
 30
0.0
 11
89.3035667333334686
 21
25.6557947001172693
 31
0.0
  0
LINE
  5
2BE6
  8
0
 10
89.2277793317334869
 20
25.6148083608172712
 30
0.0
 11
89.2514013790334531
 21
25.6035708375672684
 31
0.0
  0
LINE
  5
2BE7
  8
0
 10
89.2514013790334531
 20
25.6035708375672684
 30
0.0
 11
89.2750234262334743
 21
25.6148083608172712
 31
0.0
  0
LINE
  5
2BE8
  8
0
 10
89.2179368121334733
 20
25.6148083608172712
 30
0.0
 11
89.195627400099184
 21
25.6042121453164206
 31
0.0
  0
LINE
  5
2BE9
  8
0
 10
89.2464801191334658
 20
25.5738220215672705
 30
0.0
 11
89.2186388181836492
 21
25.5605649732624798
 31
0.0
  0
LINE
  5
2BEA
  8
0
 10
89.2186388181836492
 20
25.5605649732624798
 30
0.0
 11
89.2186388181148686
 21
25.5469139465145894
 31
0.0
  0
ARC
  5
2BEB
  8
0
 10
89.3446134271056849
 20
25.647455762269459
 30
0.0
 40
0.1530346735295997
 50
203.1979282421077926
 51
214.5959096288507055
  0
LINE
  5
2BEC
  8
0
 10
89.3990391743334669
 20
25.6967810394172815
 30
0.0
 11
89.422661221533474
 21
25.6855435161672716
 31
0.0
  0
LINE
  5
2BED
  8
0
 10
89.422661221533474
 20
25.6855435161672716
 30
0.0
 11
89.4462832688334544
 21
25.6967810394172815
 31
0.0
  0
LINE
  5
2BEE
  8
0
 10
89.3704958672334726
 20
25.7377673787172689
 30
0.0
 11
89.3941179144334654
 21
25.7265298554672697
 31
0.0
  0
LINE
  5
2BEF
  8
0
 10
89.3941179144334654
 20
25.7265298554672697
 30
0.0
 11
89.4177399617334743
 21
25.7377673787172689
 31
0.0
  0
LINE
  5
2BF0
  8
0
 10
89.3990391743334669
 20
25.7787537180172706
 30
0.0
 11
89.422661221533474
 21
25.7675161947672713
 31
0.0
  0
LINE
  5
2BF1
  8
0
 10
89.422661221533474
 20
25.7675161947672713
 30
0.0
 11
89.4462832688334544
 21
25.7787537180172706
 31
0.0
  0
LINE
  5
2BF2
  8
0
 10
89.3419525601334641
 20
25.7787537180172706
 30
0.0
 11
89.3655746073334711
 21
25.7675161947672713
 31
0.0
  0
LINE
  5
2BF3
  8
0
 10
89.3655746073334711
 20
25.7675161947672713
 30
0.0
 11
89.3891966546334658
 21
25.7787537180172706
 31
0.0
  0
LINE
  5
2BF4
  8
0
 10
89.3704958672334726
 20
25.8197400572672713
 30
0.0
 11
89.3941179144334654
 21
25.8085025339672711
 31
0.0
  0
LINE
  5
2BF5
  8
0
 10
89.3941179144334654
 20
25.8085025339672711
 30
0.0
 11
89.4177399617334743
 21
25.8199008520688906
 31
0.0
  0
LINE
  5
2BF6
  8
0
 10
89.256322638833467
 20
25.7377673787172689
 30
0.0
 11
89.2799446861334758
 21
25.7265298554672697
 31
0.0
  0
LINE
  5
2BF7
  8
0
 10
89.2799446861334758
 20
25.7265298554672697
 30
0.0
 11
89.3035667333334686
 21
25.7377673787172689
 31
0.0
  0
LINE
  5
2BF8
  8
0
 10
89.4226612213419969
 20
25.5032927538525911
 30
0.0
 11
89.422661221533474
 21
25.5215981589672793
 31
0.0
  0
LINE
  5
2BF9
  8
0
 10
89.422661221533474
 20
25.6035708375672684
 30
0.0
 11
89.4226612213419969
 21
25.585265432352589
 31
0.0
  0
LINE
  5
2BFA
  8
0
 10
89.4226612213419969
 20
25.7492107895525884
 30
0.0
 11
89.422661221533474
 21
25.7675161947672713
 31
0.0
  0
LINE
  5
2BFB
  8
0
 10
89.3941179141317974
 20
25.7901971287990506
 30
0.0
 11
89.3941179144334654
 21
25.8085025339672711
 31
0.0
  0
LINE
  5
2BFC
  8
0
 10
89.3370312999306435
 20
25.7901971287995586
 30
0.0
 11
89.3370313002334626
 21
25.8085025339672711
 31
0.0
  0
LINE
  5
2BFD
  8
0
 10
89.3084879930426467
 20
25.7492107895523006
 30
0.0
 11
89.3084879932334843
 21
25.7675161947672713
 31
0.0
  0
LINE
  5
2BFE
  8
0
 10
89.2514013788420044
 20
25.6672381109525887
 30
0.0
 11
89.2514013790334531
 21
25.6855435161672716
 31
0.0
  0
LINE
  5
2BFF
  8
0
 10
89.2228580717420101
 20
25.6262517716525906
 30
0.0
 11
89.222858071933473
 21
25.64455717686727
 31
0.0
  0
LINE
  5
2C00
  8
0
 10
89.2514071045505233
 20
25.5852676392379088
 30
0.0
 11
89.2514013790334531
 21
25.6035708375672684
 31
0.0
  0
LINE
  5
2C01
  8
0
 10
89.3084879930431583
 20
25.5852654323520809
 30
0.0
 11
89.3084879932334843
 21
25.6035708375672684
 31
0.0
  0
LINE
  5
2C02
  8
0
 10
89.2799504118425347
 20
25.5442812999523596
 30
0.0
 11
89.2799446861334758
 21
25.5625844982672703
 31
0.0
  0
LINE
  5
2C03
  8
0
 10
89.3941179144340339
 20
25.4623064144669513
 30
0.0
 11
89.3941179144334654
 21
25.4806118197672795
 31
0.0
  0
LINE
  5
2C04
  8
0
 10
89.3655746071420651
 20
25.5852654323525606
 30
0.0
 11
89.3655746073334711
 21
25.6035708375672684
 31
0.0
  0
LINE
  5
2C05
  8
0
 10
89.3370313000419998
 20
25.5442790930525909
 30
0.0
 11
89.3370313002334626
 21
25.5625844982672703
 31
0.0
  0
LINE
  5
2C06
  8
0
 10
89.3370313000419998
 20
25.6262517716525906
 30
0.0
 11
89.3370313002334626
 21
25.64455717686727
 31
0.0
  0
LINE
  5
2C07
  8
0
 10
89.3941179142420026
 20
25.6262517716525906
 30
0.0
 11
89.3941179144334654
 21
25.64455717686727
 31
0.0
  0
LINE
  5
2C08
  8
0
 10
89.3655746071420083
 20
25.6672381109525887
 30
0.0
 11
89.3655746073334711
 21
25.6855435161672716
 31
0.0
  0
LINE
  5
2C09
  8
0
 10
89.3084879930423341
 20
25.6672381109524395
 30
0.0
 11
89.3084879932334843
 21
25.6855435161672716
 31
0.0
  0
LINE
  5
2C0A
  8
0
 10
89.2799446859419845
 20
25.7082244502525903
 30
0.0
 11
89.2799446861334758
 21
25.7265298554672697
 31
0.0
  0
LINE
  5
2C0B
  8
0
 10
89.2228580717430333
 20
25.7082244502521284
 30
0.0
 11
89.222858071933473
 21
25.7265298554672697
 31
0.0
  0
LINE
  5
2C0C
  8
0
 10
89.2514013788420044
 20
25.7492107895525884
 30
0.0
 11
89.2514013790334531
 21
25.7675161947672713
 31
0.0
  0
LINE
  5
2C0D
  8
0
 10
89.3655746071420083
 20
25.7492107895525884
 30
0.0
 11
89.3655746073334711
 21
25.7675161947672713
 31
0.0
  0
LINE
  5
2C0E
  8
0
 10
89.3655746071420083
 20
25.8311834680525898
 30
0.0
 11
89.3655746071420083
 21
25.8470189835286597
 31
0.0
  0
LINE
  5
2C0F
  8
0
 10
89.2799504118420089
 20
25.6262539785525902
 30
0.0
 11
89.2799446861334758
 21
25.64455717686727
 31
0.0
  0
LINE
  5
2C10
  8
0
 10
89.3084879932633555
 20
25.5032927537529694
 30
0.0
 11
89.3084879932334843
 21
25.5215981589672793
 31
0.0
  0
LINE
  5
2C11
  8
0
 10
89.422661221533474
 20
25.6855435161672716
 30
0.0
 11
89.422661221533474
 21
25.6674076007659515
 31
0.0
  0
LINE
  5
2C12
  8
0
 10
89.3941179142420026
 20
25.7082244502525903
 30
0.0
 11
89.3941179144334654
 21
25.7265298554672697
 31
0.0
  0
LINE
  5
2C13
  8
0
 10
89.422661221533474
 20
25.8011552289672714
 30
0.0
 11
89.4226612240065606
 21
25.8038592408199889
 31
0.0
  0
LINE
  5
2C14
  8
0
 10
89.3941179142420026
 20
25.5442790930525909
 30
0.0
 11
89.3941179144334654
 21
25.5625844982672703
 31
0.0
  0
ARC
  5
2C15
  8
0
 10
89.4485230576212444
 20
25.8151826998878917
 30
0.0
 40
0.6008796772840196
 50
270.2556875987799003
 51
297.5122478037944234
  0
LINE
  5
2C16
  8
0
 10
89.796280389833683
 20
25.4521592536672685
 30
0.0
 11
89.7358114889336775
 21
25.4872613513672697
 31
0.0
  0
ARC
  5
2C17
  8
0
 10
89.4897255042311457
 20
25.6773202882642089
 30
0.0
 40
0.3321928844105754
 50
299.8373937726117902
 51
319.4826211120836774
  0
ARC
  5
2C18
  8
0
 10
89.6693023768717552
 20
25.4017063427567784
 30
0.0
 40
0.0190201478017548
 50
188.4451785154166998
 51
221.2616257043952999
  0
LINE
  5
2C19
  8
0
 10
89.796280389833683
 20
25.4345468787672715
 30
0.0
 11
89.796280389833683
 21
25.4521592536672685
 31
0.0
  0
LINE
  5
2C1A
  8
0
 10
89.7898303737336647
 20
25.4338880087672692
 30
0.0
 11
89.7422615050340653
 21
25.4615016589673608
 31
0.0
  0
ARC
  5
2C1B
  8
0
 10
89.4959158268930537
 20
25.6895126043485789
 30
0.0
 40
0.3945235991813126
 50
299.8475265848913978
 51
319.4847879305727929
  0
ARC
  5
2C1C
  8
0
 10
89.6930266215558589
 20
25.3530238176863989
 30
0.0
 40
0.0057526884898505
 50
214.9757337419289911
 51
262.4191360855065795
  0
LINE
  5
2C1D
  8
0
 10
89.6883128979692259
 20
25.3497262072147294
 30
0.0
 11
89.6550048175336798
 21
25.3891625865672701
 31
0.0
  0
LINE
  5
2C1E
  8
0
 10
89.5115370155334347
 20
25.3511972510673509
 30
0.0
 11
89.5115370155330936
 21
25.3688096259671489
 31
0.0
  0
LINE
  5
2C1F
  8
0
 10
89.5243555326336775
 20
25.3085407310672714
 30
0.0
 11
89.5115370155330936
 21
25.3688096259671489
 31
0.0
  0
LINE
  5
2C20
  8
0
 10
89.5229882241336838
 20
25.2929539445672802
 30
0.0
 11
89.5129043240336131
 21
25.3403654751672285
 31
0.0
  0
ARC
  5
2C21
  8
0
 10
89.4572357635022115
 20
25.7788888076517999
 30
0.0
 40
0.4751130145083355
 50
278.1214097664270071
 51
297.9867630410445827
  0
ARC
  5
2C22
  8
0
 10
89.4567699925711963
 20
25.7544707937653214
 30
0.0
 40
0.3895304393131849
 50
278.0824249907205967
 51
299.8223752287585171
  0
LINE
  5
2C23
  8
0
 10
89.5243555326336775
 20
25.3085407310672714
 30
0.0
 11
89.5243460699599325
 21
25.2904636959031883
 31
0.0
  0
ARC
  5
2C24
  8
0
 10
89.5252357625537769
 20
25.2909072520792293
 30
0.0
 40
0.0017415494201276
 50
219.7965366257485016
 51
230.4043832134661898
  0
ARC
  5
2C25
  8
0
 10
89.5190963471551555
 20
25.2906757761458607
 30
0.0
 40
0.0052540049070142
 50
352.606723979777712
 51
357.6866018799049129
  0
ARC
  5
2C26
  8
0
 10
89.5233969190981043
 20
25.2901236834473089
 30
0.0
 40
0.000918162801087
 50
322.5423776085198142
 51
352.2390773560215962
  0
ARC
  5
2C27
  8
0
 10
89.5381647465983548
 20
25.2956083995438199
 30
0.0
 40
0.0154069129076494
 50
189.9209835335134073
 51
202.1778670165909944
  0
ARC
  5
2C28
  8
0
 10
89.5791581487366528
 20
25.3542309640683392
 30
0.0
 40
0.0676891503139689
 50
182.5687601955928017
 51
191.8201704531169867
  0
ARC
  5
2C29
  8
0
 10
89.4536346748933227
 20
25.7561109733261588
 30
0.0
 40
0.4718409443529276
 50
269.704905346769408
 51
278.5919175515018082
  0
ARC
  5
2C2A
  8
0
 10
89.4512045287831512
 20
25.7634503938581005
 30
0.0
 40
0.4275601865908217
 50
269.9999999866719804
 51
278.2971332045452186
  0
LINE
  5
2C2B
  8
0
 10
89.4797540757336805
 20
25.7191851044672717
 30
0.0
 11
89.4797478357336757
 21
25.7218865632672689
 31
0.0
  0
LINE
  5
2C2C
  8
0
 10
89.4748265759336761
 20
25.7275656836256985
 30
0.0
 11
89.4748265759336761
 21
25.7488624668249884
 31
0.0
  0
ARC
  5
2C2D
  8
0
 10
89.4778853835264556
 20
25.7284723042649794
 30
0.0
 40
0.0068440275731964
 50
285.790941212434916
 51
352.3877116012495776
  0
ARC
  5
2C2E
  8
0
 10
89.4816027648862757
 20
25.728465784859619
 30
0.0
 40
0.0068357091038768
 50
187.5664788037007895
 51
254.2548672302671946
  0
ARC
  5
2C2F
  8
0
 10
89.794243041670569
 20
25.4344703540067911
 30
0.0
 40
0.0020387848284473
 50
321.8296688321815964
 51
2.1510734802749871
  0
ARC
  5
2C30
  8
0
 10
89.7946343002594034
 20
25.441514489012711
 30
0.0
 40
0.009013374009097
 50
237.7931382121491879
 51
266.9894571036700199
  0
ARC
  5
2C31
  8
0
 10
89.7942722286412049
 20
25.4346299896733612
 30
0.0
 40
0.0021193601557467
 50
266.9894571036790012
 51
317.9461815479309053
  0
LINE
  5
2C32
  8
0
 10
89.8660644875594556
 20
25.7131201552112891
 30
0.0
 11
89.8660644875929933
 21
25.6955077802846397
 31
0.0
  0
LINE
  5
2C33
  8
0
 10
89.7933670648336886
 20
25.7024931228672706
 30
0.0
 11
89.7933670648336886
 21
25.6848807479672701
 31
0.0
  0
LINE
  5
2C34
  8
0
 10
89.8011214566336662
 20
25.6816112043672717
 30
0.0
 11
89.8583100958195757
 21
25.6899711364652106
 31
0.0
  0
ARC
  5
2C35
  8
0
 10
89.857881508571964
 20
25.698769958698481
 30
0.0
 40
0.0088092542091526
 50
272.7886513059473259
 51
338.2650942526205995
  0
ARC
  5
2C36
  8
0
 10
89.7996327675801638
 20
25.6889108090839287
 30
0.0
 40
0.00744986063704
 50
212.7488724649647907
 51
281.5268877741519873
  0
LINE
  5
2C37
  8
0
 10
89.8660644876336647
 20
25.713120155167271
 30
0.0
 11
89.7933670648336886
 21
25.7024931228672706
 31
0.0
  0
LINE
  5
2C38
  8
0
 10
89.8583100958195757
 20
25.5709483750693387
 30
0.0
 11
89.8011214566307245
 21
25.5793083071263503
 31
0.0
  0
ARC
  5
2C39
  8
0
 10
89.5808235328346285
 20
25.6347339335884996
 30
0.0
 40
0.2916433827703031
 50
347.928332967094093
 51
12.0276737417657493
  0
ARC
  5
2C3A
  8
0
 10
89.5589426218325144
 20
25.6348628494839303
 30
0.0
 40
0.2397010839464391
 50
347.9557065035073151
 51
12.0442935008657308
  0
ARC
  5
2C3B
  8
0
 10
89.8013720901918333
 20
25.5878578943107797
 30
0.0
 40
0.0085532600922695
 50
200.6254080822843093
 51
268.3208389595018275
  0
ARC
  5
2C3C
  8
0
 10
89.5563529582950224
 20
25.6594530523793516
 30
0.0
 40
0.3170739525555868
 50
319.1734633392537717
 51
343.766631209669697
  0
ARC
  5
2C3D
  8
0
 10
89.5406181635391079
 20
25.6567624365231985
 30
0.0
 40
0.2585170248699768
 50
319.0297543218572969
 51
347.8738972643083116
  0
ARC
  5
2C3E
  8
0
 10
27230.9582238728908123
 20
25.5967056836351396
 30
0.0
 40
27141.1648568106502353
 50
179.9999878581373025
 51
180.0000250383473883
  0
ARC
  5
2C3F
  8
0
 10
89.8603017726309616
 20
25.5848672936649386
 30
0.0
 40
0.0140606924222107
 50
261.8567475434244898
 51
271.9715332993202992
  0
ARC
  5
2C40
  8
0
 10
89.8607777598140558
 20
25.5769696996338709
 30
0.0
 40
0.006154779936145
 50
270.0720735154483236
 51
328.3607235967998008
  0
LINE
  5
2C41
  8
0
 10
89.6504884676336786
 20
25.3989129860695613
 30
0.0
 11
89.6504884676336644
 21
25.4165253609348198
 31
0.0
  0
LINE
  5
2C42
  8
0
 10
89.4846690957251383
 20
25.7275656829392609
 30
0.0
 11
89.4846690957251383
 21
25.7488623134558203
 31
0.0
  0
LINE
  5
2C43
  8
0
 10
89.4561257884336811
 20
25.8590756126772803
 30
0.0
 11
89.4561257884336811
 21
25.8499530514672706
 31
0.0
  0
ARC
  5
2C44
  8
0
 10
89.4479719950933116
 20
25.8528849157879002
 30
0.0
 40
0.0086648816629046
 50
291.9045507764345757
 51
340.2229069992333166
  0
LINE
  5
2C45
  8
0
 10
89.4561257884336811
 20
25.7898540065474613
 30
0.0
 11
89.4561257884336811
 21
25.7679803728672709
 31
0.0
  0
ARC
  5
2C46
  8
0
 10
89.4479719950933116
 20
25.7709122371879005
 30
0.0
 40
0.0086648816629046
 50
291.9045507764345757
 51
340.2229069992333734
  0
LINE
  5
2C47
  8
0
 10
89.4561257884336811
 20
25.7078813619305606
 30
0.0
 11
89.4561257884336811
 21
25.68600771599003
 31
0.0
  0
ARC
  5
2C48
  8
0
 10
89.4479719950933116
 20
25.6889395803106595
 30
0.0
 40
0.0086648816629046
 50
291.9045507764345757
 51
340.2229069992333734
  0
LINE
  5
2C49
  8
0
 10
89.4561257884336811
 20
25.6259086833305609
 30
0.0
 11
89.4561257884336811
 21
25.6040350157672805
 31
0.0
  0
ARC
  5
2C4A
  8
0
 10
89.4479719950933116
 20
25.6069668800878993
 30
0.0
 40
0.0086648816629046
 50
291.9045507764345757
 51
340.2229069992333734
  0
LINE
  5
2C4B
  8
0
 10
89.4561257884336811
 20
25.5439360047305613
 30
0.0
 11
89.4561257884336811
 21
25.5220623371672808
 31
0.0
  0
ARC
  5
2C4C
  8
0
 10
89.4479719950933116
 20
25.5249942014878997
 30
0.0
 40
0.0086648816629046
 50
291.9045507764345757
 51
340.2229069992333734
  0
LINE
  5
2C4D
  8
0
 10
89.4846690955336754
 20
25.8308349919705016
 30
0.0
 11
89.4846690955336754
 21
25.8089667121672797
 31
0.0
  0
LINE
  5
2C4E
  8
0
 10
89.4748265759336761
 20
25.8308351452479883
 30
0.0
 11
89.4748265759336761
 21
25.8089667121672797
 31
0.0
  0
LINE
  5
2C4F
  8
0
 10
89.4754984508336833
 20
25.83051340236727
 30
0.0
 11
89.4512107686336861
 21
25.8421441223672801
 31
0.0
  0
LINE
  5
2C50
  8
0
 10
89.4839972206336967
 20
25.83051340236727
 30
0.0
 11
89.5082911428336843
 21
25.8421415682672695
 31
0.0
  0
ARC
  5
2C51
  8
0
 10
89.4829877002885183
 20
25.8379205708350206
 30
0.0
 40
0.0074756455264322
 50
244.3171551859219903
 51
277.7610038572041731
  0
ARC
  5
2C52
  8
0
 10
89.4763777419900066
 20
25.8387464509668483
 30
0.0
 40
0.0082798696958656
 50
263.9039076823893879
 51
294.0179332744651788
  0
ARC
  5
2C53
  8
0
 10
89.4762249035842956
 20
25.8121783876109383
 30
0.0
 40
0.0090343365463995
 50
292.9513374166209019
 51
339.1761203590180003
  0
ARC
  5
2C54
  8
0
 10
89.4826920472986131
 20
25.8116207632704615
 30
0.0
 40
0.0083011822682672
 50
198.645971457899293
 51
249.2265302528959126
  0
LINE
  5
2C55
  8
0
 10
89.4754984510251461
 20
25.7485407238525887
 30
0.0
 11
89.4512107688251348
 21
25.7601714438525917
 31
0.0
  0
LINE
  5
2C56
  8
0
 10
89.4839972208251453
 20
25.7485407238525887
 30
0.0
 11
89.5082911430251329
 21
25.7601688897525882
 31
0.0
  0
ARC
  5
2C57
  8
0
 10
89.4829877004799812
 20
25.7559478923203393
 30
0.0
 40
0.0074756455264322
 50
244.3171551859219903
 51
277.7610038572041731
  0
ARC
  5
2C58
  8
0
 10
89.4763777421814552
 20
25.7567737724521706
 30
0.0
 40
0.0082798696958656
 50
263.9039076823893879
 51
294.0179332744651788
  0
LINE
  5
2C59
  8
0
 10
89.4797540757336805
 20
25.5552397472672688
 30
0.0
 11
89.4797478357336757
 21
25.5579412060672695
 31
0.0
  0
LINE
  5
2C5A
  8
0
 10
89.4748265759336761
 20
25.5636203264256991
 30
0.0
 11
89.4748265759336761
 21
25.5849171096249997
 31
0.0
  0
ARC
  5
2C5B
  8
0
 10
89.4778853835264556
 20
25.5645269470649801
 30
0.0
 40
0.0068440275731964
 50
285.790941212434916
 51
352.3877116012496913
  0
ARC
  5
2C5C
  8
0
 10
89.4816027648862757
 20
25.5645204276596196
 30
0.0
 40
0.0068357091038768
 50
187.5664788037007895
 51
254.2548672302671946
  0
LINE
  5
2C5D
  8
0
 10
89.4846690957251383
 20
25.5636203257392616
 30
0.0
 11
89.4846690957251383
 21
25.584916956255821
 31
0.0
  0
LINE
  5
2C5E
  8
0
 10
89.4754984510251461
 20
25.5845953666525894
 30
0.0
 11
89.4512107688251348
 21
25.5962260866525888
 31
0.0
  0
LINE
  5
2C5F
  8
0
 10
89.4839972208251453
 20
25.5845953666525894
 30
0.0
 11
89.5082911430251329
 21
25.5962235325525889
 31
0.0
  0
ARC
  5
2C60
  8
0
 10
89.4829877004799812
 20
25.59200253512034
 30
0.0
 40
0.0074756455264322
 50
244.3171551859219903
 51
277.7610038572041731
  0
ARC
  5
2C61
  8
0
 10
89.4763777421814552
 20
25.5928284152521712
 30
0.0
 40
0.0082798696958656
 50
263.9039076823893879
 51
294.0179332744651788
  0
LINE
  5
2C62
  8
0
 10
89.4797540757336805
 20
25.4732670687672709
 30
0.0
 11
89.4797478357336757
 21
25.4759685275672716
 31
0.0
  0
LINE
  5
2C63
  8
0
 10
89.4748265759336761
 20
25.4816476479257012
 30
0.0
 11
89.4748265759336761
 21
25.5029444311250018
 31
0.0
  0
ARC
  5
2C64
  8
0
 10
89.4778853835264556
 20
25.4825542685649786
 30
0.0
 40
0.0068440275731964
 50
285.790941212434916
 51
352.3877116012496913
  0
ARC
  5
2C65
  8
0
 10
89.4816027648862757
 20
25.4825477491596217
 30
0.0
 40
0.0068357091038768
 50
187.5664788037007895
 51
254.2548672302671946
  0
LINE
  5
2C66
  8
0
 10
89.4846690957251383
 20
25.4816476472392601
 30
0.0
 11
89.4846690957251383
 21
25.5029442777558302
 31
0.0
  0
LINE
  5
2C67
  8
0
 10
89.4754984510251461
 20
25.5026226881525915
 30
0.0
 11
89.4512107688251348
 21
25.5142534081525909
 31
0.0
  0
LINE
  5
2C68
  8
0
 10
89.4839972208251453
 20
25.5026226881525915
 30
0.0
 11
89.5082911430251329
 21
25.514250854052591
 31
0.0
  0
ARC
  5
2C69
  8
0
 10
89.4829877004799812
 20
25.5100298566203385
 30
0.0
 40
0.0074756455264322
 50
244.3171551859219903
 51
277.7610038572041731
  0
ARC
  5
2C6A
  8
0
 10
89.4763777421814552
 20
25.5108557367521591
 30
0.0
 40
0.0082798696958656
 50
263.9039076823893879
 51
294.0179332744651788
  0
LINE
  5
2C6B
  8
0
 10
89.5368406899336833
 20
25.4732670687672709
 30
0.0
 11
89.5368344499336786
 21
25.4759685275672716
 31
0.0
  0
LINE
  5
2C6C
  8
0
 10
89.5319131901336789
 20
25.4816476479257012
 30
0.0
 11
89.5319131901336789
 21
25.5029444311250018
 31
0.0
  0
ARC
  5
2C6D
  8
0
 10
89.5349719977264584
 20
25.4825542685649786
 30
0.0
 40
0.0068440275731964
 50
285.790941212434916
 51
352.3877116012496913
  0
ARC
  5
2C6E
  8
0
 10
89.5386893790862786
 20
25.4825477491596217
 30
0.0
 40
0.0068357091038768
 50
187.5664788037007895
 51
254.2548672302671946
  0
LINE
  5
2C6F
  8
0
 10
89.5417557099251553
 20
25.4816476472392601
 30
0.0
 11
89.5417557099251553
 21
25.5029442777558302
 31
0.0
  0
LINE
  5
2C70
  8
0
 10
89.5325850652251347
 20
25.5026226881525915
 30
0.0
 11
89.5082973830251376
 21
25.5142534081525909
 31
0.0
  0
LINE
  5
2C71
  8
0
 10
89.5410838350251339
 20
25.5026226881525915
 30
0.0
 11
89.5653777572251357
 21
25.514250854052591
 31
0.0
  0
ARC
  5
2C72
  8
0
 10
89.540074314679984
 20
25.5100298566203385
 30
0.0
 40
0.0074756455264322
 50
244.3171551859219903
 51
277.7610038572041731
  0
ARC
  5
2C73
  8
0
 10
89.5334643563814438
 20
25.5108557367521591
 30
0.0
 40
0.0082798696958656
 50
263.9039076823893879
 51
294.0179332744651788
  0
LINE
  5
2C74
  8
0
 10
89.5368406899336833
 20
25.5552397472672688
 30
0.0
 11
89.5368344499336786
 21
25.5579412060672695
 31
0.0
  0
LINE
  5
2C75
  8
0
 10
89.5319131901336789
 20
25.5636203264256991
 30
0.0
 11
89.5319131901336789
 21
25.5849171096249997
 31
0.0
  0
ARC
  5
2C76
  8
0
 10
89.5349719977264584
 20
25.5645269470649801
 30
0.0
 40
0.0068440275731964
 50
285.790941212434916
 51
352.3877116012496913
  0
ARC
  5
2C77
  8
0
 10
89.5386893790862786
 20
25.5645204276596196
 30
0.0
 40
0.0068357091038768
 50
187.5664788037007895
 51
254.2548672302671946
  0
LINE
  5
2C78
  8
0
 10
89.5417557099251553
 20
25.5636203257392616
 30
0.0
 11
89.5417557099251553
 21
25.584916956255821
 31
0.0
  0
LINE
  5
2C79
  8
0
 10
89.5325850652251347
 20
25.5845953666525894
 30
0.0
 11
89.5082973830251376
 21
25.5962260866525888
 31
0.0
  0
LINE
  5
2C7A
  8
0
 10
89.5410838350251339
 20
25.5845953666525894
 30
0.0
 11
89.5653777572251357
 21
25.5962235325525889
 31
0.0
  0
ARC
  5
2C7B
  8
0
 10
89.540074314679984
 20
25.59200253512034
 30
0.0
 40
0.0074756455264322
 50
244.3171551859219903
 51
277.7610038572041731
  0
ARC
  5
2C7C
  8
0
 10
89.5334643563814438
 20
25.5928284152521712
 30
0.0
 40
0.0082798696958656
 50
263.9039076823893879
 51
294.0179332744651788
  0
LINE
  5
2C7D
  8
0
 10
89.508297382833689
 20
25.5142534079672707
 30
0.0
 11
89.5082911428336843
 21
25.5169548667672714
 31
0.0
  0
LINE
  5
2C7E
  8
0
 10
89.5033698830336846
 20
25.5226339871257011
 30
0.0
 11
89.5033698830336846
 21
25.5439307703250016
 31
0.0
  0
ARC
  5
2C7F
  8
0
 10
89.5064286906264641
 20
25.5235406077649785
 30
0.0
 40
0.0068440275731964
 50
285.790941212434916
 51
352.3877116012496913
  0
ARC
  5
2C80
  8
0
 10
89.5101460719862843
 20
25.5235340883596216
 30
0.0
 40
0.0068357091038768
 50
187.5664788037007895
 51
254.2548672302671946
  0
LINE
  5
2C81
  8
0
 10
89.5132124028251468
 20
25.52263398643926
 30
0.0
 11
89.5132124028251468
 21
25.54393061695583
 31
0.0
  0
LINE
  5
2C82
  8
0
 10
89.5040417581251546
 20
25.5436090273525913
 30
0.0
 11
89.4797540759251291
 21
25.5552397473525907
 31
0.0
  0
LINE
  5
2C83
  8
0
 10
89.5125405279251538
 20
25.5436090273525913
 30
0.0
 11
89.5368344501251556
 21
25.5552371932525908
 31
0.0
  0
ARC
  5
2C84
  8
0
 10
89.5115310075799755
 20
25.5510161958203383
 30
0.0
 40
0.0074756455264322
 50
244.3171551859219903
 51
277.7610038572041731
  0
ARC
  5
2C85
  8
0
 10
89.5049210492814638
 20
25.5518420759521696
 30
0.0
 40
0.0082798696958656
 50
263.9039076823893879
 51
294.0179332744651788
  0
LINE
  5
2C86
  8
0
 10
89.5653839970336634
 20
25.5142534079672707
 30
0.0
 11
89.5653777570336871
 21
25.5169548667672714
 31
0.0
  0
LINE
  5
2C87
  8
0
 10
89.5604564972336874
 20
25.5226339871257011
 30
0.0
 11
89.5604564972336874
 21
25.5439307703250016
 31
0.0
  0
ARC
  5
2C88
  8
0
 10
89.5635153048264669
 20
25.5235406077649785
 30
0.0
 40
0.0068440275731964
 50
285.790941212434916
 51
352.3877116012496913
  0
ARC
  5
2C89
  8
0
 10
89.5672326861862871
 20
25.5235340883596216
 30
0.0
 40
0.0068357091038768
 50
187.5664788037007895
 51
254.2548672302671946
  0
LINE
  5
2C8A
  8
0
 10
89.5702990170251496
 20
25.52263398643926
 30
0.0
 11
89.5702990170251496
 21
25.54393061695583
 31
0.0
  0
LINE
  5
2C8B
  8
0
 10
89.5611283723251432
 20
25.5436090273525913
 30
0.0
 11
89.5368406901251461
 21
25.5552397473525907
 31
0.0
  0
LINE
  5
2C8C
  8
0
 10
89.5696271421251282
 20
25.5436090273525913
 30
0.0
 11
89.5939210643251442
 21
25.5552371932525908
 31
0.0
  0
ARC
  5
2C8D
  8
0
 10
89.5686176217799783
 20
25.5510161958203383
 30
0.0
 40
0.0074756455264322
 50
244.3171551859219903
 51
277.7610038572041731
  0
ARC
  5
2C8E
  8
0
 10
89.5620076634814382
 20
25.5518420759521696
 30
0.0
 40
0.0082798696958656
 50
263.9039076823893879
 51
294.0179332744651788
  0
LINE
  5
2C8F
  8
0
 10
89.5939273040336843
 20
25.5552397472672688
 30
0.0
 11
89.5939210640336938
 21
25.5579412060672695
 31
0.0
  0
LINE
  5
2C90
  8
0
 10
89.5889998042336657
 20
25.5636203264256991
 30
0.0
 11
89.5889998042336657
 21
25.5849171096249997
 31
0.0
  0
ARC
  5
2C91
  8
0
 10
89.5920586118264737
 20
25.5645269470649801
 30
0.0
 40
0.0068440275731964
 50
285.790941212434916
 51
352.3877116012496913
  0
ARC
  5
2C92
  8
0
 10
89.5957759931862938
 20
25.5645204276596196
 30
0.0
 40
0.0068357091038768
 50
187.5664788037007895
 51
254.2548672302671946
  0
LINE
  5
2C93
  8
0
 10
89.5988423240251279
 20
25.5636203257392616
 30
0.0
 11
89.5988423240251279
 21
25.584916956255821
 31
0.0
  0
LINE
  5
2C94
  8
0
 10
89.58967167932515
 20
25.5845953666525894
 30
0.0
 11
89.5653839971251529
 21
25.5962260866525888
 31
0.0
  0
LINE
  5
2C95
  8
0
 10
89.5981704491251492
 20
25.5845953666525894
 30
0.0
 11
89.622464371325151
 21
25.5962235325525889
 31
0.0
  0
ARC
  5
2C96
  8
0
 10
89.5971609287799851
 20
25.59200253512034
 30
0.0
 40
0.0074756455264322
 50
244.3171551859219903
 51
277.7610038572041731
  0
ARC
  5
2C97
  8
0
 10
89.5905509704814591
 20
25.5928284152521712
 30
0.0
 40
0.0082798696958656
 50
263.9039076823893879
 51
294.0179332744651788
  0
LINE
  5
2C98
  8
0
 10
89.6224648852336685
 20
25.5142556148672703
 30
0.0
 11
89.6224586452336638
 21
25.5169570736672711
 31
0.0
  0
LINE
  5
2C99
  8
0
 10
89.6175373854336783
 20
25.5226361940257007
 30
0.0
 11
89.6175373854336783
 21
25.5439329772250012
 31
0.0
  0
ARC
  5
2C9A
  8
0
 10
89.6205961930264863
 20
25.5235428146649816
 30
0.0
 40
0.0068440275731964
 50
285.790941212434916
 51
352.3877116012496913
  0
ARC
  5
2C9B
  8
0
 10
89.6243135743863064
 20
25.5235362952596212
 30
0.0
 40
0.0068357091038768
 50
187.5664788037007895
 51
254.2548672302671946
  0
LINE
  5
2C9C
  8
0
 10
89.6273799052251547
 20
25.5226361933392596
 30
0.0
 11
89.6273799052251547
 21
25.5439328238558296
 31
0.0
  0
LINE
  5
2C9D
  8
0
 10
89.6182092605251484
 20
25.5436112342525909
 30
0.0
 11
89.5939215783251655
 21
25.5552419542525904
 31
0.0
  0
LINE
  5
2C9E
  8
0
 10
89.6267080303251333
 20
25.5436112342525909
 30
0.0
 11
89.6510019525251636
 21
25.5552394001525904
 31
0.0
  0
ARC
  5
2C9F
  8
0
 10
89.6256985099799834
 20
25.5510184027203415
 30
0.0
 40
0.0074756455264322
 50
244.3171551859219903
 51
277.7610038572041731
  0
ARC
  5
2CA0
  8
0
 10
89.6190885516814433
 20
25.5518442828521692
 30
0.0
 40
0.0082798696958656
 50
263.9039076823893879
 51
294.0179332744651788
  0
LINE
  5
2CA1
  8
0
 10
89.6510081925251541
 20
25.5552419541525886
 30
0.0
 11
89.6510019525251636
 21
25.5579434129525893
 31
0.0
  0
LINE
  5
2CA2
  8
0
 10
89.6460806927251355
 20
25.563622533311019
 30
0.0
 11
89.6460806927251355
 21
25.5849193165103088
 31
0.0
  0
ARC
  5
2CA3
  8
0
 10
89.6491395003179434
 20
25.5645291539502999
 30
0.0
 40
0.0068440275731964
 50
285.790941212434916
 51
352.3877116012496913
  0
ARC
  5
2CA4
  8
0
 10
89.6528568816777636
 20
25.5645226345449395
 30
0.0
 40
0.0068357091038768
 50
187.5664788037007895
 51
254.2548672302671946
  0
LINE
  5
2CA5
  8
0
 10
89.6559232125165977
 20
25.5636225326245814
 30
0.0
 11
89.6559232125165977
 21
25.5849191631411408
 31
0.0
  0
LINE
  5
2CA6
  8
0
 10
89.6467525678166197
 20
25.5845975735379092
 30
0.0
 11
89.6224643717080767
 21
25.596223532623231
 31
0.0
  0
LINE
  5
2CA7
  8
0
 10
89.6552513376166189
 20
25.5845975735379092
 30
0.0
 11
89.6795572253336815
 21
25.5962260865672704
 31
0.0
  0
ARC
  5
2CA8
  8
0
 10
89.6542418172714548
 20
25.5920047420056598
 30
0.0
 40
0.0074756455264322
 50
244.3171551859219903
 51
277.7610038572041731
  0
ARC
  5
2CA9
  8
0
 10
89.6476318589729289
 20
25.592830622137491
 30
0.0
 40
0.0082798696958656
 50
263.9039076823893879
 51
294.0179332744651788
  0
LINE
  5
2CAA
  8
0
 10
89.622464371325151
 20
25.5962235325525889
 30
0.0
 11
89.6224586452336638
 21
25.5989297522672707
 31
0.0
  0
LINE
  5
2CAB
  8
0
 10
89.6175373854336783
 20
25.6046088726257004
 30
0.0
 11
89.6175373854336783
 21
25.6259056558250009
 31
0.0
  0
ARC
  5
2CAC
  8
0
 10
89.6205961930264863
 20
25.6055154932649813
 30
0.0
 40
0.0068440275731964
 50
285.790941212434916
 51
352.3877116012496913
  0
ARC
  5
2CAD
  8
0
 10
89.6243135743863064
 20
25.6055089738596209
 30
0.0
 40
0.0068357091038768
 50
187.5664788037007895
 51
254.2548672302671946
  0
LINE
  5
2CAE
  8
0
 10
89.6273799052251547
 20
25.6046088719392593
 30
0.0
 11
89.6273799052251547
 21
25.6259055024558293
 31
0.0
  0
LINE
  5
2CAF
  8
0
 10
89.6182092605251484
 20
25.6255839128525906
 30
0.0
 11
89.5939215783251655
 21
25.6372146328525901
 31
0.0
  0
LINE
  5
2CB0
  8
0
 10
89.6267080303251333
 20
25.6255839128525906
 30
0.0
 11
89.6510019525251636
 21
25.6372120787525901
 31
0.0
  0
ARC
  5
2CB1
  8
0
 10
89.6256985099799834
 20
25.6329910813203412
 30
0.0
 40
0.0074756455264322
 50
244.3171551859219903
 51
277.7610038572041731
  0
ARC
  5
2CB2
  8
0
 10
89.6190885516814433
 20
25.6338169614521583
 30
0.0
 40
0.0082798696958656
 50
263.9039076823893879
 51
294.0179332744651788
  0
LINE
  5
2CB3
  8
0
 10
89.6795572253336815
 20
25.5962260865672704
 30
0.0
 11
89.6795509853336767
 21
25.5989275453672711
 31
0.0
  0
LINE
  5
2CB4
  8
0
 10
89.6746297255336771
 20
25.6046066657257008
 30
0.0
 11
89.6746297255336771
 21
25.6259034489250013
 31
0.0
  0
ARC
  5
2CB5
  8
0
 10
89.6776885331264566
 20
25.6055132863649817
 30
0.0
 40
0.0068440275731964
 50
285.790941212434916
 51
352.3877116012496913
  0
ARC
  5
2CB6
  8
0
 10
89.6814059144862767
 20
25.6055067669596212
 30
0.0
 40
0.0068357091038768
 50
187.5664788037007895
 51
254.2548672302671946
  0
LINE
  5
2CB7
  8
0
 10
89.6844722453251535
 20
25.6046066650392596
 30
0.0
 11
89.6844722453251535
 21
25.625903295555819
 31
0.0
  0
LINE
  5
2CB8
  8
0
 10
89.6753016006251471
 20
25.625581705952591
 30
0.0
 11
89.6510139184251358
 21
25.6372124259525904
 31
0.0
  0
LINE
  5
2CB9
  8
0
 10
89.6838003704251463
 20
25.625581705952591
 30
0.0
 11
89.7109536599535318
 21
25.6385784939050403
 31
0.0
  0
ARC
  5
2CBA
  8
0
 10
89.682790850079968
 20
25.6329888744203416
 30
0.0
 40
0.0074756455264322
 50
244.3171551859219903
 51
277.7610038572041731
  0
ARC
  5
2CBB
  8
0
 10
89.6761808917814562
 20
25.6338147545521586
 30
0.0
 40
0.0082798696958656
 50
263.9039076823893879
 51
294.0179332744651788
  0
LINE
  5
2CBC
  8
0
 10
89.6795572253336815
 20
25.6781987651672701
 30
0.0
 11
89.6795509853336767
 21
25.6809002239672708
 31
0.0
  0
LINE
  5
2CBD
  8
0
 10
89.6746297255336771
 20
25.6865793443257004
 30
0.0
 11
89.6746297255336771
 21
25.707876127525001
 31
0.0
  0
ARC
  5
2CBE
  8
0
 10
89.6776885331264566
 20
25.6874859649649814
 30
0.0
 40
0.0068440275731964
 50
285.790941212434916
 51
352.3877116012496913
  0
ARC
  5
2CBF
  8
0
 10
89.6814059144862767
 20
25.6874794455596209
 30
0.0
 40
0.0068357091038768
 50
187.5664788037007895
 51
254.2548672302671946
  0
LINE
  5
2CC0
  8
0
 10
89.6844722453251535
 20
25.6865793436392593
 30
0.0
 11
89.6844722453251535
 21
25.7078759741558187
 31
0.0
  0
LINE
  5
2CC1
  8
0
 10
89.6753016006251471
 20
25.7075543845525907
 30
0.0
 11
89.6510139184251358
 21
25.7191851045525901
 31
0.0
  0
LINE
  5
2CC2
  8
0
 10
89.6838003704251463
 20
25.7075543845525907
 30
0.0
 11
89.6970039931277654
 21
25.7138742333610004
 31
0.0
  0
ARC
  5
2CC3
  8
0
 10
89.682790850079968
 20
25.7149615530203413
 30
0.0
 40
0.0074756455264322
 50
244.3171551859219903
 51
277.7610038572041731
  0
ARC
  5
2CC4
  8
0
 10
89.6761808917814562
 20
25.715787433152169
 30
0.0
 40
0.0082798696958656
 50
263.9039076823893879
 51
294.0179332744651788
  0
LINE
  5
2CC5
  8
0
 10
89.6224706111336786
 20
25.6781987651672701
 30
0.0
 11
89.6224643711336881
 21
25.6809002239672708
 31
0.0
  0
LINE
  5
2CC6
  8
0
 10
89.6175431113336742
 20
25.6865793443257004
 30
0.0
 11
89.6175431113336742
 21
25.707876127525001
 31
0.0
  0
ARC
  5
2CC7
  8
0
 10
89.6206019189264822
 20
25.6874859649649814
 30
0.0
 40
0.0068440275731964
 50
285.790941212434916
 51
352.3877116012496913
  0
ARC
  5
2CC8
  8
0
 10
89.6243193002863023
 20
25.6874794455596209
 30
0.0
 40
0.0068357091038768
 50
187.5664788037007895
 51
254.2548672302671946
  0
LINE
  5
2CC9
  8
0
 10
89.6273856311251365
 20
25.6865793436392593
 30
0.0
 11
89.6273856311251365
 21
25.7078759741558187
 31
0.0
  0
LINE
  5
2CCA
  8
0
 10
89.6182149864251443
 20
25.7075543845525907
 30
0.0
 11
89.593927304225133
 21
25.7191851045525901
 31
0.0
  0
LINE
  5
2CCB
  8
0
 10
89.6267137562251435
 20
25.7075543845525907
 30
0.0
 11
89.6510076784251453
 21
25.7191825504525902
 31
0.0
  0
ARC
  5
2CCC
  8
0
 10
89.6257042358799936
 20
25.7149615530203413
 30
0.0
 40
0.0074756455264322
 50
244.3171551859219903
 51
277.7610038572041731
  0
ARC
  5
2CCD
  8
0
 10
89.6190942775814534
 20
25.715787433152169
 30
0.0
 40
0.0082798696958656
 50
263.9039076823893879
 51
294.0179332744651788
  0
LINE
  5
2CCE
  8
0
 10
89.5653839970336634
 20
25.6781987651672701
 30
0.0
 11
89.5653777570336871
 21
25.6809002239672708
 31
0.0
  0
LINE
  5
2CCF
  8
0
 10
89.5604564972336874
 20
25.6865793443257004
 30
0.0
 11
89.5604564972336874
 21
25.707876127525001
 31
0.0
  0
ARC
  5
2CD0
  8
0
 10
89.5635153048264669
 20
25.6874859649649814
 30
0.0
 40
0.0068440275731964
 50
285.790941212434916
 51
352.3877116012496913
  0
ARC
  5
2CD1
  8
0
 10
89.5672326861862871
 20
25.6874794455596209
 30
0.0
 40
0.0068357091038768
 50
187.5664788037007895
 51
254.2548672302671946
  0
LINE
  5
2CD2
  8
0
 10
89.5702990170251496
 20
25.6865793436392593
 30
0.0
 11
89.5702990170251496
 21
25.7078759741558187
 31
0.0
  0
LINE
  5
2CD3
  8
0
 10
89.5611283723251432
 20
25.7075543845525907
 30
0.0
 11
89.5368406901251461
 21
25.7191851045525901
 31
0.0
  0
LINE
  5
2CD4
  8
0
 10
89.5696271421251282
 20
25.7075543845525907
 30
0.0
 11
89.5939210643251442
 21
25.7191825504525902
 31
0.0
  0
ARC
  5
2CD5
  8
0
 10
89.5686176217799783
 20
25.7149615530203413
 30
0.0
 40
0.0074756455264322
 50
244.3171551859219903
 51
277.7610038572041731
  0
ARC
  5
2CD6
  8
0
 10
89.5620076634814382
 20
25.715787433152169
 30
0.0
 40
0.0082798696958656
 50
263.9039076823893879
 51
294.0179332744651788
  0
LINE
  5
2CD7
  8
0
 10
89.5368406899336833
 20
25.6372124258672685
 30
0.0
 11
89.5368344499336786
 21
25.6399138846672692
 31
0.0
  0
LINE
  5
2CD8
  8
0
 10
89.5319131901336789
 20
25.6455930050256988
 30
0.0
 11
89.5319131901336789
 21
25.6668897882249993
 31
0.0
  0
ARC
  5
2CD9
  8
0
 10
89.5349719977264584
 20
25.6464996256649798
 30
0.0
 40
0.0068440275731964
 50
285.790941212434916
 51
352.3877116012496913
  0
ARC
  5
2CDA
  8
0
 10
89.5386893790862786
 20
25.6464931062596193
 30
0.0
 40
0.0068357091038768
 50
187.5664788037007895
 51
254.2548672302671946
  0
LINE
  5
2CDB
  8
0
 10
89.5417557099251553
 20
25.6455930043392613
 30
0.0
 11
89.5417557099251553
 21
25.6668896348558206
 31
0.0
  0
LINE
  5
2CDC
  8
0
 10
89.5325850652251347
 20
25.6665680452525891
 30
0.0
 11
89.5082973830251376
 21
25.6781987652525885
 31
0.0
  0
LINE
  5
2CDD
  8
0
 10
89.5410838350251339
 20
25.6665680452525891
 30
0.0
 11
89.5653777572251357
 21
25.6781962111525885
 31
0.0
  0
ARC
  5
2CDE
  8
0
 10
89.540074314679984
 20
25.6739752137203396
 30
0.0
 40
0.0074756455264322
 50
244.3171551859219903
 51
277.7610038572041731
  0
ARC
  5
2CDF
  8
0
 10
89.5334643563814438
 20
25.6748010938521709
 30
0.0
 40
0.0082798696958656
 50
263.9039076823893879
 51
294.0179332744651788
  0
LINE
  5
2CE0
  8
0
 10
89.5939273040336843
 20
25.6372124258672685
 30
0.0
 11
89.5939210640336938
 21
25.6399138846672692
 31
0.0
  0
LINE
  5
2CE1
  8
0
 10
89.5889998042336657
 20
25.6455930050256988
 30
0.0
 11
89.5889998042336657
 21
25.6668897882249993
 31
0.0
  0
ARC
  5
2CE2
  8
0
 10
89.5920586118264737
 20
25.6464996256649798
 30
0.0
 40
0.0068440275731964
 50
285.790941212434916
 51
352.3877116012496913
  0
ARC
  5
2CE3
  8
0
 10
89.5957759931862938
 20
25.6464931062596193
 30
0.0
 40
0.0068357091038768
 50
187.5664788037007895
 51
254.2548672302671946
  0
LINE
  5
2CE4
  8
0
 10
89.5988423240251279
 20
25.6455930043392613
 30
0.0
 11
89.5988423240251279
 21
25.6668896348558206
 31
0.0
  0
LINE
  5
2CE5
  8
0
 10
89.58967167932515
 20
25.6665680452525891
 30
0.0
 11
89.5653839971251529
 21
25.6781987652525885
 31
0.0
  0
LINE
  5
2CE6
  8
0
 10
89.5981704491251492
 20
25.6665680452525891
 30
0.0
 11
89.622464371325151
 21
25.6781962111525885
 31
0.0
  0
ARC
  5
2CE7
  8
0
 10
89.5971609287799851
 20
25.6739752137203396
 30
0.0
 40
0.0074756455264322
 50
244.3171551859219903
 51
277.7610038572041731
  0
ARC
  5
2CE8
  8
0
 10
89.5905509704814591
 20
25.6748010938521709
 30
0.0
 40
0.0082798696958656
 50
263.9039076823893879
 51
294.0179332744651788
  0
LINE
  5
2CE9
  8
0
 10
89.5653839970336634
 20
25.5962260865672704
 30
0.0
 11
89.5653777570336871
 21
25.5989275453672711
 31
0.0
  0
LINE
  5
2CEA
  8
0
 10
89.5604564972336874
 20
25.6046066657257008
 30
0.0
 11
89.5604564972336874
 21
25.6259034489250013
 31
0.0
  0
ARC
  5
2CEB
  8
0
 10
89.5635153048264669
 20
25.6055132863649817
 30
0.0
 40
0.0068440275731964
 50
285.790941212434916
 51
352.3877116012496913
  0
ARC
  5
2CEC
  8
0
 10
89.5672326861862871
 20
25.6055067669596212
 30
0.0
 40
0.0068357091038768
 50
187.5664788037007895
 51
254.2548672302671946
  0
LINE
  5
2CED
  8
0
 10
89.5702990170251496
 20
25.6046066650392596
 30
0.0
 11
89.5702990170251496
 21
25.625903295555819
 31
0.0
  0
LINE
  5
2CEE
  8
0
 10
89.5611283723251432
 20
25.625581705952591
 30
0.0
 11
89.5368406901251461
 21
25.6372124259525904
 31
0.0
  0
LINE
  5
2CEF
  8
0
 10
89.5696271421251282
 20
25.625581705952591
 30
0.0
 11
89.5939210643251442
 21
25.6372098718525905
 31
0.0
  0
ARC
  5
2CF0
  8
0
 10
89.5686176217799783
 20
25.6329888744203416
 30
0.0
 40
0.0074756455264322
 50
244.3171551859219903
 51
277.7610038572041731
  0
ARC
  5
2CF1
  8
0
 10
89.5620076634814382
 20
25.6338147545521586
 30
0.0
 40
0.0082798696958656
 50
263.9039076823893879
 51
294.0179332744651788
  0
LINE
  5
2CF2
  8
0
 10
89.508297382833689
 20
25.5962260865672704
 30
0.0
 11
89.5082911428336843
 21
25.5989275453672711
 31
0.0
  0
LINE
  5
2CF3
  8
0
 10
89.5033698830336846
 20
25.6046066657257008
 30
0.0
 11
89.5033698830336846
 21
25.6259034489250013
 31
0.0
  0
ARC
  5
2CF4
  8
0
 10
89.5064286906264641
 20
25.6055132863649817
 30
0.0
 40
0.0068440275731964
 50
285.790941212434916
 51
352.3877116012496913
  0
ARC
  5
2CF5
  8
0
 10
89.5101460719862843
 20
25.6055067669596212
 30
0.0
 40
0.0068357091038768
 50
187.5664788037007895
 51
254.2548672302671946
  0
LINE
  5
2CF6
  8
0
 10
89.5132124028251468
 20
25.6046066650392596
 30
0.0
 11
89.5132124028251468
 21
25.625903295555819
 31
0.0
  0
LINE
  5
2CF7
  8
0
 10
89.5040417581251546
 20
25.625581705952591
 30
0.0
 11
89.4797540759251291
 21
25.6372124259525904
 31
0.0
  0
LINE
  5
2CF8
  8
0
 10
89.5125405279251538
 20
25.625581705952591
 30
0.0
 11
89.5368344501251556
 21
25.6372098718525905
 31
0.0
  0
ARC
  5
2CF9
  8
0
 10
89.5115310075799755
 20
25.6329888744203416
 30
0.0
 40
0.0074756455264322
 50
244.3171551859219903
 51
277.7610038572041731
  0
ARC
  5
2CFA
  8
0
 10
89.5049210492814638
 20
25.6338147545521586
 30
0.0
 40
0.0082798696958656
 50
263.9039076823893879
 51
294.0179332744651788
  0
LINE
  5
2CFB
  8
0
 10
89.508297382833689
 20
25.6781987651672701
 30
0.0
 11
89.5082911428336843
 21
25.6809002239672708
 31
0.0
  0
LINE
  5
2CFC
  8
0
 10
89.5033698830336846
 20
25.6865793443257004
 30
0.0
 11
89.5033698830336846
 21
25.707876127525001
 31
0.0
  0
ARC
  5
2CFD
  8
0
 10
89.5064286906264641
 20
25.6874859649649814
 30
0.0
 40
0.0068440275731964
 50
285.790941212434916
 51
352.3877116012496913
  0
ARC
  5
2CFE
  8
0
 10
89.5101460719862843
 20
25.6874794455596209
 30
0.0
 40
0.0068357091038768
 50
187.5664788037007895
 51
254.2548672302671946
  0
LINE
  5
2CFF
  8
0
 10
89.5132124028251468
 20
25.6865793436392593
 30
0.0
 11
89.5132124028251468
 21
25.7078759741558187
 31
0.0
  0
LINE
  5
2D00
  8
0
 10
89.5040417581251546
 20
25.7075543845525907
 30
0.0
 11
89.4797540759251291
 21
25.7191851045525901
 31
0.0
  0
LINE
  5
2D01
  8
0
 10
89.5125405279251538
 20
25.7075543845525907
 30
0.0
 11
89.5368344501251556
 21
25.7191825504525902
 31
0.0
  0
ARC
  5
2D02
  8
0
 10
89.5115310075799755
 20
25.7149615530203413
 30
0.0
 40
0.0074756455264322
 50
244.3171551859219903
 51
277.7610038572041731
  0
ARC
  5
2D03
  8
0
 10
89.5049210492814638
 20
25.715787433152169
 30
0.0
 40
0.0082798696958656
 50
263.9039076823893879
 51
294.0179332744651788
  0
LINE
  5
2D04
  8
0
 10
89.5368406899336833
 20
25.7191851044672717
 30
0.0
 11
89.5368344499336786
 21
25.7218865632672689
 31
0.0
  0
LINE
  5
2D05
  8
0
 10
89.5319131901336789
 20
25.7275656836256985
 30
0.0
 11
89.5319131901336789
 21
25.7488624668249884
 31
0.0
  0
ARC
  5
2D06
  8
0
 10
89.5349719977264584
 20
25.7284723042649794
 30
0.0
 40
0.0068440275731964
 50
285.790941212434916
 51
352.3877116012496913
  0
ARC
  5
2D07
  8
0
 10
89.5386893790862786
 20
25.728465784859619
 30
0.0
 40
0.0068357091038768
 50
187.5664788037007895
 51
254.2548672302671946
  0
LINE
  5
2D08
  8
0
 10
89.5417557099251553
 20
25.7275656829392609
 30
0.0
 11
89.5417557099251553
 21
25.7488623134558203
 31
0.0
  0
LINE
  5
2D09
  8
0
 10
89.5325850652251347
 20
25.7485407238525887
 30
0.0
 11
89.5082973830251376
 21
25.7601714438525917
 31
0.0
  0
LINE
  5
2D0A
  8
0
 10
89.5410838350251339
 20
25.7485407238525887
 30
0.0
 11
89.5653777572251357
 21
25.7601688897525882
 31
0.0
  0
ARC
  5
2D0B
  8
0
 10
89.540074314679984
 20
25.7559478923203393
 30
0.0
 40
0.0074756455264322
 50
244.3171551859219903
 51
277.7610038572041731
  0
ARC
  5
2D0C
  8
0
 10
89.5334643563814438
 20
25.7567737724521706
 30
0.0
 40
0.0082798696958656
 50
263.9039076823893879
 51
294.0179332744651788
  0
LINE
  5
2D0D
  8
0
 10
89.5939273040336843
 20
25.7191851044672717
 30
0.0
 11
89.5939210640336938
 21
25.7218865632672689
 31
0.0
  0
LINE
  5
2D0E
  8
0
 10
89.5889998042336657
 20
25.7275656836256985
 30
0.0
 11
89.5889998042336657
 21
25.7488624668249884
 31
0.0
  0
ARC
  5
2D0F
  8
0
 10
89.5920586118264737
 20
25.7284723042649794
 30
0.0
 40
0.0068440275731964
 50
285.790941212434916
 51
352.3877116012496913
  0
ARC
  5
2D10
  8
0
 10
89.5957759931862938
 20
25.728465784859619
 30
0.0
 40
0.0068357091038768
 50
187.5664788037007895
 51
254.2548672302671946
  0
LINE
  5
2D11
  8
0
 10
89.5988423240251279
 20
25.7275656829392609
 30
0.0
 11
89.5988423240251279
 21
25.7488623134558203
 31
0.0
  0
LINE
  5
2D12
  8
0
 10
89.58967167932515
 20
25.7485407238525887
 30
0.0
 11
89.5653839971251529
 21
25.7601714438525917
 31
0.0
  0
LINE
  5
2D13
  8
0
 10
89.5981704491251492
 20
25.7485407238525887
 30
0.0
 11
89.622464371325151
 21
25.7601688897525882
 31
0.0
  0
ARC
  5
2D14
  8
0
 10
89.5971609287799851
 20
25.7559478923203393
 30
0.0
 40
0.0074756455264322
 50
244.3171551859219903
 51
277.7610038572041731
  0
ARC
  5
2D15
  8
0
 10
89.5905509704814591
 20
25.7567737724521706
 30
0.0
 40
0.0082798696958656
 50
263.9039076823893879
 51
294.0179332744651788
  0
LINE
  5
2D16
  8
0
 10
89.6510139182336871
 20
25.7191851044672717
 30
0.0
 11
89.6510076782336824
 21
25.7218865632672689
 31
0.0
  0
LINE
  5
2D17
  8
0
 10
89.6460864184336685
 20
25.7275656836256985
 30
0.0
 11
89.6460864184336685
 21
25.7488624668249884
 31
0.0
  0
ARC
  5
2D18
  8
0
 10
89.6491452260264765
 20
25.7284723042649794
 30
0.0
 40
0.0068440275731964
 50
285.790941212434916
 51
352.3877116012496913
  0
ARC
  5
2D19
  8
0
 10
89.6528626073862966
 20
25.728465784859619
 30
0.0
 40
0.0068357091038768
 50
187.5664788037007895
 51
254.2548672302671946
  0
LINE
  5
2D1A
  8
0
 10
89.655928938225145
 20
25.7275656829392609
 30
0.0
 11
89.655928938225145
 21
25.7488623134558203
 31
0.0
  0
LINE
  5
2D1B
  8
0
 10
89.6467582935251528
 20
25.7485407238525887
 30
0.0
 11
89.6224706113251273
 21
25.7601714438525917
 31
0.0
  0
LINE
  5
2D1C
  8
0
 10
89.655257063325152
 20
25.7485407238525887
 30
0.0
 11
89.6722733836248267
 21
25.7566855015390992
 31
0.0
  0
ARC
  5
2D1D
  8
0
 10
89.6542475429799737
 20
25.7559478923203393
 30
0.0
 40
0.0074756455264322
 50
244.3171551859219903
 51
277.7610038572041731
  0
ARC
  5
2D1E
  8
0
 10
89.6476375846814619
 20
25.7567737724521706
 30
0.0
 40
0.0082798696958656
 50
263.9039076823893879
 51
294.0179332744651788
  0
LINE
  5
2D1F
  8
0
 10
89.6224706112447507
 20
25.7601714437141105
 30
0.0
 11
89.622464371244746
 21
25.7628729025141112
 31
0.0
  0
LINE
  5
2D20
  8
0
 10
89.6175431114447463
 20
25.7685520228725409
 30
0.0
 11
89.6175431114447463
 21
25.7898488060718307
 31
0.0
  0
ARC
  5
2D21
  8
0
 10
89.62060191903754
 20
25.7694586435118183
 30
0.0
 40
0.0068440275731964
 50
285.790941212434916
 51
352.3877116012496913
  0
ARC
  5
2D22
  8
0
 10
89.6243193003973602
 20
25.7694521241064614
 30
0.0
 40
0.0068357091038768
 50
187.5664788037007895
 51
254.2548672302671946
  0
LINE
  5
2D23
  8
0
 10
89.6273856312362227
 20
25.7685520221860997
 30
0.0
 11
89.6273856312362227
 21
25.7898486527026591
 31
0.0
  0
LINE
  5
2D24
  8
0
 10
89.6182149865362163
 20
25.7895270630994311
 30
0.0
 11
89.5939273043362192
 21
25.8011577830994305
 31
0.0
  0
LINE
  5
2D25
  8
0
 10
89.6267137563362155
 20
25.7895270630994311
 30
0.0
 11
89.636938920951863
 21
25.7944212876518399
 31
0.0
  0
ARC
  5
2D26
  8
0
 10
89.6257042359910514
 20
25.796934231567171
 30
0.0
 40
0.0074756455264322
 50
244.3171551859219903
 51
277.7610038572041731
  0
ARC
  5
2D27
  8
0
 10
89.6190942776925255
 20
25.7977601116989987
 30
0.0
 40
0.0082798696958656
 50
263.9039076823893879
 51
294.0179332744651788
  0
LINE
  5
2D28
  8
0
 10
89.5653839971447354
 20
25.7601714437141105
 30
0.0
 11
89.5653777571447449
 21
25.7628729025141112
 31
0.0
  0
LINE
  5
2D29
  8
0
 10
89.5604564973447452
 20
25.7685520228725409
 30
0.0
 11
89.5604564973447452
 21
25.7898488060718307
 31
0.0
  0
ARC
  5
2D2A
  8
0
 10
89.5635153049375248
 20
25.7694586435118183
 30
0.0
 40
0.0068440275731964
 50
285.790941212434916
 51
352.3877116012496913
  0
ARC
  5
2D2B
  8
0
 10
89.5672326862973449
 20
25.7694521241064614
 30
0.0
 40
0.0068357091038768
 50
187.5664788037007895
 51
254.2548672302671946
  0
LINE
  5
2D2C
  8
0
 10
89.5702990171362359
 20
25.7685520221860997
 30
0.0
 11
89.5702990171362359
 21
25.7898486527026591
 31
0.0
  0
LINE
  5
2D2D
  8
0
 10
89.5611283724362153
 20
25.7895270630994311
 30
0.0
 11
89.536840690236204
 21
25.8011577830994305
 31
0.0
  0
LINE
  5
2D2E
  8
0
 10
89.5696271422362145
 20
25.7895270630994311
 30
0.0
 11
89.5939210644362163
 21
25.8011552289994306
 31
0.0
  0
ARC
  5
2D2F
  8
0
 10
89.5686176218910646
 20
25.796934231567171
 30
0.0
 40
0.0074756455264322
 50
244.3171551859219903
 51
277.7610038572041731
  0
ARC
  5
2D30
  8
0
 10
89.5620076635925244
 20
25.7977601116989987
 30
0.0
 40
0.0082798696958656
 50
263.9039076823893879
 51
294.0179332744651788
  0
LINE
  5
2D31
  8
0
 10
89.5082973829447468
 20
25.7601714437141105
 30
0.0
 11
89.5082911429447563
 21
25.7628729025141112
 31
0.0
  0
LINE
  5
2D32
  8
0
 10
89.5033698831447566
 20
25.7685520228725409
 30
0.0
 11
89.5033698831447566
 21
25.7898488060718307
 31
0.0
  0
ARC
  5
2D33
  8
0
 10
89.5064286907375504
 20
25.7694586435118183
 30
0.0
 40
0.0068440275731964
 50
285.790941212434916
 51
352.3877116012496913
  0
ARC
  5
2D34
  8
0
 10
89.5101460720973705
 20
25.7694521241064614
 30
0.0
 40
0.0068357091038768
 50
187.5664788037007895
 51
254.2548672302671946
  0
LINE
  5
2D35
  8
0
 10
89.5132124029362046
 20
25.7685520221860997
 30
0.0
 11
89.5132124029362046
 21
25.7898486527026591
 31
0.0
  0
LINE
  5
2D36
  8
0
 10
89.5040417582362124
 20
25.7895270630994311
 30
0.0
 11
89.4797540760362153
 21
25.8011577830994305
 31
0.0
  0
LINE
  5
2D37
  8
0
 10
89.5125405280362116
 20
25.7895270630994311
 30
0.0
 11
89.5368344502362135
 21
25.8011552289994306
 31
0.0
  0
ARC
  5
2D38
  8
0
 10
89.5115310076910617
 20
25.796934231567171
 30
0.0
 40
0.0074756455264322
 50
244.3171551859219903
 51
277.7610038572041731
  0
ARC
  5
2D39
  8
0
 10
89.5049210493925216
 20
25.7977601116989987
 30
0.0
 40
0.0082798696958656
 50
263.9039076823893879
 51
294.0179332744651788
  0
LINE
  5
2D3A
  8
0
 10
89.5368406899336833
 20
25.8011577829672802
 30
0.0
 11
89.5368344499336786
 21
25.8038592417672703
 31
0.0
  0
LINE
  5
2D3B
  8
0
 10
89.5319131901336789
 20
25.8095383621257
 30
0.0
 11
89.5319131901336789
 21
25.8308351453249898
 31
0.0
  0
ARC
  5
2D3C
  8
0
 10
89.5349719977264584
 20
25.8104449827649809
 30
0.0
 40
0.0068440275731964
 50
285.790941212434916
 51
352.3877116012496913
  0
ARC
  5
2D3D
  8
0
 10
89.5386893790862786
 20
25.8104384633596204
 30
0.0
 40
0.0068357091038768
 50
187.5664788037007895
 51
254.2548672302671946
  0
LINE
  5
2D3E
  8
0
 10
89.5417557099251553
 20
25.8095383614392588
 30
0.0
 11
89.5417557099251553
 21
25.8308349919558182
 31
0.0
  0
LINE
  5
2D3F
  8
0
 10
89.5325850652251347
 20
25.8305134023525902
 30
0.0
 11
89.5082973830251376
 21
25.8421441223525896
 31
0.0
  0
LINE
  5
2D40
  8
0
 10
89.5410838350251339
 20
25.8305134023525902
 30
0.0
 11
89.5595340685850516
 21
25.8393445155405708
 31
0.0
  0
ARC
  5
2D41
  8
0
 10
89.540074314679984
 20
25.8379205708203408
 30
0.0
 40
0.0074756455264322
 50
244.3171551859219903
 51
277.7610038572041731
  0
ARC
  5
2D42
  8
0
 10
89.5334643563814438
 20
25.8387464509521685
 30
0.0
 40
0.0082798696958656
 50
263.9039076823893879
 51
294.0179332744651788
  0
LINE
  5
2D43
  8
0
 10
89.5939273040336843
 20
25.8011577829672802
 30
0.0
 11
89.5939210640336938
 21
25.8038592417672703
 31
0.0
  0
LINE
  5
2D44
  8
0
 10
89.5889998042336657
 20
25.8095383621257
 30
0.0
 11
89.5889998042336657
 21
25.8261678201182896
 31
0.0
  0
ARC
  5
2D45
  8
0
 10
89.5920586118264737
 20
25.8104449827649809
 30
0.0
 40
0.0068440275731964
 50
285.790941212434916
 51
352.3877116012496913
  0
ARC
  5
2D46
  8
0
 10
89.5957759931862938
 20
25.8104384633596204
 30
0.0
 40
0.0068357091038768
 50
187.5664788037007895
 51
254.2548672302671946
  0
LINE
  5
2D47
  8
0
 10
89.5988423240251279
 20
25.8095383614392588
 30
0.0
 11
89.5988423240251279
 21
25.8208733728793405
 31
0.0
  0
LINE
  5
2D48
  8
0
 10
89.6510139182336871
 20
25.6372124258672685
 30
0.0
 11
89.6510076782336824
 21
25.6399138846672692
 31
0.0
  0
LINE
  5
2D49
  8
0
 10
89.6460864184336685
 20
25.6455930050256988
 30
0.0
 11
89.6460864184336685
 21
25.6668897882249993
 31
0.0
  0
ARC
  5
2D4A
  8
0
 10
89.6491452260264765
 20
25.6464996256649798
 30
0.0
 40
0.0068440275731964
 50
285.790941212434916
 51
352.3877116012496913
  0
ARC
  5
2D4B
  8
0
 10
89.6528626073862966
 20
25.6464931062596193
 30
0.0
 40
0.0068357091038768
 50
187.5664788037007895
 51
254.2548672302671946
  0
LINE
  5
2D4C
  8
0
 10
89.655928938225145
 20
25.6455930043392613
 30
0.0
 11
89.655928938225145
 21
25.6668896348558206
 31
0.0
  0
LINE
  5
2D4D
  8
0
 10
89.6467582935251528
 20
25.6665680452525891
 30
0.0
 11
89.6224706113251273
 21
25.6781987652525885
 31
0.0
  0
LINE
  5
2D4E
  8
0
 10
89.655257063325152
 20
25.6665680452525891
 30
0.0
 11
89.6795509855251538
 21
25.6781962111525885
 31
0.0
  0
ARC
  5
2D4F
  8
0
 10
89.6542475429799737
 20
25.6739752137203396
 30
0.0
 40
0.0074756455264322
 50
244.3171551859219903
 51
277.7610038572041731
  0
ARC
  5
2D50
  8
0
 10
89.6476375846814619
 20
25.6748010938521709
 30
0.0
 40
0.0082798696958656
 50
263.9039076823893879
 51
294.0179332744651788
  0
LINE
  5
2D51
  8
0
 10
89.508297382833689
 20
25.8421441222672712
 30
0.0
 11
89.5082911428336843
 21
25.8448455810672684
 31
0.0
  0
LINE
  5
2D52
  8
0
 10
89.5033698830336846
 20
25.8505247014257016
 30
0.0
 11
89.5033698830336846
 21
25.85478543000022
 31
0.0
  0
ARC
  5
2D53
  8
0
 10
89.5064286906264641
 20
25.851431322064979
 30
0.0
 40
0.0068440275731964
 50
285.790941212434916
 51
352.3877116012496913
  0
ARC
  5
2D54
  8
0
 10
89.5101460719862843
 20
25.8514248026596185
 30
0.0
 40
0.0068357091038768
 50
187.5664788037007895
 51
254.2548672302671946
  0
LINE
  5
2D55
  8
0
 10
89.5132124028251468
 20
25.8505247007392605
 30
0.0
 11
89.5132124028251468
 21
25.8529216967851205
 31
0.0
  0
LINE
  5
2D56
  8
0
 10
89.4846690955336754
 20
25.6668950226770782
 30
0.0
 11
89.4846690955336754
 21
25.6450213550672714
 31
0.0
  0
LINE
  5
2D57
  8
0
 10
89.4797478357336757
 20
25.6372098718672703
 30
0.0
 11
89.4554551785336827
 21
25.6255878521672713
 31
0.0
  0
ARC
  5
2D58
  8
0
 10
89.4543764569677649
 20
25.6283732742123789
 30
0.0
 40
0.0029922845273026
 50
254.3273489224787056
 51
291.1050035446177162
  0
LINE
  5
2D59
  8
0
 10
89.45356811854829
 20
25.6254922404236289
 30
0.0
 11
89.4512045286836894
 21
25.6262517716433393
 31
0.0
  0
ARC
  5
2D5A
  8
0
 10
89.4666486464082595
 20
25.6508944015172204
 30
0.0
 40
0.0189434715066553
 50
313.7480382232815828
 51
341.9526329186862199
  0
LINE
  5
2D5B
  8
0
 10
89.5082911428336843
 20
25.6781962111672684
 30
0.0
 11
89.4839984855336752
 21
25.6665741914672694
 31
0.0
  0
LINE
  5
2D5C
  8
0
 10
89.4797478357336757
 20
25.6674076007659515
 30
0.0
 11
89.4512045286836894
 21
25.6809002240433415
 31
0.0
  0
LINE
  5
2D5D
  8
0
 10
89.4797478357336757
 20
25.71918255046727
 30
0.0
 11
89.4554551785336827
 21
25.707560530767271
 31
0.0
  0
LINE
  5
2D5E
  8
0
 10
89.4797478357336757
 20
25.8011552289672714
 30
0.0
 11
89.4554462907659769
 21
25.7895289223505202
 31
0.0
  0
ARC
  5
2D5F
  8
0
 10
89.454128533511124
 20
25.7949208320194501
 30
0.0
 40
0.0055554637014381
 50
238.2422068675348044
 51
283.7441268381098212
  0
LINE
  5
2D60
  8
0
 10
89.4797478357336757
 20
25.5552371932672706
 30
0.0
 11
89.4554551785336827
 21
25.5436151735672716
 31
0.0
  0
ARC
  5
2D61
  8
0
 10
89.4543127714904927
 20
25.5502401250162912
 30
0.0
 40
0.0067227282820415
 50
242.4612485679157885
 51
279.7838687109781972
  0
LINE
  5
2D62
  8
0
 10
89.4797478357336757
 20
25.4732645147672692
 30
0.0
 11
89.4554539136336757
 21
25.4616363487672714
 31
0.0
  0
ARC
  5
2D63
  8
0
 10
89.4529087691600751
 20
25.5613749481555885
 30
0.0
 40
0.2977180459254361
 50
59.4626684193253183
 51
90.3279825557672496
  0
ARC
  5
2D64
  8
0
 10
89.4862733662489234
 20
25.6179324952407796
 30
0.0
 40
0.2320525871880231
 50
31.8792542942230597
 51
59.4626684193252117
  0
ARC
  5
2D65
  8
0
 10
89.5274035934717176
 20
25.6435131491963517
 30
0.0
 40
0.1836163874176852
 50
355.8890047871652769
 51
31.8792542942228891
  0
ARC
  5
2D66
  8
0
 10
89.5257925571182369
 20
25.6436289404730502
 30
0.0
 40
0.185231579589523
 50
320.2825525577283088
 51
355.88900478716522
  0
LINE
  5
2D67
  8
0
 10
89.7358114889336775
 20
25.4872613513672697
 30
0.0
 11
89.7358114889336775
 21
25.4696489764672798
 31
0.0
  0
ARC
  5
2D68
  8
0
 10
89.747708469882383
 20
25.4724406896406492
 30
0.0
 40
0.012220139857464
 50
193.2059409564610917
 51
243.5295175604113069
  0
LINE
  5
2D69
  8
0
 10
89.7898303737336647
 20
25.8270315027672694
 30
0.0
 11
89.7422615050680434
 21
25.7994178525872186
 31
0.0
  0
LINE
  5
2D6A
  8
0
 10
89.6504884676336786
 20
25.8884250878672688
 30
0.0
 11
89.6854178624336953
 21
25.9297810846672796
 31
0.0
  0
LINE
  5
2D6B
  8
0
 10
89.6883128979844741
 20
25.9111933043090197
 30
0.0
 11
89.6550048175336798
 21
25.8717569249672685
 31
0.0
  0
LINE
  5
2D6C
  8
0
 10
89.6504884676336786
 20
25.8884250878672688
 30
0.0
 11
89.6504884676336786
 21
25.8708127129672683
 31
0.0
  0
LINE
  5
2D6D
  8
0
 10
89.5243555326336775
 20
25.982379992967271
 30
0.0
 11
89.524355532617804
 21
25.9787973428344507
 31
0.0
  0
LINE
  5
2D6E
  8
0
 10
89.6510019525251636
 20
25.5552394001525904
 30
0.0
 11
89.680176901469423
 21
25.5412755707362216
 31
0.0
  0
LINE
  5
2D6F
  8
0
 10
89.6224643711336881
 20
25.514250853967269
 30
0.0
 11
89.6443831924336791
 21
25.5037595183672714
 31
0.0
  0
LINE
  5
2D70
  8
0
 10
89.6224643711336881
 20
25.514250853967269
 30
0.0
 11
89.5981628261623229
 21
25.5026245473487592
 31
0.0
  0
LINE
  5
2D71
  8
0
 10
89.589670406833676
 20
25.5026282445672692
 30
0.0
 11
89.5653777570336871
 21
25.514250853967269
 31
0.0
  0
LINE
  5
2D72
  8
0
 10
89.5368344499336786
 20
25.4732645147672692
 30
0.0
 11
89.5693719250336642
 21
25.4576917024672689
 31
0.0
  0
LINE
  5
2D73
  8
0
 10
89.5368344499336786
 20
25.4732645147672692
 30
0.0
 11
89.5125329051116978
 21
25.461638208170001
 31
0.0
  0
LINE
  5
2D74
  8
0
 10
89.5040417578336758
 20
25.4616363487672714
 30
0.0
 11
89.4797478357336757
 21
25.4732645147672692
 31
0.0
  0
ARC
  5
2D75
  8
0
 10
89.4524970939018687
 20
25.7282582629774588
 30
0.0
 40
0.3000105276789248
 50
269.7531461264413792
 51
298.5067096428804234
  0
ARC
  5
2D76
  8
0
 10
89.4811736323230207
 20
25.6754573957342416
 30
0.0
 40
0.239924960048631
 50
298.5067096428803097
 51
321.2447464410028033
  0
ARC
  5
2D77
  8
0
 10
89.451290960633699
 20
25.7654604919671186
 30
0.0
 40
0.3186041715998489
 50
270.8694985355579092
 51
279.4077633417413722
  0
ARC
  5
2D78
  8
0
 10
89.4537221658336534
 20
25.7528220705673796
 30
0.0
 40
0.3057292396001142
 50
281.220464796066608
 51
289.3948422486975005
  0
ARC
  5
2D79
  8
0
 10
89.4715239390337445
 20
25.7145022220671713
 30
0.0
 40
0.2633422665998801
 50
298.9123539024370189
 51
308.4172801483024955
  0
LINE
  5
2D7A
  8
0
 10
89.6507888495702048
 20
25.5217029002479485
 30
0.0
 11
89.6507675392336836
 21
25.5105288313672709
 31
0.0
  0
ARC
  5
2D7B
  8
0
 10
89.6418951328967637
 20
25.5125013768623887
 30
0.0
 40
0.0090890335134117
 50
285.887120720401299
 51
347.4656555387944081
  0
LINE
  5
2D7C
  8
0
 10
89.6795572253336815
 20
25.5962260866672686
 30
0.0
 11
89.7017060408126667
 21
25.5856187316152699
 31
0.0
  0
LINE
  5
2D7D
  8
0
 10
89.6507888496336847
 20
25.5217029335294185
 30
0.0
 11
89.6725625874913419
 21
25.5449200423401486
 31
0.0
  0
ARC
  5
2D7E
  8
0
 10
89.5968325819279556
 20
25.5079775987002613
 30
0.0
 40
0.0055158597240048
 50
238.1400477650124117
 51
283.955437426030187
  0
ARC
  5
2D7F
  8
0
 10
89.5910078477944865
 20
25.5079583366221208
 30
0.0
 40
0.0055004083658434
 50
255.9409529625621076
 51
301.9808877418743123
  0
LINE
  5
2D80
  8
0
 10
89.579095759133665
 20
25.4740457656672703
 30
0.0
 11
89.579095759133665
 21
25.4632033674672691
 31
0.0
  0
LINE
  5
2D81
  8
0
 10
89.5988423239336953
 20
25.5029496315952784
 30
0.0
 11
89.5988423239336953
 21
25.4731404575672684
 31
0.0
  0
LINE
  5
2D82
  8
0
 10
89.5889998042336657
 20
25.50294908861461
 30
0.0
 11
89.5889998042336657
 21
25.4679438897672696
 31
0.0
  0
LINE
  5
2D83
  8
0
 10
89.513212402633684
 20
25.4619579383732706
 30
0.0
 11
89.513212402633684
 21
25.4420942281672708
 31
0.0
  0
LINE
  5
2D84
  8
0
 10
89.5033698829336828
 20
25.4402991411672694
 30
0.0
 11
89.5033698829336828
 21
25.4619579383745887
 31
0.0
  0
LINE
  5
2D85
  8
0
 10
89.4561257884336811
 20
25.46195793832673
 30
0.0
 11
89.4561257884336811
 21
25.4357390253664697
 31
0.0
  0
ARC
  5
2D86
  8
0
 10
89.4433042445017747
 20
25.7588544636120496
 30
0.0
 40
0.6305179211176358
 50
66.5191530385782528
 51
89.2820746761475874
  0
ARC
  5
2D87
  8
0
 10
89.4996540670666008
 20
25.907080694947151
 30
0.0
 40
0.4721712632009674
 50
27.3634307316128584
 51
65.6240797939201457
  0
ARC
  5
2D88
  8
0
 10
89.6447763366658421
 20
25.9821874613383308
 30
0.0
 40
0.3087653285126159
 50
2.8000351329323419
 51
27.3634307316128584
  0
ARC
  5
2D89
  8
0
 10
89.4413571411027704
 20
25.3410116875880007
 30
0.0
 40
0.6467163490602373
 50
82.6264280509702331
 51
89.1275378295110556
  0
ARC
  5
2D8A
  8
0
 10
89.4493401470377449
 20
25.4797837747791398
 30
0.0
 40
0.508163621890745
 50
62.3175852351217401
 51
81.5109418527539447
  0
ARC
  5
2D8B
  8
0
 10
89.5049138155551987
 20
25.5857149987048196
 30
0.0
 40
0.3885398080622184
 50
41.414485092244341
 51
62.3175852351217401
  0
ARC
  5
2D8C
  8
0
 10
89.5531766876519129
 20
25.6282861339618506
 30
0.0
 40
0.324184494527941
 50
15.1700313056854394
 51
41.414485092244341
  0
ARC
  5
2D8D
  8
0
 10
89.522823917356888
 20
25.6744673291192207
 30
0.0
 40
0.4417560145221809
 50
297.3959683789902897
 51
331.9671916355774783
  0
ARC
  5
2D8E
  8
0
 10
89.6005334406883946
 20
25.6330913475607716
 30
0.0
 40
0.353717716797075
 50
331.967191635577592
 51
355.5254007634454183
  0
ARC
  5
2D8F
  8
0
 10
89.4423643679546672
 20
25.7703264972964092
 30
0.0
 40
0.3751736987750777
 50
271.3501766848528973
 51
341.4721290201936768
  0
ARC
  5
2D90
  8
0
 10
89.5103611416335667
 20
25.6745676772704599
 30
0.0
 40
0.2310711750333412
 50
283.5332487988047205
 51
60.7453535484415426
  0
ARC
  5
2D91
  8
0
 10
89.4503367411842873
 20
25.5693946688644296
 30
0.0
 40
0.3521648210843093
 50
60.5873001683600734
 51
89.8588143797875034
  0
ARC
  5
2D92
  8
0
 10
89.4512045286336956
 20
25.4757338005672196
 30
0.0
 40
0.4974384492000538
 50
81.7028668574561436
 51
89.9999999942410085
  0
ARC
  5
2D93
  8
0
 10
89.4567579829763844
 20
25.9818280789190794
 30
0.0
 40
0.0676654570759226
 50
348.1782062449478872
 51
357.432862926981727
  0
ARC
  5
2D94
  8
0
 10
89.4896965595141722
 20
25.58794901272584
 30
0.0
 40
0.3243796171204798
 50
40.5334325129940609
 51
60.1700822166398268
  0
ARC
  5
2D95
  8
0
 10
89.536999333090435
 20
25.646061124014139
 30
0.0
 40
0.262505208279245
 50
12.4140475857404091
 51
36.6040188037597218
  0
ARC
  5
2D96
  8
0
 10
89.6521930726536169
 20
25.8706295204786798
 30
0.0
 40
0.0017144205323931
 50
173.8660128504043882
 51
228.2621285600108934
  0
ARC
  5
2D97
  8
0
 10
89.6501271555980566
 20
25.875318751194019
 30
0.0
 40
0.0060397178764932
 50
278.8057150624350129
 51
323.8618745670283943
  0
ARC
  5
2D98
  8
0
 10
89.6736833656315184
 20
25.9238908293138905
 30
0.0
 40
0.019371379871233
 50
319.0440499074272225
 51
351.2491451812447281
  0
ARC
  5
2D99
  8
0
 10
89.7847276235454359
 20
25.8376980278153496
 30
0.0
 40
0.0118242469563601
 50
295.5659480566469028
 51
347.6985927419744939
  0
LINE
  5
2D9A
  8
0
 10
89.796280389833683
 20
25.8351788201672683
 30
0.0
 11
89.796280389833683
 21
25.8427533262792402
 31
0.0
  0
LINE
  5
2D9B
  8
0
 10
89.6928292479336733
 20
25.9209437037672785
 30
0.0
 11
89.6928292479336733
 21
25.9257899503302482
 31
0.0
  0
ARC
  5
2D9C
  8
0
 10
89.7383426232147059
 20
25.8073894528077012
 30
0.0
 40
0.0088827948898769
 50
256.2664622093635103
 51
296.1789813170834123
  0
ARC
  5
2D9D
  8
0
 10
89.4516034476144739
 20
25.4395997476692592
 30
0.0
 40
0.0059461536462176
 50
266.1532184048393788
 51
319.5126146548171846
  0
ARC
  5
2D9E
  8
0
 10
89.4544505652482229
 20
25.4690826587058083
 30
0.0
 40
0.0075136036416179
 50
244.4040962082970054
 51
277.6740632497833872
  0
LINE
  5
2D9F
  8
0
 10
89.4797478357336757
 20
25.8311834680672803
 30
0.0
 11
89.4797478357336757
 21
25.8494888732672692
 31
0.0
  0
LINE
  5
2DA0
  8
0
 10
89.4797478357336757
 20
25.8494888732672692
 30
0.0
 11
89.4938916158662749
 21
25.8562587238122283
 31
0.0
  0
LINE
  5
2DA1
  8
0
 10
89.4797478357336757
 20
25.8494888732672692
 30
0.0
 11
89.4598517738991177
 21
25.8590120250711806
 31
0.0
  0
ARC
  5
2DA2
  8
0
 10
89.4542256128710846
 20
25.7135741028548814
 30
0.0
 40
0.0061437555476629
 50
240.5454834237536943
 51
281.5326725903134957
  0
ARC
  5
2DA3
  8
0
 10
89.4827179133460504
 20
25.6712667140243802
 30
0.0
 40
0.0048697141769222
 50
232.4171492610383041
 51
285.2307380583096119
  0
ARC
  5
2DA4
  8
0
 10
89.5112026605197144
 20
25.4669912587521985
 30
0.0
 40
0.0055158590636553
 50
238.140046049010806
 51
283.9554429583458273
  0
ARC
  5
2DA5
  8
0
 10
89.5053027367930554
 20
25.4674488316104188
 30
0.0
 40
0.0059476907063019
 50
257.7597413229523227
 51
300.1620992189522212
  0
ARC
  5
2DA6
  8
0
 10
89.5075477111689963
 20
25.445272944098221
 30
0.0
 40
0.00649561116137
 50
229.9708634307621082
 51
330.7012358513071035
  0
ARC
  5
2DA7
  8
0
 10
89.569576711540833
 20
25.4686637753919882
 30
0.0
 40
0.0109739838608851
 50
268.9307362014657201
 51
330.1601394775938161
  0
ARC
  5
2DA8
  8
0
 10
89.5908158042149552
 20
25.4764236674932008
 30
0.0
 40
0.0086720520185891
 50
257.9123185255825774
 51
337.7532164199687941
  0
LINE
  5
2DA9
  8
0
 10
89.579095759133665
 20
25.474045765566391
 30
0.0
 11
89.541755709733664
 21
25.4919183960835305
 31
0.0
  0
LINE
  5
2DAA
  8
0
 10
89.579095759133665
 20
25.4740457656672703
 30
0.0
 11
89.5889998042336657
 21
25.4786921542076001
 31
0.0
  0
LINE
  5
2DAB
  8
0
 10
89.6507888281038561
 20
25.5217029105724116
 30
0.0
 11
89.6273856310336754
 21
25.5329047353672713
 31
0.0
  0
LINE
  5
2DAC
  8
0
 10
89.6795509853336767
 20
25.6781962111672684
 30
0.0
 11
89.7099108430575995
 21
25.6636646150715109
 31
0.0
  0
LINE
  5
2DAD
  8
0
 10
89.4512045286836894
 20
25.8085025339911986
 30
0.0
 11
89.4748265759336761
 21
25.8197400572672713
 31
0.0
  0
LINE
  5
2DAE
  8
0
 10
89.4512045286836894
 20
25.7265298554433386
 30
0.0
 11
89.4748265759336761
 21
25.7377673787172689
 31
0.0
  0
LINE
  5
2DAF
  8
0
 10
89.4561257884336811
 20
25.5328356822672689
 30
0.0
 11
89.4797478357336757
 21
25.5215981589672793
 31
0.0
  0
LINE
  5
2DB0
  8
0
 10
89.4797478357336757
 20
25.5215981589672793
 30
0.0
 11
89.5033698829336828
 21
25.5328356822672689
 31
0.0
  0
LINE
  5
2DB1
  8
0
 10
89.5082911428336843
 20
25.4806118197672795
 30
0.0
 11
89.5319131901336789
 21
25.4922960395253497
 31
0.0
  0
LINE
  5
2DB2
  8
0
 10
89.5082911428336843
 20
25.4806118197672795
 30
0.0
 11
89.4846690957251383
 21
25.4922959624975398
 31
0.0
  0
LINE
  5
2DB3
  8
0
 10
89.5368344499336786
 20
25.5215981589672793
 30
0.0
 11
89.5604564972336874
 21
25.5332823787253496
 31
0.0
  0
LINE
  5
2DB4
  8
0
 10
89.5368344499336786
 20
25.5215981589672793
 30
0.0
 11
89.513212402633684
 21
25.5328356822672689
 31
0.0
  0
LINE
  5
2DB5
  8
0
 10
89.5889998042336657
 20
25.5742687180253512
 30
0.0
 11
89.5653777570336871
 21
25.5625844982672703
 31
0.0
  0
LINE
  5
2DB6
  8
0
 10
89.5653777570336871
 20
25.5625844982672703
 30
0.0
 11
89.541755709733664
 21
25.5738220215672705
 31
0.0
  0
LINE
  5
2DB7
  8
0
 10
89.5319131901336789
 20
25.5742687180253512
 30
0.0
 11
89.5082911428336843
 21
25.5625844982672703
 31
0.0
  0
LINE
  5
2DB8
  8
0
 10
89.5082911428336843
 20
25.5625844982672703
 30
0.0
 11
89.4846690955336754
 21
25.5738220215672705
 31
0.0
  0
LINE
  5
2DB9
  8
0
 10
89.5604564972336874
 20
25.6152550573253492
 30
0.0
 11
89.5368344499336786
 21
25.6035708375672684
 31
0.0
  0
LINE
  5
2DBA
  8
0
 10
89.5368344499336786
 20
25.6035708375672684
 30
0.0
 11
89.5132124028251468
 21
25.6152549802975393
 31
0.0
  0
LINE
  5
2DBB
  8
0
 10
89.5889998042336657
 20
25.6562413966253509
 30
0.0
 11
89.5653777570336871
 21
25.64455717686727
 31
0.0
  0
LINE
  5
2DBC
  8
0
 10
89.5653777570336871
 20
25.64455717686727
 30
0.0
 11
89.5417557099251553
 21
25.656241319597541
 31
0.0
  0
LINE
  5
2DBD
  8
0
 10
89.6175431113336742
 20
25.6972277359253383
 30
0.0
 11
89.5939210640336938
 21
25.6855435161672716
 31
0.0
  0
LINE
  5
2DBE
  8
0
 10
89.5939210640336938
 20
25.6855435161672716
 30
0.0
 11
89.5702990170251496
 21
25.697227658897539
 31
0.0
  0
LINE
  5
2DBF
  8
0
 10
89.6746297255336771
 20
25.6968500924672796
 30
0.0
 11
89.6510076782336824
 21
25.6855435161672716
 31
0.0
  0
LINE
  5
2DC0
  8
0
 10
89.6510076782336824
 20
25.6855435161672716
 30
0.0
 11
89.6273856310336754
 21
25.6968500924672796
 31
0.0
  0
LINE
  5
2DC1
  8
0
 10
89.5319131900336771
 20
25.6557947001172693
 30
0.0
 11
89.5082911428336843
 21
25.64455717686727
 31
0.0
  0
LINE
  5
2DC2
  8
0
 10
89.5082911428336843
 20
25.64455717686727
 30
0.0
 11
89.4846690955336754
 21
25.6559581888721802
 31
0.0
  0
LINE
  5
2DC3
  8
0
 10
89.5033698830336846
 20
25.6152550573253492
 30
0.0
 11
89.4797478357336757
 21
25.6035708375672684
 31
0.0
  0
LINE
  5
2DC4
  8
0
 10
89.4797478357336757
 20
25.6035708375672684
 30
0.0
 11
89.4561257884336811
 21
25.6148083608172712
 31
0.0
  0
LINE
  5
2DC5
  8
0
 10
89.6175431113336742
 20
25.5328356822672689
 30
0.0
 11
89.5939210640336938
 21
25.5215981589672793
 31
0.0
  0
LINE
  5
2DC6
  8
0
 10
89.5939210640336938
 20
25.5215981589672793
 30
0.0
 11
89.5702990170251496
 21
25.5332823016975397
 31
0.0
  0
LINE
  5
2DC7
  8
0
 10
89.6175431113336742
 20
25.6148083608172712
 30
0.0
 11
89.5939210640336938
 21
25.6035708375672684
 31
0.0
  0
LINE
  5
2DC8
  8
0
 10
89.5939210640336938
 20
25.6035708375672684
 30
0.0
 11
89.5702990170251496
 21
25.6152549802975393
 31
0.0
  0
LINE
  5
2DC9
  8
0
 10
89.6460864184336685
 20
25.5738220215672705
 30
0.0
 11
89.6224643711336881
 21
25.5625844982672703
 31
0.0
  0
LINE
  5
2DCA
  8
0
 10
89.6224643711336881
 20
25.5625844982672703
 30
0.0
 11
89.5988423239336953
 21
25.5738220215672705
 31
0.0
  0
LINE
  5
2DCB
  8
0
 10
89.5604564971336856
 20
25.6968500924672796
 30
0.0
 11
89.5368344499336786
 21
25.6855435161672716
 31
0.0
  0
LINE
  5
2DCC
  8
0
 10
89.5368344499336786
 20
25.6855435161672716
 30
0.0
 11
89.5132124028251468
 21
25.697227658897539
 31
0.0
  0
LINE
  5
2DCD
  8
0
 10
89.5889998042336657
 20
25.7377673787172689
 30
0.0
 11
89.5653777570336871
 21
25.7265298554672697
 31
0.0
  0
LINE
  5
2DCE
  8
0
 10
89.5653777570336871
 20
25.7265298554672697
 30
0.0
 11
89.5417557099251553
 21
25.7382139981975406
 31
0.0
  0
LINE
  5
2DCF
  8
0
 10
89.6175431113336742
 20
25.7787537180172706
 30
0.0
 11
89.5939210640336938
 21
25.7675161947672713
 31
0.0
  0
LINE
  5
2DD0
  8
0
 10
89.5939210640336938
 20
25.7675161947672713
 30
0.0
 11
89.5702990171362359
 21
25.7788227709224707
 31
0.0
  0
LINE
  5
2DD1
  8
0
 10
89.541755709733664
 20
25.8197400572672713
 30
0.0
 11
89.5653777570336871
 21
25.8085025339672711
 31
0.0
  0
LINE
  5
2DD2
  8
0
 10
89.5653777570336871
 20
25.8085025339672711
 30
0.0
 11
89.5889998042336657
 21
25.8198091103672702
 31
0.0
  0
LINE
  5
2DD3
  8
0
 10
89.6510076782336824
 20
25.7675161947672713
 30
0.0
 11
89.6599716933799726
 21
25.7718067763033787
 31
0.0
  0
LINE
  5
2DD4
  8
0
 10
89.6510076782336824
 20
25.7675161947672713
 30
0.0
 11
89.6273856310336754
 21
25.7787537180172706
 31
0.0
  0
LINE
  5
2DD5
  8
0
 10
89.6795509853336767
 20
25.7265298554672697
 30
0.0
 11
89.655928938225145
 21
25.7378364317235011
 31
0.0
  0
LINE
  5
2DD6
  8
0
 10
89.6795509853336767
 20
25.7265298554672697
 30
0.0
 11
89.6888486439704735
 21
25.7309801338121211
 31
0.0
  0
LINE
  5
2DD7
  8
0
 10
89.6559289381336839
 20
25.6557947001172693
 30
0.0
 11
89.6795509853336767
 21
25.64455717686727
 31
0.0
  0
LINE
  5
2DD8
  8
0
 10
89.6795509853336767
 20
25.64455717686727
 30
0.0
 11
89.710340545294585
 21
25.6592944478145206
 31
0.0
  0
LINE
  5
2DD9
  8
0
 10
89.6460864184336685
 20
25.6557947001172693
 30
0.0
 11
89.6224643711336881
 21
25.64455717686727
 31
0.0
  0
LINE
  5
2DDA
  8
0
 10
89.6224643711336881
 20
25.64455717686727
 30
0.0
 11
89.5988423239336953
 21
25.6557947001172693
 31
0.0
  0
LINE
  5
2DDB
  8
0
 10
89.6746297255336771
 20
25.6148083608172712
 30
0.0
 11
89.6510076782336824
 21
25.6035708375672684
 31
0.0
  0
LINE
  5
2DDC
  8
0
 10
89.6510076782336824
 20
25.6035708375672684
 30
0.0
 11
89.6273856310336754
 21
25.6148083608172712
 31
0.0
  0
LINE
  5
2DDD
  8
0
 10
89.6844722451336764
 20
25.6148083608172712
 30
0.0
 11
89.7067816571679657
 21
25.6042121453164206
 31
0.0
  0
LINE
  5
2DDE
  8
0
 10
89.6559289381336839
 20
25.5738220215672705
 30
0.0
 11
89.6837702390835148
 21
25.5605649732624798
 31
0.0
  0
LINE
  5
2DDF
  8
0
 10
89.6837702390835148
 20
25.5605649732624798
 30
0.0
 11
89.6837702391522953
 21
25.5469139465145894
 31
0.0
  0
ARC
  5
2DE0
  8
0
 10
89.5577956301614648
 20
25.647455762269459
 30
0.0
 40
0.1530346735295997
 50
325.4040903711493229
 51
336.802071757892179
  0
LINE
  5
2DE1
  8
0
 10
89.5033698829336828
 20
25.6967810394172815
 30
0.0
 11
89.4797478357336757
 21
25.6855435161672716
 31
0.0
  0
LINE
  5
2DE2
  8
0
 10
89.4797478357336757
 20
25.6855435161672716
 30
0.0
 11
89.4561257884336811
 21
25.6967810394172815
 31
0.0
  0
LINE
  5
2DE3
  8
0
 10
89.5319131900336771
 20
25.7377673787172689
 30
0.0
 11
89.5082911428336843
 21
25.7265298554672697
 31
0.0
  0
LINE
  5
2DE4
  8
0
 10
89.5082911428336843
 20
25.7265298554672697
 30
0.0
 11
89.4846690955336754
 21
25.7377673787172689
 31
0.0
  0
LINE
  5
2DE5
  8
0
 10
89.5033698829336828
 20
25.7787537180172706
 30
0.0
 11
89.4797478357336757
 21
25.7675161947672713
 31
0.0
  0
LINE
  5
2DE6
  8
0
 10
89.4797478357336757
 20
25.7675161947672713
 30
0.0
 11
89.4561257884336811
 21
25.7787537180172706
 31
0.0
  0
LINE
  5
2DE7
  8
0
 10
89.5604564971336856
 20
25.7787537180172706
 30
0.0
 11
89.5368344499336786
 21
25.7675161947672713
 31
0.0
  0
LINE
  5
2DE8
  8
0
 10
89.5368344499336786
 20
25.7675161947672713
 30
0.0
 11
89.513212402633684
 21
25.7787537180172706
 31
0.0
  0
LINE
  5
2DE9
  8
0
 10
89.5319131900336771
 20
25.8197400572672713
 30
0.0
 11
89.5082911428336843
 21
25.8085025339672711
 31
0.0
  0
LINE
  5
2DEA
  8
0
 10
89.5082911428336843
 20
25.8085025339672711
 30
0.0
 11
89.4846690955336754
 21
25.8199008520688906
 31
0.0
  0
LINE
  5
2DEB
  8
0
 10
89.6460864184336685
 20
25.7377673787172689
 30
0.0
 11
89.6224643711336881
 21
25.7265298554672697
 31
0.0
  0
LINE
  5
2DEC
  8
0
 10
89.6224643711336881
 20
25.7265298554672697
 30
0.0
 11
89.5988423239336953
 21
25.7377673787172689
 31
0.0
  0
LINE
  5
2DED
  8
0
 10
89.4797478359251528
 20
25.5032927538525911
 30
0.0
 11
89.4797478357336757
 21
25.5215981589672793
 31
0.0
  0
LINE
  5
2DEE
  8
0
 10
89.4797478357336757
 20
25.6035708375672684
 30
0.0
 11
89.4797478359251528
 21
25.585265432352589
 31
0.0
  0
LINE
  5
2DEF
  8
0
 10
89.4797478359251528
 20
25.7492107895525884
 30
0.0
 11
89.4797478357336757
 21
25.7675161947672713
 31
0.0
  0
LINE
  5
2DF0
  8
0
 10
89.5082911431353523
 20
25.7901971287990506
 30
0.0
 11
89.5082911428336843
 21
25.8085025339672711
 31
0.0
  0
LINE
  5
2DF1
  8
0
 10
89.5653777573365062
 20
25.7901971287995586
 30
0.0
 11
89.5653777570336871
 21
25.8085025339672711
 31
0.0
  0
LINE
  5
2DF2
  8
0
 10
89.593921064224503
 20
25.7492107895523006
 30
0.0
 11
89.5939210640336938
 21
25.7675161947672713
 31
0.0
  0
LINE
  5
2DF3
  8
0
 10
89.6510076784251453
 20
25.6672381109525887
 30
0.0
 11
89.6510076782336824
 21
25.6855435161672716
 31
0.0
  0
LINE
  5
2DF4
  8
0
 10
89.6795509855251538
 20
25.6262517716525906
 30
0.0
 11
89.6795509853336767
 21
25.64455717686727
 31
0.0
  0
LINE
  5
2DF5
  8
0
 10
89.6510019527166122
 20
25.5852676392379088
 30
0.0
 11
89.6510076782336824
 21
25.6035708375672684
 31
0.0
  0
LINE
  5
2DF6
  8
0
 10
89.5939210642239914
 20
25.5852654323520809
 30
0.0
 11
89.5939210640336938
 21
25.6035708375672684
 31
0.0
  0
LINE
  5
2DF7
  8
0
 10
89.622458645424615
 20
25.5442812999523596
 30
0.0
 11
89.6224643711336881
 21
25.5625844982672703
 31
0.0
  0
LINE
  5
2DF8
  8
0
 10
89.5082911428331442
 20
25.4623064144669513
 30
0.0
 11
89.5082911428336843
 21
25.4806118197672795
 31
0.0
  0
LINE
  5
2DF9
  8
0
 10
89.5368344501250846
 20
25.5852654323525606
 30
0.0
 11
89.5368344499336786
 21
25.6035708375672684
 31
0.0
  0
LINE
  5
2DFA
  8
0
 10
89.5653777572251357
 20
25.5442790930525909
 30
0.0
 11
89.5653777570336871
 21
25.5625844982672703
 31
0.0
  0
LINE
  5
2DFB
  8
0
 10
89.5653777572251357
 20
25.6262517716525906
 30
0.0
 11
89.5653777570336871
 21
25.64455717686727
 31
0.0
  0
LINE
  5
2DFC
  8
0
 10
89.5082911430251329
 20
25.6262517716525906
 30
0.0
 11
89.5082911428336843
 21
25.64455717686727
 31
0.0
  0
LINE
  5
2DFD
  8
0
 10
89.5368344501251556
 20
25.6672381109525887
 30
0.0
 11
89.5368344499336786
 21
25.6855435161672716
 31
0.0
  0
LINE
  5
2DFE
  8
0
 10
89.5939210642248156
 20
25.6672381109524395
 30
0.0
 11
89.5939210640336938
 21
25.6855435161672716
 31
0.0
  0
LINE
  5
2DFF
  8
0
 10
89.622464371325151
 20
25.7082244502525903
 30
0.0
 11
89.6224643711336881
 21
25.7265298554672697
 31
0.0
  0
LINE
  5
2E00
  8
0
 10
89.6795509855241164
 20
25.7082244502521284
 30
0.0
 11
89.6795509853336767
 21
25.7265298554672697
 31
0.0
  0
LINE
  5
2E01
  8
0
 10
89.6510076784251453
 20
25.7492107895525884
 30
0.0
 11
89.6510076782336824
 21
25.7675161947672713
 31
0.0
  0
LINE
  5
2E02
  8
0
 10
89.5368344501251556
 20
25.7492107895525884
 30
0.0
 11
89.5368344499336786
 21
25.7675161947672713
 31
0.0
  0
LINE
  5
2E03
  8
0
 10
89.5368344501251556
 20
25.8311834680525898
 30
0.0
 11
89.5368344501251556
 21
25.8470189835286597
 31
0.0
  0
LINE
  5
2E04
  8
0
 10
89.6224586454251551
 20
25.6262539785525902
 30
0.0
 11
89.6224643711336881
 21
25.64455717686727
 31
0.0
  0
LINE
  5
2E05
  8
0
 10
89.5939210640037942
 20
25.5032927537529694
 30
0.0
 11
89.5939210640336938
 21
25.5215981589672793
 31
0.0
  0
LINE
  5
2E06
  8
0
 10
89.4797478357336757
 20
25.6855435161672716
 30
0.0
 11
89.4797478357336757
 21
25.6674076007659515
 31
0.0
  0
LINE
  5
2E07
  8
0
 10
89.5082911430251329
 20
25.7082244502525903
 30
0.0
 11
89.5082911428336843
 21
25.7265298554672697
 31
0.0
  0
LINE
  5
2E08
  8
0
 10
89.4797478357336757
 20
25.8011552289672714
 30
0.0
 11
89.4797478332605749
 21
25.8038592408199889
 31
0.0
  0
LINE
  5
2E09
  8
0
 10
89.5082911430251329
 20
25.5442790930525909
 30
0.0
 11
89.5082911428336843
 21
25.5625844982672703
 31
0.0
  0
LINE
  5
2E0A
  8
0
 10
89.4512107688251348
 20
25.5962260866525888
 30
0.0
 11
89.4512045286343778
 21
25.59892754546755
 31
0.0
  0
LINE
  5
2E0B
  8
0
 10
89.4512045286333688
 20
25.7082244503186885
 30
0.0
 11
89.4512045285834745
 21
25.7265298554433386
 31
0.0
  0
LINE
  5
2E0C
  8
0
 10
89.4511982884420007
 20
25.7601714438525917
 30
0.0
 11
89.4512045286334683
 21
25.7628729025672705
 31
0.0
  0
LINE
  5
2E0D
  8
0
 10
89.451204528632573
 20
25.7901971287679608
 30
0.0
 11
89.4512045286836894
 21
25.8085025339911986
 31
0.0
  0
LINE
  5
2E0E
  8
0
 10
89.4512107686336861
 20
25.8421441223672801
 30
0.0
 11
89.4512045286343778
 21
25.8448455811675615
 31
0.0
  0
LINE
  5
2E0F
  8
0
 10
89.4512107688251348
 20
25.5142534081525909
 30
0.0
 11
89.4512045286336956
 21
25.5169548668672697
 31
0.0
  0
LINE
  5
2E10
  8
0
 10
89.3655746071433157
 20
25.5032927538520013
 30
0.0
 11
89.3655746073334711
 21
25.5215981589672793
 31
0.0
  0
LINE
  5
2E11
  8
0
 10
89.5368344501251556
 20
25.5032927538525911
 30
0.0
 11
89.5368344499336786
 21
25.5215981589672793
 31
0.0
  0
LINE
  5
2E12
  8
0
 10
89.4512045286334683
 20
25.5625844982672703
 30
0.0
 11
89.4275824813334737
 21
25.5738910746672801
 31
0.0
  0
LINE
  5
2E13
  8
0
 10
89.4512045286334683
 20
25.5625844982672703
 30
0.0
 11
89.4748265759336761
 21
25.5738910747152417
 31
0.0
  0
LINE
  5
2E14
  8
0
 10
89.4512045286334683
 20
25.5625844982672703
 30
0.0
 11
89.4512045286338946
 21
25.5442790930671606
 31
0.0
  0
LINE
  5
2E15
  8
0
 10
89.4512045286334683
 20
25.4806118197672795
 30
0.0
 11
89.4748265759336761
 21
25.4919183961152385
 31
0.0
  0
LINE
  5
2E16
  8
0
 10
89.4512045286334683
 20
25.4806118197672795
 30
0.0
 11
89.4275824813334737
 21
25.4919183960672697
 31
0.0
  0
LINE
  5
2E17
  8
0
 10
89.4512045286334683
 20
25.4806118197672795
 30
0.0
 11
89.4512045286336956
 21
25.4623064144672711
 31
0.0
  0
LINE
  5
2E18
  8
0
 10
89.5653777570336871
 20
25.7265298554672697
 30
0.0
 11
89.5653777572251357
 21
25.7082244502525903
 31
0.0
  0
ENDSEC
  0
EOF
