  0
SECTION
  2
HEADER
  9
$ACADVER
  1
AC1009
  9
$INSBASE
 10
4786.3494785934390165
 20
-19.6213255445025787
 30
0.0
  9
$EXTMIN
 10
4784.9712557380962608
 20
-21.0264746038734387
 30
0.0
  9
$EXTMAX
 10
4787.7277014487799534
 20
-17.9556084621234398
 30
0.0
  9
$LIMMIN
 10
0.0
 20
0.0
  9
$LIMMAX
 10
11.6929133858000007
 20
8.2677165353999982
  9
$ORTHOMODE
 70
     0
  9
$REGENMODE
 70
     1
  9
$FILLMODE
 70
     1
  9
$QTEXTMODE
 70
     0
  9
$MIRRTEXT
 70
     0
  9
$DRAGMODE
 70
     2
  9
$LTSCALE
 40
0.6431102362
  9
$OSMODE
 70
  4095
  9
$ATTMODE
 70
     1
  9
$TEXTSIZE
 40
0.2
  9
$TRACEWID
 40
0.05
  9
$TEXTSTYLE
  7
STANDARD
  9
$CLAYER
  8
0
  9
$CELTYPE
  6
BYLAYER
  9
$CECOLOR
 62
   256
  9
$DIMSCALE
 40
1.0
  9
$DIMASZ
 40
0.1875
  9
$DIMEXO
 40
0.0625
  9
$DIMDLI
 40
0.4443307087
  9
$DIMRND
 40
0.0
  9
$DIMDLE
 40
0.0
  9
$DIMEXE
 40
0.125
  9
$DIMTP
 40
0.01
  9
$DIMTM
 40
0.01
  9
$DIMTXT
 40
2.0
  9
$DIMCEN
 40
0.1052362205
  9
$DIMTSZ
 40
0.0
  9
$DIMTOL
 70
     1
  9
$DIMLIM
 70
     0
  9
$DIMTIH
 70
     1
  9
$DIMTOH
 70
     1
  9
$DIMSE1
 70
     0
  9
$DIMSE2
 70
     0
  9
$DIMTAD
 70
     0
  9
$DIMZIN
 70
     0
  9
$DIMBLK
  1

  9
$DIMASO
 70
     1
  9
$DIMSHO
 70
     1
  9
$DIMPOST
  1
\X
  9
$DIMAPOST
  1

  9
$DIMALT
 70
     1
  9
$DIMALTD
 70
     2
  9
$DIMALTF
 40
25.3999999999999986
  9
$DIMLFAC
 40
1.0
  9
$DIMTOFL
 70
     0
  9
$DIMTVP
 40
0.0
  9
$DIMTIX
 70
     0
  9
$DIMSOXD
 70
     0
  9
$DIMSAH
 70
     0
  9
$DIMBLK1
  1

  9
$DIMBLK2
  1

  9
$DIMSTYLE
  2
STANDARD
  9
$DIMCLRD
 70
     0
  9
$DIMCLRE
 70
     0
  9
$DIMCLRT
 70
     0
  9
$DIMTFAC
 40
1.0
  9
$DIMGAP
 40
0.09
  9
$LUNITS
 70
     2
  9
$LUPREC
 70
     4
  9
$SKETCHINC
 40
0.1
  9
$FILLETRAD
 40
0.0
  9
$AUNITS
 70
     0
  9
$AUPREC
 70
     0
  9
$MENU
  1
.
  9
$ELEVATION
 40
0.0
  9
$PELEVATION
 40
0.0
  9
$THICKNESS
 40
0.0
  9
$LIMCHECK
 70
     0
  9
$BLIPMODE
 70
     0
  9
$CHAMFERA
 40
0.0
  9
$CHAMFERB
 40
0.0
  9
$SKPOLY
 70
     0
  9
$TDCREATE
 40
2458060.468368056230247
  9
$TDUPDATE
 40
2460014.6577430558390915
  9
$TDINDWG
 40
0.5207709491
  9
$TDUSRTIMER
 40
0.5207709491
  9
$USRTIMER
 70
     1
  9
$ANGBASE
 50
0.0
  9
$ANGDIR
 70
     0
  9
$PDMODE
 70
     0
  9
$PDSIZE
 40
0.3125
  9
$PLINEWID
 40
0.0
  9
$COORDS
 70
     1
  9
$SPLFRAME
 70
     0
  9
$SPLINETYPE
 70
     6
  9
$SPLINESEGS
 70
     8
  9
$ATTDIA
 70
     1
  9
$ATTREQ
 70
     1
  9
$HANDLING
 70
     1
  9
$HANDSEED
  5
20444
  9
$SURFTAB1
 70
     6
  9
$SURFTAB2
 70
     6
  9
$SURFTYPE
 70
     6
  9
$SURFU
 70
     6
  9
$SURFV
 70
     6
  9
$UCSNAME
  2

  9
$UCSORG
 10
0.0
 20
0.0
 30
0.0
  9
$UCSXDIR
 10
1.0
 20
0.0
 30
0.0
  9
$UCSYDIR
 10
0.0
 20
1.0
 30
0.0
  9
$PUCSNAME
  2

  9
$PUCSORG
 10
0.0
 20
0.0
 30
0.0
  9
$PUCSXDIR
 10
1.0
 20
0.0
 30
0.0
  9
$PUCSYDIR
 10
0.0
 20
1.0
 30
0.0
  9
$USERI1
 70
     0
  9
$USERI2
 70
     0
  9
$USERI3
 70
     0
  9
$USERI4
 70
     0
  9
$USERI5
 70
     0
  9
$USERR1
 40
0.0
  9
$USERR2
 40
0.0
  9
$USERR3
 40
0.0
  9
$USERR4
 40
0.0
  9
$USERR5
 40
0.0
  9
$WORLDVIEW
 70
     1
  9
$SHADEDGE
 70
     3
  9
$SHADEDIF
 70
    70
  9
$TILEMODE
 70
     1
  9
$MAXACTVP
 70
    64
  9
$PLIMCHECK
 70
     0
  9
$PEXTMIN
 10
1.0000000000000000E+20
 20
1.0000000000000000E+20
 30
1.0000000000000000E+20
  9
$PEXTMAX
 10
-1.0000000000000000E+20
 20
-1.0000000000000000E+20
 30
-1.0000000000000000E+20
  9
$PLIMMIN
 10
0.0
 20
0.0
  9
$PLIMMAX
 10
12.0
 20
9.0
  9
$UNITMODE
 70
     0
  9
$VISRETAIN
 70
     1
  9
$PLINEGEN
 70
     0
  9
$PSLTSCALE
 70
     1
  0
ENDSEC
  0
SECTION
  2
TABLES
  0
TABLE
  2
VPORT
 70
     1
  0
VPORT
  2
*ACTIVE
 70
     0
 10
0.0
 20
0.0
 11
1.0
 21
1.0
 12
993.9915684371879934
 22
-139.671697966103892
 13
0.0
 23
0.0
 14
1.0
 24
1.0
 15
0.0
 25
0.0
 16
0.0
 26
0.0
 36
5.1040778033513332
 17
3792.35791015625
 27
120.1806564331053977
 37
0.0
 40
3.09745372739286
 41
2.7341040462427739
 42
50.0
 43
0.0
 44
0.0
 50
0.0
 51
0.0
 71
     0
 72
   100
 73
     1
 74
     1
 75
     0
 76
     0
 77
     0
 78
     0
  0
ENDTAB
  0
TABLE
  2
LTYPE
 70
     2
  0
LTYPE
  2
CONTINUOUS
 70
     0
  3
Solid line
 72
    65
 73
     0
 40
0.0
  0
LTYPE
  2
PHANTOM2
 70
     0
  3
___ _ _ ___ _ _ ___ _ _ ___ _ _
 72
    65
 73
     6
 40
1.25
 49
0.625
 49
-0.125
 49
0.125
 49
-0.125
 49
0.125
 49
-0.125
  0
ENDTAB
  0
TABLE
  2
LAYER
 70
     2
  0
LAYER
  2
0
 70
     0
 62
   255
  6
CONTINUOUS
  0
LAYER
  2
DEFPOINTS
 70
     0
 62
     7
  6
CONTINUOUS
  0
ENDTAB
  0
TABLE
  2
STYLE
 70
     1
  0
STYLE
  2
STANDARD
 70
     0
 40
0.0
 41
0.8
 50
0.0
 71
     0
 42
0.2
  3
txt
  4

  0
ENDTAB
  0
TABLE
  2
VIEW
 70
     0
  0
ENDTAB
  0
TABLE
  2
UCS
 70
     0
  0
ENDTAB
  0
TABLE
  2
APPID
 70
     9
  0
APPID
  2
ACAD
 70
     0
  0
APPID
  2
ACAD_MLEADERVER
 70
     0
  0
APPID
  2
ACAD_EXEMPT_FROM_CAD_STANDARDS
 70
     0
  0
APPID
  2
ACAD_NAV_VCDISPLAY
 70
     0
  0
APPID
  2
ACAECLAYERSTANDARD
 70
     0
  0
APPID
  2
ACCMTRANSPARENCY
 70
     0
  0
APPID
  2
ACAD_DSTYLE_DIMJAG
 70
     0
  0
APPID
  2
ACAD_DSTYLE_DIMTALN
 70
     0
  0
APPID
  2
ACDBATTR
 70
     0
  0
ENDTAB
  0
TABLE
  2
DIMSTYLE
 70
     1
  0
DIMSTYLE
  2
STANDARD
 70
     0
  3

  4

  5

  6

  7

 40
1.0
 41
0.1875
 42
0.0625
 43
0.38
 44
0.125
 45
0.0
 46
0.0
 47
0.01
 48
0.01
140
0.15625
141
0.09
142
0.0
143
25.3999999999999986
144
1.0
145
0.0
146
1.0
147
0.09
 71
     1
 72
     0
 73
     1
 74
     1
 75
     0
 76
     0
 77
     0
 78
     4
170
     0
171
     2
172
     0
173
     0
174
     0
175
     0
176
     0
177
     0
178
     0
  0
ENDTAB
  0
ENDSEC
  0
SECTION
  2
BLOCKS
  0
BLOCK
  8
0
  2
$MODEL_SPACE
 70
     0
 10
0.0
 20
0.0
 30
0.0
  3
$MODEL_SPACE
  1

  0
ENDBLK
  5
21
  8
0
  0
BLOCK
 67
     1
  8
0
  2
$PAPER_SPACE
 70
     0
 10
0.0
 20
0.0
 30
0.0
  3
$PAPER_SPACE
  1

  0
ENDBLK
  5
1D
 67
     1
  8
0
  0
BLOCK
  8
0
  2
_FILLED
 70
     0
 10
0.0
 20
0.0
 30
0.0
  3
_FILLED
  1

  0
SOLID
  5
1D416
  8
0
  6
BYBLOCK
 62
     0
 10
0.0
 20
0.0
 30
0.0
 11
-1.0
 21
0.1666666667
 31
0.0
 12
-1.0
 22
-0.1666666667
 32
0.0
 13
-1.0
 23
-0.1666666667
 33
0.0
  0
ENDBLK
  5
1D417
  8
0
  6
BYBLOCK
 62
     0
  0
BLOCK
  8
0
  2
A$CD133066C
 70
     0
 10
0.0
 20
0.0
 30
0.0
  3
A$CD133066C
  1

  0
LINE
  5
1FBA5
  8
0
 10
0.0265150595880881
 20
7.7018906289450033
 30
0.0
 11
2.7829607702725201
 21
7.7018906289450033
 31
0.0
  0
LINE
  5
1FBA6
  8
0
 10
0.9778193756306645
 20
1.909631095345002
 30
0.0
 11
1.8316564542299441
 21
1.909631095345002
 31
0.0
  0
LINE
  5
1FBA7
  8
0
 10
1.0083008208150279
 20
1.4121548139450031
 30
0.0
 11
1.80117500904558
 21
1.4121548139450031
 31
0.0
  0
ARC
  5
1FBA8
  8
0
 10
1.005909659981435
 20
0.9550221350861836
 30
0.0
 40
0.9550221626126431
 50
91.6854969012906054
 51
100.7293272741080017
  0
ARC
  5
1FBA9
  8
0
 10
0.9774668080941797
 20
1.1051304836147651
 30
0.0
 40
0.802242870424669
 50
100.7293272741081012
 51
108.7268687680722934
  0
ARC
  5
1FBAA
  8
0
 10
0.8873227041830809
 20
1.371039090725851
 30
0.0
 40
0.5214701032165708
 50
108.7268687680721939
 51
122.8324872874378002
  0
ARC
  5
1FBAB
  8
0
 10
0.718934811441887
 20
1.624075057367907
 30
0.0
 40
0.2175993670147721
 50
121.700909025818504
 51
150.7830959810277136
  0
ARC
  5
1FBAC
  8
0
 10
0.6159140508505683
 20
1.681691308834905
 30
0.0
 40
0.0995616207387494
 50
150.7830959810270883
 51
168.9096222301272974
  0
ARC
  5
1FBAD
  8
0
 10
0.9984651060281422
 20
1.6368556622821491
 30
0.0
 40
0.4844972978616861
 50
172.410835966511911
 51
175.2696183214748089
  0
ARC
  5
1FBAE
  8
0
 10
0.6771665358117716
 20
1.68186030747694
 30
0.0
 40
0.1616273322227493
 50
181.7903465855904983
 51
202.907779775819705
  0
ARC
  5
1FBAF
  8
0
 10
0.7070469286905113
 20
1.6944972975410191
 30
0.0
 40
0.1940700713552823
 50
202.9105635655166111
 51
216.1574238023522128
  0
ARC
  5
1FBB0
  8
0
 10
0.7604121753184537
 20
1.733493889560856
 30
0.0
 40
0.2601653339451435
 50
216.1574238023522128
 51
232.5992309669777001
  0
ARC
  5
1FBB1
  8
0
 10
0.8664532800915552
 20
1.8721860389367511
 30
0.0
 40
0.4347512102353107
 50
232.5992309669775864
 51
246.0492124652087114
  0
ARC
  5
1FBB2
  8
0
 10
0.9489595377496637
 20
2.0579273196160428
 30
0.0
 40
0.637992706739173
 50
246.0492124652087114
 51
255.7725869577764968
  0
ARC
  5
1FBB3
  8
0
 10
1.0055484846109579
 20
2.2811155792224151
 30
0.0
 40
0.868243240143532
 50
255.7725869577764968
 51
262.7389522789907801
  0
ARC
  5
1FBB4
  8
0
 10
1.0215337814932961
 20
2.4336029812982112
 30
0.0
 40
1.0215338809053469
 50
262.9305388611315948
 51
269.2577691077760278
  0
LINE
  5
1FBB5
  8
0
 10
0.5156181038484818
 20
1.676810688516519
 30
0.0
 11
0.0265150595880881
 21
7.7018906289450033
 31
0.0
  0
ARC
  5
1FBB6
  8
0
 10
1.803566169879173
 20
0.9550221350861836
 30
0.0
 40
0.9550221626126431
 50
79.2706727258918988
 51
88.3145030987093662
  0
ARC
  5
1FBB7
  8
0
 10
1.8320090217664291
 20
1.1051304836147651
 30
0.0
 40
0.802242870424669
 50
71.2731312319275645
 51
79.2706727258918988
  0
ARC
  5
1FBB8
  8
0
 10
1.9221531256775279
 20
1.371039090725851
 30
0.0
 40
0.5214701032165708
 50
57.1675127125620932
 51
71.2731312319277635
  0
ARC
  5
1FBB9
  8
0
 10
2.0905410184187221
 20
1.624075057367907
 30
0.0
 40
0.2175993670147721
 50
29.2169040189722011
 51
58.2990909741815884
  0
ARC
  5
1FBBA
  8
0
 10
2.1935617790100408
 20
1.681691308834905
 30
0.0
 40
0.0995616207387494
 50
11.0903777698727204
 51
29.216904018972901
  0
ARC
  5
1FBBB
  8
0
 10
1.8110107238324671
 20
1.6368556622821491
 30
0.0
 40
0.4844972978616861
 50
4.7303816785251813
 51
7.5891640334881423
  0
ARC
  5
1FBBC
  8
0
 10
2.1323092940488371
 20
1.68186030747694
 30
0.0
 40
0.1616273322227493
 50
337.0922202241803234
 51
358.2096534144095017
  0
ARC
  5
1FBBD
  8
0
 10
2.1024289011700978
 20
1.6944972975410191
 30
0.0
 40
0.1940700713552823
 50
323.842576197647702
 51
337.0894364344833889
  0
ARC
  5
1FBBE
  8
0
 10
2.049063654542155
 20
1.733493889560856
 30
0.0
 40
0.2601653339451435
 50
307.4007690330222999
 51
323.8425761976478157
  0
ARC
  5
1FBBF
  8
0
 10
1.9430225497690541
 20
1.8721860389367511
 30
0.0
 40
0.4347512102353107
 50
293.9507875347914023
 51
307.4007690330224136
  0
ARC
  5
1FBC0
  8
0
 10
1.860516292110945
 20
2.0579273196160428
 30
0.0
 40
0.637992706739173
 50
284.227413042223418
 51
293.9507875347914023
  0
ARC
  5
1FBC1
  8
0
 10
1.80392734524965
 20
2.2811155792224151
 30
0.0
 40
0.868243240143532
 50
277.2610477210092768
 51
284.2274130422235885
  0
ARC
  5
1FBC2
  8
0
 10
1.7879420483673121
 20
2.4336029812982112
 30
0.0
 40
1.0215338809053469
 50
270.7422308922240859
 51
277.0694611388684052
  0
LINE
  5
1FBC3
  8
0
 10
2.2938577260121269
 20
1.676810688516519
 30
0.0
 11
2.7829607702725201
 21
7.7018906289450033
 31
0.0
  0
LINE
  5
1FBC4
  8
0
 10
1.4047379149303041
 20
7.7018906289450033
 30
0.0
 11
3.3073667398354871
 21
12.7516801174436694
 31
0.0
  0
CIRCLE
  5
1FBC5
  8
0
 10
1.4047379149303041
 20
5.0670606182857396
 30
0.0
 40
0.5202905581784237
  0
ENDBLK
  5
1FBC9
  8
0
  0
ENDSEC
  0
SECTION
  2
ENTITIES
  0
ATTDEF
  5
3930
  8
DEFPOINTS
 10
4786.3493309076166042
 20
-19.6227376349819984
 30
0.0
 40
0.001
  1
K-10386IN
  3

  2
MODELNUMBER
 70
     0
1001
ACDBATTR
1070
     0
1070
     1
  0
ATTDEF
  5
3931
  8
DEFPOINTS
 10
4786.3493309076166042
 20
-19.6244043016486707
 30
0.0
 40
0.001
  1
COMPLEMENTARY
  3

  2
TRADENAME
 70
     0
1001
ACDBATTR
1070
     0
1070
     1
  0
ATTDEF
  5
3932
  8
DEFPOINTS
 10
4786.3493309076166042
 20
-19.6260709683153287
 30
0.0
 40
0.001
  1
BATH SPOUT
  3

  2
PRODUCT
 70
     0
1001
ACDBATTR
1070
     0
1070
     1
  0
LINE
  5
1FEA9
  8
0
 10
4785.9727893951976512
 20
-18.6642698795234416
 30
0.0
 11
4786.7261677916785629
 21
-18.6642698795234416
 31
0.0
  0
LINE
  5
1FEAA
  8
0
 10
4785.9484345111613948
 20
-18.9135826838234387
 30
0.0
 11
4786.7505226757139098
 21
-18.9135826838234387
 31
0.0
  0
LINE
  5
1FEAB
  8
0
 10
4785.950132250803108
 20
-18.9332482053234408
 30
0.0
 11
4786.7488249360731061
 21
-18.9332482053234408
 31
0.0
  0
LINE
  5
1FEAC
  8
0
 10
4786.6763269289485834
 20
-19.7149445244234407
 30
0.0
 11
4786.0226302579267212
 21
-19.7149445244234407
 31
0.0
  0
LINE
  5
1FEAD
  8
0
 10
4786.7187184989907109
 20
-19.7737224384234906
 30
0.0
 11
4785.9802386878845937
 21
-19.7737224384234906
 31
0.0
  0
LINE
  5
1FEAE
  8
0
 10
4786.7825494569879083
 20
-20.0741883916734416
 30
0.0
 11
4785.9164077298883058
 21
-20.0741883916734416
 31
0.0
  0
LINE
  5
1FEAF
  8
0
 10
4786.979399225688212
 20
-20.3926163361734396
 30
0.0
 11
4785.7195579611880021
 21
-20.3926163361734396
 31
0.0
  0
LINE
  5
1FEB0
  8
0
 10
4786.8022345467870764
 20
-20.6327738164734384
 30
0.0
 11
4785.8967226400882282
 21
-20.6327738164734384
 31
0.0
  0
LINE
  5
1FEB1
  8
0
 10
4785.9360927669376906
 20
-20.7311990133234403
 30
0.0
 11
4786.762864419937614
 21
-20.7311990133234403
 31
0.0
  0
LINE
  5
1FEB2
  8
0
 10
4785.995147801888379
 20
-21.0264746038734387
 30
0.0
 11
4786.7038093849878351
 21
-21.0264746038734387
 31
0.0
  0
LINE
  5
1FEB3
  8
0
 10
4785.9360927669376906
 20
-20.7311990133234403
 30
0.0
 11
4785.9360927669376906
 21
-20.9674195827234406
 31
0.0
  0
LINE
  5
1FEB4
  8
0
 10
4785.9360927669376906
 20
-20.9674195827234406
 30
0.0
 11
4785.995147801888379
 21
-21.0264746038734387
 31
0.0
  0
LINE
  5
1FEB5
  8
0
 10
4785.9360927669376906
 20
-20.9674195827234406
 30
0.0
 11
4786.1734102490381702
 21
-20.9674195827234406
 31
0.0
  0
LINE
  5
1FEB6
  8
0
 10
4786.525546937838044
 20
-20.9674195827234406
 30
0.0
 11
4786.762864419937614
 21
-20.9674195827234406
 31
0.0
  0
LINE
  5
1FEB7
  8
0
 10
4785.9951478853881781
 20
-20.6327738164734384
 30
0.0
 11
4785.9951478853881781
 21
-20.7311990133234403
 31
0.0
  0
LINE
  5
1FEB8
  8
0
 10
4785.8770376495376695
 20
-20.6130888279234412
 30
0.0
 11
4785.8770376495376695
 21
-20.3926163361734396
 31
0.0
  0
LINE
  5
1FEB9
  8
0
 10
4785.8770376495376695
 20
-20.6130888279234412
 30
0.0
 11
4785.8967226400882282
 21
-20.6327738164734384
 31
0.0
  0
LINE
  5
1FEBA
  8
0
 10
4785.8770376495376695
 20
-20.6130888279234412
 30
0.0
 11
4786.8219195373376351
 21
-20.6130888279234412
 31
0.0
  0
LINE
  5
1FEBB
  8
0
 10
4785.7195579611880021
 20
-20.3926163361734396
 30
0.0
 11
4785.7195579611880021
 21
-20.2384811409176884
 31
0.0
  0
ARC
  5
1FEBC
  8
0
 10
4786.7669291072934357
 20
-6.1220786464848231
 30
0.0
 40
13.9923340282443007
 50
266.0359460933917717
 51
268.2903708447540225
  0
ARC
  5
1FEBD
  8
0
 10
4786.2991563115638201
 20
-15.9792337078325293
 30
0.0
 40
4.1320093590779488
 50
261.5307035634352246
 51
263.0564298085508881
  0
ARC
  5
1FEBE
  8
0
 10
4785.5974326625610047
 20
-20.69185009012077
 30
0.0
 40
0.6325650443899526
 50
81.5307035634352104
 51
85.5632462065606489
  0
ARC
  5
1FEBF
  8
0
 10
4785.6352152245653997
 20
-20.204905626030861
 30
0.0
 40
0.1441569843628459
 50
85.5632462065606489
 51
95.2815453305932323
  0
ARC
  5
1FEC0
  8
0
 10
4785.6245838858194475
 20
-20.0899005434826705
 30
0.0
 40
0.0286615542565163
 50
95.2815453305931754
 51
121.5372380670967942
  0
ARC
  5
1FEC1
  8
0
 10
4785.6148179918163805
 20
-20.0729349090483211
 30
0.0
 40
0.0091103050370177
 50
125.0011547554388045
 51
179.1547352158825959
  0
ARC
  5
1FEC2
  8
0
 10
4785.6273276624251594
 20
-20.0718078484297315
 30
0.0
 40
0.0216417620272797
 50
182.6289651448414872
 51
214.580353757059612
  0
ARC
  5
1FEC3
  8
0
 10
4785.729073442272238
 20
-19.9989069432235382
 30
0.0
 40
0.1468055864491419
 50
215.4681252726618936
 51
233.8788542569845106
  0
ARC
  5
1FEC4
  8
0
 10
4785.9065621875179204
 20
-19.7731831857207005
 30
0.0
 40
0.4338900968796794
 50
232.5175950469862869
 51
239.7761662616935894
  0
ARC
  5
1FEC5
  8
0
 10
4785.5421618471946203
 20
-20.24946989508787
 30
0.0
 40
0.177736135825757
 50
3.5446423785714658
 51
34.7767742309776509
  0
LINE
  5
1FEC6
  8
0
 10
4785.8770376505381137
 20
-20.0348183122234396
 30
0.0
 11
4785.8770376505381137
 21
-19.8260324584440184
 31
0.0
  0
LINE
  5
1FEC7
  8
0
 10
4785.8770376505381137
 20
-20.0348183122234396
 30
0.0
 11
4785.9164077298883058
 21
-20.0741883916734416
 31
0.0
  0
LINE
  5
1FEC8
  8
0
 10
4785.8770376505381137
 20
-20.0348183122234396
 30
0.0
 11
4786.160666330638378
 21
-20.0348183122234396
 31
0.0
  0
ARC
  5
1FEC9
  8
0
 10
4786.4091764656695887
 20
-26.3039701352151312
 30
0.0
 40
6.5103513088940268
 50
90.5253916260051312
 51
93.0962790131579681
  0
ARC
  5
1FECA
  8
0
 10
4786.1809410037967609
 20
-21.7085792063704908
 30
0.0
 40
1.909448969633996
 50
93.7058115586390841
 51
97.5869724513101744
  0
ARC
  5
1FECB
  8
0
 10
4786.0125462200639959
 20
-20.4443263206862191
 30
0.0
 40
0.6340305433324928
 50
97.5869724513101744
 51
101.3872198298916061
  0
ARC
  5
1FECC
  8
0
 10
4785.8974016314396067
 20
-19.8726146638005616
 30
0.0
 40
0.0508388982377191
 50
101.3872198298915066
 51
115.9414225374596015
  0
ARC
  5
1FECD
  8
0
 10
4785.8820937716845947
 20
-19.8411472889086902
 30
0.0
 40
0.0158456667089258
 50
115.9414225374592036
 51
136.0145009274050949
  0
ARC
  5
1FECE
  8
0
 10
4785.8746119184961572
 20
-19.8339258058097698
 30
0.0
 40
0.005447207913929
 50
136.0145009274039012
 51
187.3375940109474982
  0
ARC
  5
1FECF
  8
0
 10
4785.8798920128956524
 20
-19.8323029425398083
 30
0.0
 40
0.0109314069883094
 50
192.2454685726791013
 51
227.2886714064254079
  0
ARC
  5
1FED0
  8
0
 10
4785.8943048991441174
 20
-19.8189271641773601
 30
0.0
 40
0.0305736810456994
 50
224.4437649520114064
 51
235.6133364177333078
  0
LINE
  5
1FED1
  8
0
 10
4786.5382908562378361
 20
-19.9167080766734408
 30
0.0
 11
4786.160666330638378
 21
-19.9167080766734301
 31
0.0
  0
LINE
  5
1FED2
  8
0
 10
4786.160666330638378
 20
-19.9167080766734301
 30
0.0
 11
4786.160666330638378
 21
-20.0348183122234396
 31
0.0
  0
ARC
  5
1FED3
  8
0
 10
4786.3561431895141141
 20
-19.5697851841552293
 30
0.0
 40
0.5044472346990263
 50
247.2005306593783871
 51
269.2430044006679282
  0
ARC
  5
1FED4
  8
0
 10
4785.9550613141127542
 20
-19.4666067270714507
 30
0.0
 40
0.5530637458085004
 50
90.6865337483829137
 51
120.5312729089091022
  0
ARC
  5
1FED5
  8
0
 10
4785.9104472779499702
 20
-19.3898377473203283
 30
0.0
 40
0.4642746687638956
 50
120.601728550958299
 51
139.3090571234376114
  0
ARC
  5
1FED6
  8
0
 10
4785.871407183149131
 20
-19.3562687038834902
 30
0.0
 40
0.4127867121202316
 50
139.3090571234376114
 51
168.3367808317308061
  0
ARC
  5
1FED7
  8
0
 10
4785.8356319349450132
 20
-19.3438563037941016
 30
0.0
 40
0.3752731525889399
 50
169.0885625994436054
 51
201.8428804470295859
  0
ARC
  5
1FED8
  8
0
 10
4785.8754627851330952
 20
-19.3271030022748391
 30
0.0
 40
0.418478367355793
 50
201.942961214982688
 51
224.6744018581075863
  0
ARC
  5
1FED9
  8
0
 10
4785.9312368333248742
 20
-19.2702804803007517
 30
0.0
 40
0.4980920976657264
 50
224.8117273848206139
 51
250.0298197715042079
  0
ARC
  5
1FEDA
  8
0
 10
4785.9560453212925495
 20
-19.2077579346952589
 30
0.0
 40
0.5653314716545489
 50
249.8308331254806944
 51
265.3159897537668144
  0
ARC
  5
1FEDB
  8
0
 10
4785.9842340870491171
 20
-18.6791877304426706
 30
0.0
 40
1.094542000194203
 50
266.1048086742272858
 51
269.79085314416551
  0
ARC
  5
1FEDC
  8
0
 10
4785.9539948667879798
 20
-19.4428690964503588
 30
0.0
 40
0.5096355290550721
 50
90.4342587987790978
 51
119.8261727576467024
  0
ARC
  5
1FEDD
  8
0
 10
4785.9204166653844368
 20
-19.3823555150917883
 30
0.0
 40
0.4404379387353346
 50
119.9520047255936959
 51
139.5239520434789995
  0
ARC
  5
1FEDE
  8
0
 10
4785.8620296916042207
 20
-19.3325305263090712
 30
0.0
 40
0.3636813871296813
 50
139.5239520434789995
 51
163.1749794580744037
  0
ARC
  5
1FEDF
  8
0
 10
4785.8346645251813243
 20
-19.3242554543124996
 30
0.0
 40
0.3350924181032768
 50
163.1749794580744037
 51
191.129661857567811
  0
ARC
  5
1FEE0
  8
0
 10
4785.8524614803027362
 20
-19.3207542614927803
 30
0.0
 40
0.3532304985640373
 50
191.1296618575682089
 51
222.2976479571682944
  0
ARC
  5
1FEE1
  8
0
 10
4785.9345212641674152
 20
-19.246091760859251
 30
0.0
 40
0.4641732636673403
 50
222.2976479571682944
 51
246.0342259740158113
  0
ARC
  5
1FEE2
  8
0
 10
4785.9515834801659366
 20
-19.2077077048084206
 30
0.0
 40
0.5061786796715789
 50
246.0342259740158113
 51
261.9819818502631961
  0
ARC
  5
1FEE3
  8
0
 10
4785.9540577584521088
 20
-19.1901423825051793
 30
0.0
 40
0.5239174113245334
 50
261.9819818502631961
 51
268.1220603118002828
  0
ARC
  5
1FEE4
  8
0
 10
4785.871279377929568
 20
-27.6905772753740607
 30
0.0
 40
7.9770686888676039
 50
88.9128478950516836
 51
89.5287510712156234
  0
ARC
  5
1FEE5
  8
0
 10
4786.2726689184783027
 20
-18.8341135328395701
 30
0.0
 40
0.0171880612986342
 50
96.4487864266350101
 51
104.8890944509560939
  0
ARC
  5
1FEE6
  8
0
 10
4786.2685517039999468
 20
-18.8187043647632102
 30
0.0
 40
0.0012384977272873
 50
103.9818065692801952
 51
125.2580273018631942
  0
ARC
  5
1FEE7
  8
0
 10
4786.2678862526172452
 20
-18.8177789659689694
 30
0.0
 40
0.000099141746082
 50
119.9415894763177022
 51
215.1568118922799897
  0
ARC
  5
1FEE8
  8
0
 10
4786.269670774898259
 20
-18.8137590689059486
 30
0.0
 40
0.0044835461050218
 50
245.4117438824023054
 51
267.4283477819632253
  0
ARC
  5
1FEE9
  8
0
 10
4786.3028511102156699
 20
-18.3775004867643688
 30
0.0
 40
0.44199996417119
 50
265.668682177386188
 51
267.5910601683461891
  0
LINE
  5
1FEEA
  8
0
 10
4786.2707384401892341
 20
-18.8183323648664711
 30
0.0
 11
4786.2707384401892341
 21
-18.6642698795234416
 31
0.0
  0
LINE
  5
1FEEB
  8
0
 10
4786.2842731684559112
 20
-18.8191098485393198
 30
0.0
 11
4786.3494785934390165
 21
-18.8191098485393198
 31
0.0
  0
ARC
  5
1FEEC
  8
0
 10
4786.3494785969378427
 20
-19.1367108243234405
 30
0.0
 40
1.1811023622000021
 50
65.0878973978214503
 51
114.9106775146884019
  0
ARC
  5
1FEED
  8
0
 10
4785.8685880352586537
 20
-18.1012261303073103
 30
0.0
 40
0.0394
 50
114.9106775146884019
 51
201.9330517245739998
  0
ARC
  5
1FEEE
  8
0
 10
4784.0060143006394355
 20
-18.8512243401031689
 30
0.0
 40
1.9685039398324
 50
5.6580053852957892
 51
21.9330517245739891
  0
ARC
  5
1FEEF
  8
0
 10
4785.9727893951976512
 20
-18.6563698795234387
 30
0.0
 40
0.0079
 50
185.6580053852933077
 51
270.0
  0
ARC
  5
1FEF0
  8
0
 10
4786.338592562852682
 20
-20.7552629926141599
 30
0.0
 40
2.0194218428729869
 50
91.9255445761714043
 51
105.644355807850701
  0
ARC
  5
1FEF1
  8
0
 10
4786.2289685230571195
 20
-20.3638040706105592
 30
0.0
 40
1.6129030638265529
 50
105.644355807850701
 51
122.8907679579360064
  0
ARC
  5
1FEF2
  8
0
 10
4785.8750794812931417
 20
-19.8165815813960187
 30
0.0
 40
0.9612206974985541
 50
122.8907679579360064
 51
144.6321909130840879
  0
ARC
  5
1FEF3
  8
0
 10
4785.6351971616059018
 20
-19.6463088510728205
 30
0.0
 40
0.6670501177489918
 50
144.6321909130840879
 51
165.9663950728549935
  0
ARC
  5
1FEF4
  8
0
 10
4785.5341491957324251
 20
-19.6210518037662602
 30
0.0
 40
0.5628934576355566
 50
165.9663950728549935
 51
191.9656513798051947
  0
ARC
  5
1FEF5
  8
0
 10
4785.6216327072143031
 20
-19.6025114179737585
 30
0.0
 40
0.6523200235246241
 50
191.9656513798051947
 51
215.1943621510069136
  0
ARC
  5
1FEF6
  8
0
 10
4785.882284917150173
 20
-19.4186799184057186
 30
0.0
 40
0.9712770657386675
 50
215.1943621510069136
 51
236.7645339403252933
  0
ARC
  5
1FEF7
  8
0
 10
4786.2116016818481512
 20
-18.9161103952178493
 30
0.0
 40
1.572131172113572
 50
236.7645339403252933
 51
249.2942059709889975
  0
ARC
  5
1FEF8
  8
0
 10
4786.2466147968689256
 20
-18.82347920554297
 30
0.0
 40
1.6711587214328321
 50
249.2942059709889975
 51
257.2233990761362179
  0
LINE
  5
1FEF9
  8
0
 10
4786.762864419937614
 20
-20.7311990133234403
 30
0.0
 11
4786.762864419937614
 21
-20.9674195827234406
 31
0.0
  0
LINE
  5
1FEFA
  8
0
 10
4786.762864419937614
 20
-20.9674195827234406
 30
0.0
 11
4786.7038093849878351
 21
-21.0264746038734387
 31
0.0
  0
LINE
  5
1FEFB
  8
0
 10
4786.703809301488036
 20
-20.6327738164734384
 30
0.0
 11
4786.703809301488036
 21
-20.7311990133234403
 31
0.0
  0
LINE
  5
1FEFC
  8
0
 10
4786.8219195373376351
 20
-20.6130888279234412
 30
0.0
 11
4786.8219195373376351
 21
-20.3926163361734396
 31
0.0
  0
LINE
  5
1FEFD
  8
0
 10
4786.8219195373376351
 20
-20.6130888279234412
 30
0.0
 11
4786.8022345467870764
 21
-20.6327738164734384
 31
0.0
  0
LINE
  5
1FEFE
  8
0
 10
4786.979399225688212
 20
-20.3926163361734396
 30
0.0
 11
4786.979399225688212
 21
-20.2384811409176884
 31
0.0
  0
ARC
  5
1FEFF
  8
0
 10
4785.9320280795827784
 20
-6.1220786464848231
 30
0.0
 40
13.9923340282443007
 50
271.7096291552460912
 51
273.9640539066082283
  0
ARC
  5
1FF00
  8
0
 10
4786.3998008753133035
 20
-15.9792337078325293
 30
0.0
 40
4.1320093590779488
 50
276.9435701914491119
 51
278.4692964365647754
  0
ARC
  5
1FF01
  8
0
 10
4787.1015245243161189
 20
-20.69185009012077
 30
0.0
 40
0.6325650443899526
 50
94.4367537934393795
 51
98.4692964365647754
  0
ARC
  5
1FF02
  8
0
 10
4787.0637419623099049
 20
-20.204905626030861
 30
0.0
 40
0.1441569843628459
 50
84.7184546694067961
 51
94.4367537934393795
  0
ARC
  5
1FF03
  8
0
 10
4787.0743733010567666
 20
-20.0899005434826705
 30
0.0
 40
0.0286615542565163
 50
58.4627619329031774
 51
84.7184546694068246
  0
ARC
  5
1FF04
  8
0
 10
4787.0841391950598336
 20
-20.0729349090483211
 30
0.0
 40
0.0091103050370177
 50
0.8452647841174172
 51
54.9988452445613731
  0
ARC
  5
1FF05
  8
0
 10
4787.0716295244510547
 20
-20.0718078484297315
 30
0.0
 40
0.0216417620272797
 50
325.4196462429403027
 51
357.3710348551584843
  0
ARC
  5
1FF06
  8
0
 10
4786.9698837446048856
 20
-19.9989069432235382
 30
0.0
 40
0.1468055864491419
 50
306.1211457430155178
 51
324.5318747273381064
  0
ARC
  5
1FF07
  8
0
 10
4786.7923949993582937
 20
-19.7731831857207005
 30
0.0
 40
0.4338900968796794
 50
300.2238337383063254
 51
307.4824049530133721
  0
ARC
  5
1FF08
  8
0
 10
4787.1567953396815938
 20
-20.24946989508787
 30
0.0
 40
0.177736135825757
 50
145.2232257690226902
 51
176.4553576214285044
  0
LINE
  5
1FF09
  8
0
 10
4786.8219195363381004
 20
-20.0348183122234396
 30
0.0
 11
4786.8219195363381004
 21
-19.8260324584440184
 31
0.0
  0
LINE
  5
1FF0A
  8
0
 10
4786.8219195363381004
 20
-20.0348183122234396
 30
0.0
 11
4786.7825494569879083
 21
-20.0741883916734416
 31
0.0
  0
LINE
  5
1FF0B
  8
0
 10
4786.8219195363381004
 20
-20.0348183122234396
 30
0.0
 11
4786.5382908562378361
 21
-20.0348183122234396
 31
0.0
  0
ARC
  5
1FF0C
  8
0
 10
4786.289780721205716
 20
-26.3039701352151312
 30
0.0
 40
6.5103513088940268
 50
86.9037209868420177
 51
89.4746083739948688
  0
ARC
  5
1FF0D
  8
0
 10
4786.5180161830803627
 20
-21.7085792063704908
 30
0.0
 40
1.909448969633996
 50
82.4130275486898682
 51
86.2941884413609301
  0
ARC
  5
1FF0E
  8
0
 10
4786.6864109668131277
 20
-20.4443263206862191
 30
0.0
 40
0.6340305433324928
 50
78.6127801701084081
 51
82.4130275486898682
  0
ARC
  5
1FF0F
  8
0
 10
4786.8015555554366074
 20
-19.8726146638005616
 30
0.0
 40
0.0508388982377191
 50
64.0585774625404269
 51
78.6127801701084934
  0
ARC
  5
1FF10
  8
0
 10
4786.8168634151898004
 20
-19.8411472889086902
 30
0.0
 40
0.0158456667089258
 50
43.9854990725948767
 51
64.0585774625407822
  0
ARC
  5
1FF11
  8
0
 10
4786.8243452683809664
 20
-19.8339258058097698
 30
0.0
 40
0.005447207913929
 50
352.6624059890519902
 51
43.9854990725960491
  0
ARC
  5
1FF12
  8
0
 10
4786.8190651739805617
 20
-19.8323029425398083
 30
0.0
 40
0.0109314069883094
 50
312.7113285935747058
 51
347.754531427320785
  0
ARC
  5
1FF13
  8
0
 10
4786.8046522877330062
 20
-19.8189271641773601
 30
0.0
 40
0.0305736810456994
 50
304.3866635822665785
 51
315.5562350479885936
  0
LINE
  5
1FF14
  8
0
 10
4786.5382908562378361
 20
-19.9167080766734301
 30
0.0
 11
4786.5382908562378361
 21
-20.0348183122234396
 31
0.0
  0
ARC
  5
1FF15
  8
0
 10
4786.342813997363919
 20
-19.5697851841552293
 30
0.0
 40
0.5044472346990263
 50
270.7569955993320718
 51
292.7994693406214992
  0
ARC
  5
1FF16
  8
0
 10
4786.7438958727643694
 20
-19.4666067270714507
 30
0.0
 40
0.5530637458085004
 50
59.4687270910909334
 51
89.3134662516171147
  0
ARC
  5
1FF17
  8
0
 10
4786.7885099089271534
 20
-19.3898377473203283
 30
0.0
 40
0.4642746687638956
 50
40.6909428765620476
 51
59.3982714490416726
  0
ARC
  5
1FF18
  8
0
 10
4786.8275500037270831
 20
-19.3562687038834902
 30
0.0
 40
0.4127867121202316
 50
11.6632191682691406
 51
40.6909428765623673
  0
ARC
  5
1FF19
  8
0
 10
4786.8633252519312009
 20
-19.3438563037941016
 30
0.0
 40
0.3752731525889399
 50
338.1571195529704141
 51
10.9114374005563608
  0
ARC
  5
1FF1A
  8
0
 10
4786.8234944017440284
 20
-19.3271030022748391
 30
0.0
 40
0.418478367355793
 50
315.3255981418923852
 51
338.0570387850171983
  0
ARC
  5
1FF1B
  8
0
 10
4786.7677203535522494
 20
-19.2702804803007517
 30
0.0
 40
0.4980920976657264
 50
289.9701802284956784
 51
315.1882726151790166
  0
ARC
  5
1FF1C
  8
0
 10
4786.7429118655827551
 20
-19.2077579346952589
 30
0.0
 40
0.5653314716545489
 50
274.6840102462332993
 51
290.1691668745193056
  0
ARC
  5
1FF1D
  8
0
 10
4786.714723099827097
 20
-18.6791877304426706
 30
0.0
 40
1.094542000194203
 50
270.2091468558346037
 51
273.8951913257726005
  0
ARC
  5
1FF1E
  8
0
 10
4786.7449623200891438
 20
-19.4428690964503588
 30
0.0
 40
0.5096355290550721
 50
60.1738272423532479
 51
89.5657412012209306
  0
ARC
  5
1FF1F
  8
0
 10
4786.7785405214908678
 20
-19.3823555150917883
 30
0.0
 40
0.4404379387353346
 50
40.4760479565210289
 51
60.0479952744062828
  0
ARC
  5
1FF20
  8
0
 10
4786.8369274952710839
 20
-19.3325305263090712
 30
0.0
 40
0.3636813871296813
 50
16.8250205419255501
 51
40.4760479565210289
  0
ARC
  5
1FF21
  8
0
 10
4786.8642926616967088
 20
-19.3242554543124996
 30
0.0
 40
0.3350924181032768
 50
348.8703381424322174
 51
16.8250205419255501
  0
ARC
  5
1FF22
  8
0
 10
4786.8464957065725685
 20
-19.3207542614927803
 30
0.0
 40
0.3532304985640373
 50
317.7023520428317056
 51
348.8703381424318195
  0
ARC
  5
1FF23
  8
0
 10
4786.7644359227078894
 20
-19.246091760859251
 30
0.0
 40
0.4641732636673403
 50
293.9657740259842171
 51
317.7023520428317056
  0
ARC
  5
1FF24
  8
0
 10
4786.747373706711187
 20
-19.2077077048084206
 30
0.0
 40
0.5061786796715789
 50
278.0180181497369176
 51
293.9657740259842171
  0
ARC
  5
1FF25
  8
0
 10
4786.7448994284241053
 20
-19.1901423825051793
 30
0.0
 40
0.5239174113245334
 50
271.8779396881997172
 51
278.0180181497369176
  0
ARC
  5
1FF26
  8
0
 10
4786.8276778089457366
 20
-27.6905772753740607
 30
0.0
 40
7.9770686888676039
 50
90.4712489287843766
 51
91.0871521049483022
  0
ARC
  5
1FF27
  8
0
 10
4786.4262882683979115
 20
-18.8341135328395701
 30
0.0
 40
0.0171880612986342
 50
75.1109055490438351
 51
83.5512135733650041
  0
ARC
  5
1FF28
  8
0
 10
4786.4304054828762673
 20
-18.8187043647632102
 30
0.0
 40
0.0012384977272873
 50
54.7419726981367631
 51
76.0181934307197764
  0
ARC
  5
1FF29
  8
0
 10
4786.4310709342580594
 20
-18.8177789659689694
 30
0.0
 40
0.000099141746082
 50
324.8431881077200956
 51
60.0584105236822765
  0
ARC
  5
1FF2A
  8
0
 10
4786.4292864119788646
 20
-18.8137590689059486
 30
0.0
 40
0.0044835461050218
 50
272.5716522180367747
 51
294.588256117597723
  0
ARC
  5
1FF2B
  8
0
 10
4786.3961060766614537
 20
-18.3775004867643688
 30
0.0
 40
0.44199996417119
 50
272.4089398316538109
 51
274.3313178226136984
  0
LINE
  5
1FF2C
  8
0
 10
4786.4282187466878895
 20
-18.8183323648664711
 30
0.0
 11
4786.4282187466878895
 21
-18.6642698795234416
 31
0.0
  0
LINE
  5
1FF2D
  8
0
 10
4786.4146840184212124
 20
-18.8191098485393198
 30
0.0
 11
4786.3494785934390165
 21
-18.8191098485393198
 31
0.0
  0
ARC
  5
1FF2E
  8
0
 10
4786.8303691516157414
 20
-18.1012261303073103
 30
0.0
 40
0.0394
 50
338.066948275425716
 51
65.0893224853115697
  0
ARC
  5
1FF2F
  8
0
 10
4788.6929428862358691
 20
-18.8512243401031689
 30
0.0
 40
1.9685039398324
 50
158.0669482754260002
 51
174.3419946147041912
  0
ARC
  5
1FF30
  8
0
 10
4786.7261677916785629
 20
-18.6563698795234387
 30
0.0
 40
0.0079
 50
270.0
 51
354.3419946147067208
  0
ARC
  5
1FF31
  8
0
 10
4786.3603646240226226
 20
-20.7552629926141599
 30
0.0
 40
2.0194218428729869
 50
74.3556441921492564
 51
88.0744554238285815
  0
ARC
  5
1FF32
  8
0
 10
4786.4699886638190947
 20
-20.3638040706105592
 30
0.0
 40
1.6129030638265529
 50
57.1092320420640078
 51
74.3556441921492564
  0
ARC
  5
1FF33
  8
0
 10
4786.8238777055821629
 20
-19.8165815813960187
 30
0.0
 40
0.9612206974985541
 50
35.3678090869159192
 51
57.1092320420640078
  0
ARC
  5
1FF34
  8
0
 10
4787.0637600252712218
 20
-19.6463088510728205
 30
0.0
 40
0.6670501177489918
 50
14.0336049271450296
 51
35.3678090869159192
  0
ARC
  5
1FF35
  8
0
 10
4787.164807991143789
 20
-19.6210518037662602
 30
0.0
 40
0.5628934576355566
 50
348.0343486201946916
 51
14.0336049271450296
  0
ARC
  5
1FF36
  8
0
 10
4787.077324479661911
 20
-19.6025114179737585
 30
0.0
 40
0.6523200235246241
 50
324.8056378489931149
 51
348.0343486201946916
  0
ARC
  5
1FF37
  8
0
 10
4786.8166722697260411
 20
-19.4186799184057186
 30
0.0
 40
0.9712770657386675
 50
303.235466059674593
 51
324.8056378489931149
  0
ARC
  5
1FF38
  8
0
 10
4786.4873555050289724
 20
-18.9161103952178493
 30
0.0
 40
1.572131172113572
 50
290.7057940290109741
 51
303.235466059674593
  0
ARC
  5
1FF39
  8
0
 10
4786.452342390006379
 20
-18.82347920554297
 30
0.0
 40
1.6711587214328321
 50
282.7766009238637821
 51
290.7057940290109741
  0
LINE
  5
1FF3A
  8
0
 10
4786.1734102490381702
 20
-20.7311990133234403
 30
0.0
 11
4786.1734102490381702
 21
-20.9674195827234406
 31
0.0
  0
LINE
  5
1FF3B
  8
0
 10
4786.525546937838044
 20
-20.7311990133234403
 30
0.0
 11
4786.525546937838044
 21
-20.9674195827234406
 31
0.0
  0
ARC
  5
1FF3C
  8
0
 10
4786.3494785941820737
 20
-20.5934037389699505
 30
0.0
 40
0.4133859137534868
 50
244.7912403082980859
 51
295.2087594639112922
  0
LINE
  5
1FF3D
  8
0
 10
4785.851965947813369
 20
-18.0655040613734386
 30
0.0
 11
4786.8469912711525467
 21
-18.0655040613734386
 31
0.0
  0
ENDSEC
  0
EOF
