  0
SECTION
  2
HEADER
  9
$ACADVER
  1
AC1009
  9
$INSBASE
 10
165.4232773906391003
 20
14.8014270521878402
 30
0.0
  9
$EXTMIN
 10
164.4156781804798015
 20
14.7964141468569608
 30
-0.0000000349181948
  9
$EXTMAX
 10
166.4345906698839883
 20
20.3199167777594702
 30
0.0000000814935746
  9
$LIMMIN
 10
0.0
 20
0.0
  9
$LIMMAX
 10
11.6929133858000007
 20
8.2677165353999982
  9
$ORTHOMODE
 70
     1
  9
$REGENMODE
 70
     1
  9
$FILLMODE
 70
     1
  9
$QTEXTMODE
 70
     0
  9
$MIRRTEXT
 70
     0
  9
$DRAGMODE
 70
     2
  9
$LTSCALE
 40
0.6431102362
  9
$OSMODE
 70
  4095
  9
$ATTMODE
 70
     1
  9
$TEXTSIZE
 40
0.2
  9
$TRACEWID
 40
0.05
  9
$TEXTSTYLE
  7
STANDARD
  9
$CLAYER
  8
0
  9
$CELTYPE
  6
BYLAYER
  9
$CECOLOR
 62
   256
  9
$DIMSCALE
 40
1.0
  9
$DIMASZ
 40
0.1875
  9
$DIMEXO
 40
0.0625
  9
$DIMDLI
 40
0.4443307087
  9
$DIMRND
 40
0.0
  9
$DIMDLE
 40
0.0
  9
$DIMEXE
 40
0.125
  9
$DIMTP
 40
0.01
  9
$DIMTM
 40
0.01
  9
$DIMTXT
 40
1.0
  9
$DIMCEN
 40
0.1052362205
  9
$DIMTSZ
 40
0.0
  9
$DIMTOL
 70
     1
  9
$DIMLIM
 70
     0
  9
$DIMTIH
 70
     1
  9
$DIMTOH
 70
     1
  9
$DIMSE1
 70
     0
  9
$DIMSE2
 70
     0
  9
$DIMTAD
 70
     0
  9
$DIMZIN
 70
     0
  9
$DIMBLK
  1

  9
$DIMASO
 70
     1
  9
$DIMSHO
 70
     1
  9
$DIMPOST
  1
\X
  9
$DIMAPOST
  1

  9
$DIMALT
 70
     1
  9
$DIMALTD
 70
     2
  9
$DIMALTF
 40
25.3999999999999986
  9
$DIMLFAC
 40
1.0
  9
$DIMTOFL
 70
     0
  9
$DIMTVP
 40
0.0
  9
$DIMTIX
 70
     0
  9
$DIMSOXD
 70
     0
  9
$DIMSAH
 70
     0
  9
$DIMBLK1
  1

  9
$DIMBLK2
  1

  9
$DIMSTYLE
  2
STANDARD
  9
$DIMCLRD
 70
     0
  9
$DIMCLRE
 70
     0
  9
$DIMCLRT
 70
     0
  9
$DIMTFAC
 40
1.0
  9
$DIMGAP
 40
0.09
  9
$LUNITS
 70
     2
  9
$LUPREC
 70
     4
  9
$SKETCHINC
 40
0.1
  9
$FILLETRAD
 40
0.0
  9
$AUNITS
 70
     0
  9
$AUPREC
 70
     0
  9
$MENU
  1
.
  9
$ELEVATION
 40
0.0
  9
$PELEVATION
 40
0.0
  9
$THICKNESS
 40
0.0
  9
$LIMCHECK
 70
     0
  9
$BLIPMODE
 70
     0
  9
$CHAMFERA
 40
0.0
  9
$CHAMFERB
 40
0.0
  9
$SKPOLY
 70
     0
  9
$TDCREATE
 40
2458172.4620254631154239
  9
$TDUPDATE
 40
2460490.50891203712672
  9
$TDINDWG
 40
0.0810583565
  9
$TDUSRTIMER
 40
0.0810583565
  9
$USRTIMER
 70
     1
  9
$ANGBASE
 50
0.0
  9
$ANGDIR
 70
     0
  9
$PDMODE
 70
     0
  9
$PDSIZE
 40
0.3125
  9
$PLINEWID
 40
0.0
  9
$COORDS
 70
     1
  9
$SPLFRAME
 70
     0
  9
$SPLINETYPE
 70
     6
  9
$SPLINESEGS
 70
     8
  9
$ATTDIA
 70
     1
  9
$ATTREQ
 70
     1
  9
$HANDLING
 70
     1
  9
$HANDSEED
  5
33BE
  9
$SURFTAB1
 70
     6
  9
$SURFTAB2
 70
     6
  9
$SURFTYPE
 70
     6
  9
$SURFU
 70
     6
  9
$SURFV
 70
     6
  9
$UCSNAME
  2

  9
$UCSORG
 10
0.0
 20
0.0
 30
0.0
  9
$UCSXDIR
 10
1.0
 20
0.0
 30
0.0
  9
$UCSYDIR
 10
0.0
 20
1.0
 30
0.0
  9
$PUCSNAME
  2

  9
$PUCSORG
 10
0.0
 20
0.0
 30
0.0
  9
$PUCSXDIR
 10
1.0
 20
0.0
 30
0.0
  9
$PUCSYDIR
 10
0.0
 20
1.0
 30
0.0
  9
$USERI1
 70
     0
  9
$USERI2
 70
     0
  9
$USERI3
 70
     0
  9
$USERI4
 70
     0
  9
$USERI5
 70
     0
  9
$USERR1
 40
0.0
  9
$USERR2
 40
0.0
  9
$USERR3
 40
0.0
  9
$USERR4
 40
0.0
  9
$USERR5
 40
0.0
  9
$WORLDVIEW
 70
     1
  9
$SHADEDGE
 70
     3
  9
$SHADEDIF
 70
    70
  9
$TILEMODE
 70
     1
  9
$MAXACTVP
 70
    64
  9
$PLIMCHECK
 70
     0
  9
$PEXTMIN
 10
1.0000000000000000E+20
 20
1.0000000000000000E+20
 30
1.0000000000000000E+20
  9
$PEXTMAX
 10
-1.0000000000000000E+20
 20
-1.0000000000000000E+20
 30
-1.0000000000000000E+20
  9
$PLIMMIN
 10
0.0
 20
0.0
  9
$PLIMMAX
 10
12.0
 20
9.0
  9
$UNITMODE
 70
     0
  9
$VISRETAIN
 70
     1
  9
$PLINEGEN
 70
     0
  9
$PSLTSCALE
 70
     1
  0
ENDSEC
  0
SECTION
  2
TABLES
  0
TABLE
  2
VPORT
 70
     1
  0
VPORT
  2
*ACTIVE
 70
     0
 10
0.0
 20
0.0
 11
1.0
 21
1.0
 12
-1.274800522253968
 22
4.389874706535994
 13
0.0
 23
0.0
 14
1.0
 24
1.0
 15
0.0
 25
0.0
 16
0.0
 26
0.0
 36
16.5150948445327401
 17
166.6999349474359065
 27
13.1682907557722206
 37
0.0
 40
5.5677987140433807
 41
2.5251322751322749
 42
50.0
 43
0.0
 44
0.0
 50
0.0
 51
0.0
 71
     0
 72
   100
 73
     1
 74
     1
 75
     0
 76
     0
 77
     0
 78
     0
  0
ENDTAB
  0
TABLE
  2
LTYPE
 70
     3
  0
LTYPE
  2
CONTINUOUS
 70
     0
  3
Solid line
 72
    65
 73
     0
 40
0.0
  0
LTYPE
  2
PHANTOM2
 70
     0
  3
___ _ _ ___ _ _ ___ _ _ ___ _ _
 72
    65
 73
     6
 40
1.25
 49
0.625
 49
-0.125
 49
0.125
 49
-0.125
 49
0.125
 49
-0.125
  0
ENDTAB
  0
TABLE
  2
LAYER
 70
     2
  0
LAYER
  2
0
 70
     0
 62
   255
  6
CONTINUOUS
  0
LAYER
  2
DEFPOINTS
 70
     0
 62
     7
  6
CONTINUOUS
  0
ENDTAB
  0
TABLE
  2
STYLE
 70
     1
  0
STYLE
  2
STANDARD
 70
     0
 40
0.0
 41
0.8
 50
0.0
 71
     0
 42
0.2
  3
txt
  4

  0
ENDTAB
  0
TABLE
  2
VIEW
 70
     0
  0
ENDTAB
  0
TABLE
  2
UCS
 70
     0
  0
ENDTAB
  0
TABLE
  2
APPID
 70
     9
  0
APPID
  2
ACAD
 70
     0
  0
APPID
  2
ACAD_MLEADERVER
 70
     0
  0
APPID
  2
ACAD_EXEMPT_FROM_CAD_STANDARDS
 70
     0
  0
APPID
  2
ACAD_DSTYLE_DIMJAG
 70
     0
  0
APPID
  2
ACAD_DSTYLE_DIMTALN
 70
     0
  0
APPID
  2
ACAD_NAV_VCDISPLAY
 70
     0
  0
APPID
  2
ACAECLAYERSTANDARD
 70
     0
  0
APPID
  2
ACCMTRANSPARENCY
 70
     0
  0
APPID
  2
ACDBATTR
 70
     0
  0
ENDTAB
  0
TABLE
  2
DIMSTYLE
 70
     2
  0
DIMSTYLE
  2
STANDARD
 70
     0
  3

  4

  5

  6

  7

 40
1.0
 41
0.1875
 42
0.0625
 43
0.38
 44
0.125
 45
0.0
 46
0.0
 47
0.01
 48
0.01
140
0.15625
141
0.09
142
0.0
143
25.3999999999999986
144
1.0
145
0.0
146
1.0
147
0.09
 71
     1
 72
     0
 73
     1
 74
     1
 75
     0
 76
     0
 77
     0
 78
     4
170
     0
171
     2
172
     0
173
     0
174
     0
175
     0
176
     0
177
     0
178
     0
  0
ENDTAB
  0
ENDSEC
  0
SECTION
  2
BLOCKS
  0
BLOCK
  8
0
  2
$MODEL_SPACE
 70
     0
 10
0.0
 20
0.0
 30
0.0
  3
$MODEL_SPACE
  1

  0
ENDBLK
  5
21
  8
0
  0
BLOCK
 67
     1
  8
0
  2
$PAPER_SPACE
 70
     0
 10
0.0
 20
0.0
 30
0.0
  3
$PAPER_SPACE
  1

  0
ENDBLK
  5
1D
 67
     1
  8
0
  0
BLOCK
  8
0
  2
_FILLED
 70
     0
 10
0.0
 20
0.0
 30
0.0
  3
_FILLED
  1

  0
SOLID
  5
252B
  8
0
  6
BYBLOCK
 62
     0
 10
0.0
 20
0.0
 30
0.0
 11
-1.0
 21
0.1666666667
 31
0.0
 12
-1.0
 22
-0.1666666667
 32
0.0
 13
-1.0
 23
-0.1666666667
 33
0.0
  0
ENDBLK
  5
252C
  8
0
  6
BYBLOCK
 62
     0
  0
ENDSEC
  0
SECTION
  2
ENTITIES
  0
ATTDEF
  5
157D
  8
DEFPOINTS
 10
165.4185122435013113
 20
14.7999634850471793
 30
0.0
 40
0.001
  1
K-103C36-SATA
  3

  2
MODELNUMBER
 70
     0
1001
ACDBATTR
1070
     0
1070
     1
  0
ATTDEF
  5
157E
  8
DEFPOINTS
 10
165.4185122435013113
 20
14.7982968183805195
 30
0.0
 40
0.001
  1
COMPOSED
  3

  2
TRADENAME
 70
     0
1001
ACDBATTR
1070
     0
1070
     1
  0
ATTDEF
  5
157F
  8
DEFPOINTS
 10
165.4185122435013113
 20
14.7966301517138508
 30
0.0
 40
0.001
  1
BATHROOM SINK FAUCET
  3

  2
PRODUCT
 70
     0
1001
ACDBATTR
1070
     0
1070
     1
  0
LINE
  5
2F63
  8
0
 10
164.4193403827391933
 20
14.8014270521878402
 30
0.0
 11
166.4272143985392063
 21
14.8014270521878402
 31
0.0
  0
LINE
  5
2F64
  8
0
 10
166.3957183355391862
 20
14.9589073671878392
 30
0.0
 11
164.4508364457392133
 21
14.9589073671878392
 31
0.0
  0
LINE
  5
2F65
  8
0
 10
164.7343010126390936
 20
14.9628443749878404
 30
0.0
 11
166.112253768539091
 21
14.9628443750878493
 31
0.0
  0
LINE
  5
2F66
  8
0
 10
164.4193403827391933
 20
14.8014270521878402
 30
0.0
 11
164.4193403827391933
 21
14.9274113041878493
 31
0.0
  0
LINE
  5
2F67
  8
0
 10
164.7146159733391926
 20
20.2819046225878417
 30
0.0
 11
164.7146159733391926
 21
19.5501861017878404
 31
0.0
  0
LINE
  5
2F68
  8
0
 10
164.7146159733391926
 20
14.9825294143878498
 30
0.0
 11
164.7146159733391926
 21
19.4950343084878384
 31
0.0
  0
LINE
  5
2F69
  8
0
 10
164.8268206977390946
 20
14.9628443750878493
 30
0.0
 11
164.8268206977390946
 21
14.9589073671878392
 31
0.0
  0
LINE
  5
2F6A
  8
0
 10
164.9390254221391103
 20
19.6729958823878412
 30
0.0
 11
164.9390254221391103
 21
19.6826138538878403
 31
0.0
  0
LINE
  5
2F6B
  8
0
 10
164.9508364457392133
 20
19.672818601887851
 30
0.0
 11
164.9508364457392133
 21
19.6862160731878504
 31
0.0
  0
LINE
  5
2F6C
  8
0
 10
166.0197340835391913
 20
14.9628443750878493
 30
0.0
 11
166.0197340835391913
 21
14.9589073671878392
 31
0.0
  0
LINE
  5
2F6D
  8
0
 10
166.1319388079390933
 20
14.9825294143878498
 30
0.0
 11
166.1319388079390933
 21
19.4950344805878402
 31
0.0
  0
LINE
  5
2F6E
  8
0
 10
166.1319388079390933
 20
19.5501861017878404
 30
0.0
 11
166.1319388079390933
 21
20.2819055553878513
 31
0.0
  0
LINE
  5
2F6F
  8
0
 10
166.4272143985392063
 20
14.8014270521878402
 30
0.0
 11
166.4272143985392063
 21
14.9274113041878493
 31
0.0
  0
LINE
  5
2F70
  8
0
 10
165.9546657049390888
 20
19.7479472333878512
 30
0.0
 11
164.8918890761391935
 21
19.7479472333878512
 31
0.0
  0
LINE
  5
2F71
  8
0
 10
165.9784051434891978
 20
20.3184854203195009
 30
0.0
 11
164.868149637789088
 21
20.3184854203195009
 31
0.0
  0
ARC
  5
2F72
  8
0
 10
164.4508364457392133
 20
14.9274113041878493
 30
0.0
 40
0.031496063
 50
90.0
 51
180.0
  0
ARC
  5
2F73
  8
0
 10
164.7343010126390936
 20
14.9825294143878498
 30
0.0
 40
0.0196850394
 50
180.0
 51
270.0
  0
ARC
  5
2F74
  8
0
 10
166.3957183355391862
 20
14.9274113041878493
 30
0.0
 40
0.031496063
 50
0.0
 51
90.0
  0
ARC
  5
2F75
  8
0
 10
166.1122537687099054
 20
14.9825294143171099
 30
0.0
 40
0.019685039229266
 50
269.9999995029891124
 51
0.0000002058870243
  0
ARC
  5
2F76
  8
0
 10
164.7497355585890091
 20
19.5515979757406591
 30
0.0
 40
0.0351479537979171
 50
182.3021593227522885
 51
251.9816709673546882
  0
ARC
  5
2F77
  8
0
 10
166.0978369667834045
 20
19.5508209677951896
 30
0.0
 40
0.0341077502198529
 50
286.8135807315013039
 51
358.9334610663020158
  0
ARC
  5
2F78
  8
0
 10
166.1107567659578876
 20
19.4949231498506315
 30
0.0
 40
0.0211823345509155
 50
0.3011382303075003
 51
56.5170257581435891
  0
ARC
  5
2F79
  8
0
 10
166.0970649739774103
 20
19.4678205199641283
 30
0.0
 40
0.0514622800473485
 50
60.4531484360452183
 51
82.723639856623393
  0
ARC
  5
2F7A
  8
0
 10
165.9733446005529061
 20
18.5960725606900006
 30
0.0
 40
0.9319410496103561
 50
81.9666456933843932
 51
87.4630955984598586
  0
ARC
  5
2F7B
  8
0
 10
165.4640630016234013
 20
6.6297952895802084
 30
0.0
 40
12.9090495489082908
 50
87.5557667176212533
 51
90.1810239594490639
  0
ARC
  5
2F7C
  8
0
 10
164.7357980124039898
 20
19.4949231525186093
 30
0.0
 40
0.0211823307167473
 50
123.4829716437862004
 51
179.6993344490934987
  0
ARC
  5
2F7D
  8
0
 10
164.749489807300904
 20
19.4678205199641283
 30
0.0
 40
0.0514622800473485
 50
97.2763601433766212
 51
119.5468515639547036
  0
ARC
  5
2F7E
  8
0
 10
164.8732101807254082
 20
18.5960725606900006
 30
0.0
 40
0.9319410496103561
 50
92.5369044015401272
 51
98.033354306615621
  0
ARC
  5
2F7F
  8
0
 10
165.3824917796549983
 20
6.6297952895802084
 30
0.0
 40
12.9090495489082908
 50
89.8189760405509503
 51
92.4442332823787751
  0
ARC
  5
2F80
  8
0
 10
164.8643819385175959
 20
18.4446652025050213
 30
0.0
 40
1.3035722820936571
 50
88.7908918454413509
 51
95.2055910401152516
  0
ARC
  5
2F81
  8
0
 10
164.7461091379356048
 20
19.7743548606842516
 30
0.0
 40
0.0314938950963998
 50
180.3902432361171861
 51
270.0000000065056156
  0
ARC
  5
2F82
  8
0
 10
165.9853689897167897
 20
18.5368911356977399
 30
0.0
 40
1.2114452374946689
 50
84.550154421825809
 51
91.4522794464366626
  0
ARC
  5
2F83
  8
0
 10
166.100451792361099
 20
19.7743473025342595
 30
0.0
 40
0.0314870164272429
 50
269.9517153611387812
 51
359.9866932200413885
  0
ARC
  5
2F84
  8
0
 10
165.1629215934414106
 20
19.6046521082973086
 30
0.0
 40
0.136446510753551
 50
107.357650564533202
 51
130.4871158742105877
  0
ARC
  5
2F85
  8
0
 10
165.0895991899838009
 20
19.6944635063125801
 30
0.0
 40
0.0206910796233089
 50
137.5579026550209107
 51
176.7753063743060125
  0
ARC
  5
2F86
  8
0
 10
165.0988138844460877
 20
19.7006225850140417
 30
0.0
 40
0.0302877624646288
 50
189.4927984558252945
 51
243.2900571918721084
  0
ARC
  5
2F87
  8
0
 10
165.2101052483774879
 20
19.8996364114382587
 30
0.0
 40
0.2582803574029938
 50
241.0790728648242975
 51
248.9898049351947975
  0
ARC
  5
2F88
  8
0
 10
165.4065622001712086
 20
9.1031130017994712
 30
0.0
 40
10.6355737587354895
 50
89.9099521771409513
 51
91.750795638530235
  0
ARC
  5
2F89
  8
0
 10
165.154205972564796
 20
17.3008325330906487
 30
0.0
 40
2.433971759224808
 50
91.7089304247351436
 51
94.2307542975387946
  0
ARC
  5
2F8A
  8
0
 10
164.9775982779358969
 20
19.5925106363908803
 30
0.0
 40
0.1356933144482562
 50
91.2478073292264469
 51
108.2569488556375035
  0
ARC
  5
2F8B
  8
0
 10
165.0086223910217029
 20
20.0171129507443517
 30
0.0
 40
0.3047444576432201
 50
256.0368866646999777
 51
279.2143508822338731
  0
ARC
  5
2F8C
  8
0
 10
164.99108653547529
 20
19.6728957296869105
 30
0.0
 40
0.0402501636328025
 50
180.1097908598397055
 51
236.3673706491971132
  0
ARC
  5
2F8D
  8
0
 10
165.1021225338340912
 20
19.8524777130058006
 30
0.0
 40
0.2513681405597678
 50
237.9665668417572135
 51
263.8676166026179999
  0
ARC
  5
2F8E
  8
0
 10
165.2884823357919117
 20
21.3325557379018598
 30
0.0
 40
1.7430967940228761
 50
262.9740883742471169
 51
267.9493779638647197
  0
ARC
  5
2F8F
  8
0
 10
164.9676728440246904
 20
19.6098483660156901
 30
0.0
 40
0.0782016048809954
 50
92.8332418169653124
 51
111.4893206604923961
  0
ARC
  5
2F90
  8
0
 10
165.0887219336187002
 20
18.3467387121425887
 30
0.0
 40
1.3470200842862869
 50
90.8241505476354831
 51
95.3209107212180555
  0
ARC
  5
2F91
  8
0
 10
164.9519549503062876
 20
19.693670441831479
 30
0.0
 40
0.0243846284944519
 50
237.9788191115843006
 51
267.7482943993418871
  0
ARC
  5
2F92
  8
0
 10
164.747875870320712
 20
20.2814418239640588
 30
0.0
 40
0.0332631166574056
 50
104.0837982632785952
 51
179.2028028480756916
  0
ARC
  5
2F93
  8
0
 10
164.7810973195670101
 20
20.06652713278093
 30
0.0
 40
0.2506071156824074
 50
91.2914082982233168
 51
99.4892481425402053
  0
ARC
  5
2F94
  8
0
 10
164.8813000040219094
 20
16.4192622377997601
 30
0.0
 40
3.8992453576597952
 50
90.1932327523411459
 51
91.5555688863726687
  0
ARC
  5
2F95
  8
0
 10
166.0986788929945988
 20
20.281441796158699
 30
0.0
 40
0.0332631479980916
 50
0.7988512529551673
 51
75.916183380239147
  0
ARC
  5
2F96
  8
0
 10
166.0654574617113042
 20
20.06652713278093
 30
0.0
 40
0.2506071156824074
 50
80.5107518574598231
 51
88.7085917017766974
  0
ARC
  5
2F97
  8
0
 10
165.9652778363773962
 20
16.4207730869601498
 30
0.0
 40
3.8977344393652098
 50
88.4441670530993918
 51
89.8070313081872342
  0
LINE
  5
2F98
  8
0
 10
165.9075293591390903
 20
19.6729958823878412
 30
0.0
 11
165.9075293591390903
 21
19.6826138538878403
 31
0.0
  0
LINE
  5
2F99
  8
0
 10
165.8957183355391862
 20
19.672818601887851
 30
0.0
 11
165.8957183355391862
 21
19.6862160731878504
 31
0.0
  0
ARC
  5
2F9A
  8
0
 10
165.6836215686435878
 20
19.6046521082973086
 30
0.0
 40
0.136446510753551
 50
49.5128841257894194
 51
72.6428277549495505
  0
ARC
  5
2F9B
  8
0
 10
165.7569439721011122
 20
19.6944635063125801
 30
0.0
 40
0.0206910796233089
 50
3.2246936256940169
 51
42.4420973449791106
  0
ARC
  5
2F9C
  8
0
 10
165.7477292776389106
 20
19.7006225850140417
 30
0.0
 40
0.0302877624646288
 50
296.7099428081278916
 51
350.5072015441747908
  0
ARC
  5
2F9D
  8
0
 10
165.6364379137075957
 20
19.8996364114382587
 30
0.0
 40
0.2582803574029938
 50
291.8263747825407108
 51
298.9209271351758161
  0
ARC
  5
2F9E
  8
0
 10
165.4399925811071057
 20
9.1031130017994712
 30
0.0
 40
10.6355737587354895
 50
88.249204361469765
 51
90.0900478228590629
  0
ARC
  5
2F9F
  8
0
 10
165.6923488087134899
 20
17.3008325330906487
 30
0.0
 40
2.433971759224808
 50
85.769245702461177
 51
88.2910695752648707
  0
ARC
  5
2FA0
  8
0
 10
165.8689565033423889
 20
19.5925106363908803
 30
0.0
 40
0.1356933144482562
 50
71.7430511443625392
 51
88.7521926707735673
  0
ARC
  5
2FA1
  8
0
 10
165.8379323902566966
 20
20.0171129507443517
 30
0.0
 40
0.3047444576432201
 50
261.0241076698462166
 51
283.9631133353000223
  0
ARC
  5
2FA2
  8
0
 10
165.8554682458029959
 20
19.6728957296869105
 30
0.0
 40
0.0402501636328025
 50
303.6326293508026879
 51
359.8902091401600956
  0
ARC
  5
2FA3
  8
0
 10
165.7444322474441947
 20
19.8524777130058006
 30
0.0
 40
0.2513681405597678
 50
276.1323833973818864
 51
302.0334331582428149
  0
ARC
  5
2FA4
  8
0
 10
165.5580724454862889
 20
21.3325557379018598
 30
0.0
 40
1.7430967940228761
 50
270.2199814477846189
 51
277.0259116257528831
  0
ARC
  5
2FA5
  8
0
 10
165.8788819372535954
 20
19.6098483660156901
 30
0.0
 40
0.0782016048809954
 50
68.5106793395075755
 51
87.1667581830346876
  0
ARC
  5
2FA6
  8
0
 10
165.7578328476596141
 20
18.3467387121425887
 30
0.0
 40
1.3470200842862869
 50
84.6790892787819303
 51
89.1763420447357049
  0
ARC
  5
2FA7
  8
0
 10
165.8945998309719982
 20
19.693670441831479
 30
0.0
 40
0.0243846284944519
 50
272.2517056006581129
 51
302.0211808884155857
  0
ARC
  5
2FA8
  8
0
 10
165.0806473036967077
 20
19.7314173350232416
 30
0.0
 40
0.0275888565148232
 50
177.3290856982009132
 51
193.1742625149722983
  0
ARC
  5
2FA9
  8
0
 10
165.1861028365553921
 20
19.7744621954850608
 30
0.0
 40
0.1412156087296868
 50
200.4471566508289868
 51
213.9354294248155952
  0
ARC
  5
2FAA
  8
0
 10
165.7746978490139895
 20
19.7337276130594397
 30
0.0
 40
0.0186702156667264
 50
356.0989230582922005
 51
356.8700357240722951
  0
ARC
  5
2FAB
  8
0
 10
165.7395230002447875
 20
19.7340589687853303
 30
0.0
 40
0.0538256378885081
 50
344.0440719849966058
 51
358.2949293135325206
  0
ARC
  5
2FAC
  8
0
 10
165.7439972690993955
 20
19.7308398609004882
 30
0.0
 40
0.0486745684548249
 50
313.6619410850652798
 51
346.2400782402374944
  0
ARC
  5
2FAD
  8
0
 10
165.3017063822202033
 20
19.6893775212782316
 30
0.0
 40
0.0009281565954009
 50
141.0426627249476041
 51
220.6391220430624003
  0
ARC
  5
2FAE
  8
0
 10
165.3044116137494939
 20
19.6918831877127616
 30
0.0
 40
0.0046149884205211
 50
222.3709240277570132
 51
252.3425610120860085
  0
ARC
  5
2FAF
  8
0
 10
165.3115691255933086
 20
19.7107849270430791
 30
0.0
 40
0.0248210756526009
 50
249.8327541840845925
 51
260.519818496160326
  0
ARC
  5
2FB0
  8
0
 10
165.3202132554162063
 20
19.76513441166394
 30
0.0
 40
0.0798531676161162
 50
260.8252201358366733
 51
281.300015146005876
  0
ARC
  5
2FB1
  8
0
 10
165.3324114161007117
 20
19.7005439751840186
 30
0.0
 40
0.0141417235756609
 50
284.1152236136830993
 51
299.0754278613270003
  0
ARC
  5
2FB2
  8
0
 10
165.3383653777511029
 20
19.689836013265591
 30
0.0
 40
0.001889780555024
 50
299.0754278613231918
 51
329.4880836223794063
  0
ARC
  5
2FB3
  8
0
 10
165.3391008020884954
 20
19.6894026091749801
 30
0.0
 40
0.0010361482795228
 50
329.4880836223792926
 51
56.5892896404681025
  0
ARC
  5
2FB4
  8
0
 10
165.3347001677439891
 20
19.6837068768265304
 30
0.0
 40
0.0082313268135523
 50
52.8478488659894907
 51
75.6728490673323648
  0
ARC
  5
2FB5
  8
0
 10
165.3204968266850869
 20
19.6188771427909714
 30
0.0
 40
0.0745943814233801
 50
77.4251922990836334
 51
102.7659736819953054
  0
ARC
  5
2FB6
  8
0
 10
165.3083509783328111
 20
19.6784820916641117
 30
0.0
 40
0.0138425462866437
 50
108.2597576882244965
 51
118.2722677679629015
  0
ARC
  5
2FB7
  8
0
 10
165.3029240579220129
 20
19.6885726739889293
 30
0.0
 40
0.0023851767456153
 50
118.2722677679611962
 51
144.401425916901303
  0
ARC
  5
2FB8
  8
0
 10
165.2924022375866002
 20
19.6949884371510393
 30
0.0
 40
0.0084931626068441
 50
184.7323269816764082
 51
242.2719464895824046
  0
ARC
  5
2FB9
  8
0
 10
165.3041205994279892
 20
19.7172820986676207
 30
0.0
 40
0.033679018718204
 50
242.2719464895824046
 51
260.6361095257939837
  0
ARC
  5
2FBA
  8
0
 10
165.3220821587499927
 20
19.8262050633052311
 30
0.0
 40
0.1440729942726926
 50
260.6361095257939837
 51
276.3054297603280247
  0
ARC
  5
2FBB
  8
0
 10
165.3307770282513047
 20
19.7475162902964811
 30
0.0
 40
0.0649053003990806
 50
276.3054297603280247
 51
290.5063231263732177
  0
ARC
  5
2FBC
  8
0
 10
165.3502915189833971
 20
19.6953399684100816
 30
0.0
 40
0.0091990717156858
 50
290.5063231263698071
 51
0.0074975299047592
  0
LINE
  5
2FBD
  8
0
 10
165.2839380281924946
 20
19.6942877443514313
 30
0.0
 11
165.2819890792742115
 21
19.737957180961331
 31
0.0
  0
LINE
  5
2FBE
  8
0
 10
165.359490590620311
 20
19.6953411721691616
 30
0.0
 11
165.3629185345882036
 21
19.738597213059311
 31
0.0
  0
ARC
  5
2FBF
  8
0
 10
165.2863845781214138
 20
19.6942315241629089
 30
0.0
 40
0.0024471957960725
 50
137.4353273409894882
 51
178.6836104653654047
  0
ARC
  5
2FC0
  8
0
 10
165.2891662386452083
 20
19.6916787112473983
 30
0.0
 40
0.0062227074551751
 50
117.6218900376198064
 51
137.4481544907272053
  0
ARC
  5
2FC1
  8
0
 10
165.2981443170432101
 20
19.6745212000304512
 30
0.0
 40
0.0255872648443564
 50
104.2941724996588988
 51
117.6218900376183001
  0
ARC
  5
2FC2
  8
0
 10
165.3121655308135018
 20
19.6194904024709409
 30
0.0
 40
0.0823761996435817
 50
97.5332861213213818
 51
104.2941724996588988
  0
ARC
  5
2FC3
  8
0
 10
165.3186555265170057
 20
19.5704143228524217
 30
0.0
 40
0.1318795493782607
 50
93.3495214186091715
 51
97.5332861213213818
  0
ARC
  5
2FC4
  8
0
 10
165.321202960515393
 20
19.5268884316899793
 30
0.0
 40
0.1754799234759721
 50
86.6587322270113845
 51
93.3495214186091715
  0
ARC
  5
2FC5
  8
0
 10
165.323514728190105
 20
19.5664854819027099
 30
0.0
 40
0.1358154474888717
 50
81.2884643039078441
 51
86.6587322270113845
  0
ARC
  5
2FC6
  8
0
 10
165.3346202504903886
 20
19.6389627981812609
 30
0.0
 40
0.0624922315167023
 50
71.9516757143821479
 51
81.2884643039094641
  0
ARC
  5
2FC7
  8
0
 10
165.3480978110796116
 20
19.6812011509516509
 30
0.0
 40
0.0181586240033218
 50
51.1412028887290404
 51
71.0939070380108831
  0
ARC
  5
2FC8
  8
0
 10
165.2156786871960037
 20
19.6770389392176384
 30
0.0
 40
0.0009281565954009
 50
141.0426627249476041
 51
220.6391220430624003
  0
ARC
  5
2FC9
  8
0
 10
165.2183839187252943
 20
19.6795446056521683
 30
0.0
 40
0.0046149884205211
 50
222.3709240277570132
 51
252.3425610120860085
  0
ARC
  5
2FCA
  8
0
 10
165.2255414305691943
 20
19.6984463449825
 30
0.0
 40
0.0248210756526009
 50
249.8327541840845925
 51
260.519818496160326
  0
ARC
  5
2FCB
  8
0
 10
165.2341855603920919
 20
19.752795829603361
 30
0.0
 40
0.0798531676161162
 50
260.8252201358366733
 51
281.300015146005876
  0
ARC
  5
2FCC
  8
0
 10
165.2463837210765973
 20
19.6882053931234289
 30
0.0
 40
0.0141417235756609
 50
284.1152236136830993
 51
299.0754278613270003
  0
ARC
  5
2FCD
  8
0
 10
165.2523376827269885
 20
19.677497431205019
 30
0.0
 40
0.001889780555024
 50
299.0754278613231918
 51
329.4880836223794063
  0
ARC
  5
2FCE
  8
0
 10
165.2530731070644094
 20
19.6770640271144011
 30
0.0
 40
0.0010361482795228
 50
329.4880836223792926
 51
56.5892896404681025
  0
ARC
  5
2FCF
  8
0
 10
165.2486724727199032
 20
19.6713682947659514
 30
0.0
 40
0.0082313268135523
 50
52.8478488659894907
 51
75.6728490673323648
  0
ARC
  5
2FD0
  8
0
 10
165.234469131661001
 20
19.6065385607303817
 30
0.0
 40
0.0745943814233801
 50
77.4251922990836334
 51
102.7659736819953054
  0
ARC
  5
2FD1
  8
0
 10
165.2223232833086968
 20
19.6661435096035291
 30
0.0
 40
0.0138425462866437
 50
108.2597576882244965
 51
118.2722677679629015
  0
ARC
  5
2FD2
  8
0
 10
165.2168963628978133
 20
19.6762340919283396
 30
0.0
 40
0.0023851767456153
 50
118.2722677679611962
 51
144.401425916901303
  0
ARC
  5
2FD3
  8
0
 10
165.2063745425624859
 20
19.6826498550904496
 30
0.0
 40
0.0084931626068441
 50
184.7323269816764082
 51
242.2719464895824046
  0
ARC
  5
2FD4
  8
0
 10
165.2180929044039033
 20
19.7049435166070417
 30
0.0
 40
0.033679018718204
 50
242.2719464895824046
 51
260.6361095257939837
  0
ARC
  5
2FD5
  8
0
 10
165.2360544637259068
 20
19.8138664812446414
 30
0.0
 40
0.1440729942726926
 50
260.6361095257939837
 51
276.3054297603280247
  0
ARC
  5
2FD6
  8
0
 10
165.2447493332271904
 20
19.7351777082358915
 30
0.0
 40
0.0649053003990806
 50
276.3054297603280247
 51
290.5063231263732177
  0
ARC
  5
2FD7
  8
0
 10
165.2642638239593111
 20
19.683001386349499
 30
0.0
 40
0.0091990717156858
 50
290.5063231263698071
 51
0.0074975299047592
  0
LINE
  5
2FD8
  8
0
 10
165.1979103331684087
 20
19.6819491622908487
 30
0.0
 11
165.1954809829684052
 21
19.7363827872908502
 31
0.0
  0
LINE
  5
2FD9
  8
0
 10
165.2734628955961966
 20
19.683002590108579
 30
0.0
 11
165.2776876480683939
 21
19.7363132822908511
 31
0.0
  0
ARC
  5
2FDA
  8
0
 10
165.2003568830972995
 20
19.6818929421023192
 30
0.0
 40
0.0024471957960725
 50
137.4353273409894882
 51
178.6836104653654047
  0
ARC
  5
2FDB
  8
0
 10
165.203138543621094
 20
19.6793401291868193
 30
0.0
 40
0.0062227074551751
 50
117.6218900376198064
 51
137.4481544907272053
  0
ARC
  5
2FDC
  8
0
 10
165.2121166220190105
 20
19.6621826179698687
 30
0.0
 40
0.0255872648443564
 50
104.2941724996588988
 51
117.6218900376183001
  0
ARC
  5
2FDD
  8
0
 10
165.2261378357893875
 20
19.6071518204103583
 30
0.0
 40
0.0823761996435817
 50
97.5332861213213818
 51
104.2941724996588988
  0
ARC
  5
2FDE
  8
0
 10
165.2326278314928913
 20
19.5580757407918284
 30
0.0
 40
0.1318795493782607
 50
93.3495214186091715
 51
97.5332861213213818
  0
ARC
  5
2FDF
  8
0
 10
165.2351752654911934
 20
19.5145498496294003
 30
0.0
 40
0.1754799234759721
 50
86.6587322270113845
 51
93.3495214186091715
  0
ARC
  5
2FE0
  8
0
 10
165.2374870331659906
 20
19.5541468998421308
 30
0.0
 40
0.1358154474888717
 50
81.2884643039078441
 51
86.6587322270113845
  0
ARC
  5
2FE1
  8
0
 10
165.248592555466189
 20
19.6266242161206712
 30
0.0
 40
0.0624922315167023
 50
71.9516757143821479
 51
81.2884643039094641
  0
ARC
  5
2FE2
  8
0
 10
165.2620701160554972
 20
19.6688625688910683
 30
0.0
 40
0.0181586240033218
 50
51.1412028887290404
 51
71.0939070380108831
  0
ARC
  5
2FE3
  8
0
 10
165.1985047534749071
 20
19.7357780080331295
 30
0.0
 40
0.0054610556872629
 50
211.5823462546262874
 51
239.3111676033859112
  0
ARC
  5
2FE4
  8
0
 10
165.1953393001890902
 20
19.7338319523883108
 30
0.0
 40
0.0017452479584756
 50
149.9714243287021134
 51
211.5823462546329949
  0
ARC
  5
2FE5
  8
0
 10
165.1978872747619107
 20
19.7323591837270591
 30
0.0
 40
0.0046882433633419
 50
120.8812787566428995
 51
149.9714243287004933
  0
ARC
  5
2FE6
  8
0
 10
165.2364756233600929
 20
19.6077929688666188
 30
0.0
 40
0.1349662992869668
 50
72.220748946038313
 51
74.4874566380954235
  0
ARC
  5
2FE7
  8
0
 10
165.2364756233600929
 20
19.6077929688666188
 30
0.0
 40
0.1349662992869668
 50
107.3677910320095066
 51
107.6823649389170043
  0
ARC
  5
2FE8
  8
0
 10
165.2753715745978127
 20
19.7324553592087106
 30
0.0
 40
0.0044997518630269
 50
32.9921259813146932
 51
59.0218351283160914
  0
ARC
  5
2FE9
  8
0
 10
165.2775096526368088
 20
19.7338434256112087
 30
0.0
 40
0.0019506135696612
 50
331.646061071891495
 51
32.9921259813052004
  0
ARC
  5
2FEA
  8
0
 10
165.2753002526619923
 20
19.7350357492706117
 30
0.0
 40
0.0044612079131449
 50
296.189381315037906
 51
331.6460610718934845
  0
ARC
  5
2FEB
  8
0
 10
165.1581124046682021
 20
19.6598477600750314
 30
0.0
 40
0.0009281565954009
 50
141.0426627249476041
 51
220.6391220430624003
  0
ARC
  5
2FEC
  8
0
 10
165.1608176361974927
 20
19.6623534265095614
 30
0.0
 40
0.0046149884205211
 50
222.3709240277570132
 51
252.3425610120860085
  0
ARC
  5
2FED
  8
0
 10
165.1679751480413074
 20
19.6812551658398789
 30
0.0
 40
0.0248210756526009
 50
249.8327541840845925
 51
260.519818496160326
  0
ARC
  5
2FEE
  8
0
 10
165.1766192778642051
 20
19.7356046504607399
 30
0.0
 40
0.0798531676161162
 50
260.8252201358366733
 51
281.300015146005876
  0
ARC
  5
2FEF
  8
0
 10
165.1888174385487105
 20
19.6710142139808184
 30
0.0
 40
0.0141417235756609
 50
284.1152236136830993
 51
299.0754278613270003
  0
ARC
  5
2FF0
  8
0
 10
165.1947714001991017
 20
19.6603062520624015
 30
0.0
 40
0.001889780555024
 50
299.0754278613231918
 51
329.4880836223794063
  0
ARC
  5
2FF1
  8
0
 10
165.1955068245364942
 20
19.6598728479717799
 30
0.0
 40
0.0010361482795228
 50
329.4880836223792926
 51
56.5892896404681025
  0
ARC
  5
2FF2
  8
0
 10
165.1911061901919879
 20
19.6541771156233303
 30
0.0
 40
0.0082313268135523
 50
52.8478488659894907
 51
75.6728490673323648
  0
ARC
  5
2FF3
  8
0
 10
165.1769028491331142
 20
19.5893473815877712
 30
0.0
 40
0.0745943814233801
 50
77.4251922990836334
 51
102.7659736819953054
  0
ARC
  5
2FF4
  8
0
 10
165.1647570007808099
 20
19.6489523304609115
 30
0.0
 40
0.0138425462866437
 50
108.2597576882244965
 51
118.2722677679629015
  0
ARC
  5
2FF5
  8
0
 10
165.1593300803700117
 20
19.6590429127857291
 30
0.0
 40
0.0023851767456153
 50
118.2722677679611962
 51
144.401425916901303
  0
ARC
  5
2FF6
  8
0
 10
165.148808260034599
 20
19.6654586759478391
 30
0.0
 40
0.0084931626068441
 50
184.7323269816764082
 51
242.2719464895824046
  0
ARC
  5
2FF7
  8
0
 10
165.160526621875988
 20
19.6877523374644205
 30
0.0
 40
0.033679018718204
 50
242.2719464895824046
 51
260.6361095257939837
  0
ARC
  5
2FF8
  8
0
 10
165.1784881811979915
 20
19.796675302102031
 30
0.0
 40
0.1440729942726926
 50
260.6361095257939837
 51
276.3054297603280247
  0
ARC
  5
2FF9
  8
0
 10
165.1871830506991898
 20
19.717986529093281
 30
0.0
 40
0.0649053003990806
 50
276.3054297603280247
 51
290.5063231263732177
  0
ARC
  5
2FFA
  8
0
 10
165.2066975414313958
 20
19.6658102072068814
 30
0.0
 40
0.0091990717156858
 50
290.5063231263698071
 51
0.0074975299047592
  0
LINE
  5
2FFB
  8
0
 10
165.1403440506404934
 20
19.6647579831482311
 30
0.0
 11
165.1379147004404899
 21
19.719191608148229
 31
0.0
  0
LINE
  5
2FFC
  8
0
 10
165.2158966130683098
 20
19.6658114109659685
 30
0.0
 11
165.2163198017485968
 21
19.6711514827499485
 31
0.0
  0
ARC
  5
2FFD
  8
0
 10
165.1427906005694126
 20
19.6647017629597087
 30
0.0
 40
0.0024471957960725
 50
137.4353273409894882
 51
178.6836104653654047
  0
ARC
  5
2FFE
  8
0
 10
165.1455722610932071
 20
19.6621489500442017
 30
0.0
 40
0.0062227074551751
 50
117.6218900376198064
 51
137.4481544907272053
  0
ARC
  5
2FFF
  8
0
 10
165.1545503394910952
 20
19.6449914388272511
 30
0.0
 40
0.0255872648443564
 50
104.2941724996588988
 51
117.6218900376183001
  0
ARC
  5
3000
  8
0
 10
165.1685715532615006
 20
19.5899606412677407
 30
0.0
 40
0.0823761996435817
 50
97.5332861213213818
 51
104.2941724996588988
  0
ARC
  5
3001
  8
0
 10
165.1750615489650045
 20
19.5408845616492215
 30
0.0
 40
0.1318795493782607
 50
93.3495214186091715
 51
97.5332861213213818
  0
ARC
  5
3002
  8
0
 10
165.1776089829633065
 20
19.4973586704867898
 30
0.0
 40
0.1754799234759721
 50
86.6587322270113845
 51
93.3495214186091715
  0
ARC
  5
3003
  8
0
 10
165.1799207506381038
 20
19.5369557206995097
 30
0.0
 40
0.1358154474888717
 50
81.2884643039078441
 51
86.6587322270113845
  0
ARC
  5
3004
  8
0
 10
165.1910262729383021
 20
19.6094330369780607
 30
0.0
 40
0.0624922315167023
 50
71.9516757143821479
 51
81.2884643039094641
  0
ARC
  5
3005
  8
0
 10
165.2045038335276104
 20
19.6516713897484614
 30
0.0
 40
0.0181586240033218
 50
51.1412028887290404
 51
71.0939070380108831
  0
ARC
  5
3006
  8
0
 10
165.1409384709469919
 20
19.7185868288905084
 30
0.0
 40
0.0054610556872629
 50
211.5823462546262874
 51
239.3111676033859112
  0
ARC
  5
3007
  8
0
 10
165.1377730176612033
 20
19.7166407732456896
 30
0.0
 40
0.0017452479584756
 50
149.9714243287021134
 51
211.5823462546329949
  0
ARC
  5
3008
  8
0
 10
165.1403209922339954
 20
19.7151680045844486
 30
0.0
 40
0.0046882433633419
 50
120.8812787566428995
 51
149.9714243287004933
  0
ARC
  5
3009
  8
0
 10
165.178909340832206
 20
19.5906017897240083
 30
0.0
 40
0.1349662992869668
 50
82.7199371994636721
 51
107.6823649389170043
  0
ARC
  5
300A
  8
0
 10
165.4031428432714961
 20
19.6938943483315398
 30
0.0
 40
0.0009281565954009
 50
141.0426627249476041
 51
220.6391220430624003
  0
ARC
  5
300B
  8
0
 10
165.4058480748007867
 20
19.6964000147660698
 30
0.0
 40
0.0046149884205211
 50
222.3709240277570132
 51
252.3425610120860085
  0
ARC
  5
300C
  8
0
 10
165.4130055866446867
 20
19.7153017540963909
 30
0.0
 40
0.0248210756526009
 50
249.8327541840845925
 51
260.519818496160326
  0
ARC
  5
300D
  8
0
 10
165.4216497164676127
 20
19.7696512387172483
 30
0.0
 40
0.0798531676161162
 50
260.8252201358366733
 51
281.300015146005876
  0
ARC
  5
300E
  8
0
 10
165.4338478771520897
 20
19.7050608022373304
 30
0.0
 40
0.0141417235756609
 50
284.1152236136830993
 51
299.0754278613270003
  0
ARC
  5
300F
  8
0
 10
165.4398018388025093
 20
19.6943528403189099
 30
0.0
 40
0.001889780555024
 50
299.0754278613231918
 51
329.4880836223794063
  0
ARC
  5
3010
  8
0
 10
165.4405372631399018
 20
19.6939194362282883
 30
0.0
 40
0.0010361482795228
 50
329.4880836223792926
 51
56.5892896404681025
  0
ARC
  5
3011
  8
0
 10
165.4361366287953956
 20
19.6882237038798387
 30
0.0
 40
0.0082313268135523
 50
52.8478488659894907
 51
75.6728490673323648
  0
ARC
  5
3012
  8
0
 10
165.4219332877364081
 20
19.6233939698442796
 30
0.0
 40
0.0745943814233801
 50
77.4251922990836334
 51
102.7659736819953054
  0
ARC
  5
3013
  8
0
 10
165.4097874393841892
 20
19.6829989187174199
 30
0.0
 40
0.0138425462866437
 50
108.2597576882244965
 51
118.2722677679629015
  0
ARC
  5
3014
  8
0
 10
165.4043605189733057
 20
19.6930895010422411
 30
0.0
 40
0.0023851767456153
 50
118.2722677679611962
 51
144.401425916901303
  0
ARC
  5
3015
  8
0
 10
165.393838698637893
 20
19.6995052642043511
 30
0.0
 40
0.0084931626068441
 50
184.7323269816764082
 51
242.2719464895824046
  0
ARC
  5
3016
  8
0
 10
165.4055570604793104
 20
19.721798925720929
 30
0.0
 40
0.033679018718204
 50
242.2719464895824046
 51
260.6361095257939837
  0
ARC
  5
3017
  8
0
 10
165.4235186198013992
 20
19.8307218903585394
 30
0.0
 40
0.1440729942726926
 50
260.6361095257939837
 51
276.3054297603280247
  0
ARC
  5
3018
  8
0
 10
165.4322134893025975
 20
19.7520331173497894
 30
0.0
 40
0.0649053003990806
 50
276.3054297603280247
 51
290.5063231263732177
  0
ARC
  5
3019
  8
0
 10
165.4517279800348035
 20
19.6998567954634005
 30
0.0
 40
0.0091990717156858
 50
290.5063231263698071
 51
0.0074975299047592
  0
LINE
  5
301A
  8
0
 10
165.3853744892439011
 20
19.6988045714047395
 30
0.0
 11
165.3835956702992007
 21
19.7386619634661216
 31
0.0
  0
LINE
  5
301B
  8
0
 10
165.460927051671689
 20
19.6998579992224805
 30
0.0
 11
165.4640019960575046
 21
19.7386596603166815
 31
0.0
  0
ARC
  5
301C
  8
0
 10
165.3878210391727919
 20
19.6987483512162207
 30
0.0
 40
0.0024471957960725
 50
137.4353273409894882
 51
178.6836104653654047
  0
ARC
  5
301D
  8
0
 10
165.3906026996965863
 20
19.6961955383007101
 30
0.0
 40
0.0062227074551751
 50
117.6218900376198064
 51
137.4481544907272053
  0
ARC
  5
301E
  8
0
 10
165.3995807780945029
 20
19.6790380270837595
 30
0.0
 40
0.0255872648443564
 50
104.2941724996588988
 51
117.6218900376183001
  0
ARC
  5
301F
  8
0
 10
165.4136019918649083
 20
19.6240072295242491
 30
0.0
 40
0.0823761996435817
 50
97.5332861213213818
 51
104.2941724996588988
  0
ARC
  5
3020
  8
0
 10
165.4200919875682985
 20
19.5749311499057299
 30
0.0
 40
0.1318795493782607
 50
93.3495214186091715
 51
97.5332861213213818
  0
ARC
  5
3021
  8
0
 10
165.4226394215667142
 20
19.5314052587432982
 30
0.0
 40
0.1754799234759721
 50
86.6587322270113845
 51
93.3495214186091715
  0
ARC
  5
3022
  8
0
 10
165.4249511892415114
 20
19.5710023089560217
 30
0.0
 40
0.1358154474888717
 50
81.2884643039078441
 51
86.6587322270113845
  0
ARC
  5
3023
  8
0
 10
165.4360567115417098
 20
19.6434796252345691
 30
0.0
 40
0.0624922315167023
 50
71.9516757143821479
 51
81.2884643039094641
  0
ARC
  5
3024
  8
0
 10
165.4495342721309896
 20
19.6857179780049591
 30
0.0
 40
0.0181586240033218
 50
51.1412028887290404
 51
71.0939070380108831
  0
ARC
  5
3025
  8
0
 10
165.504990673831287
 20
19.6900617825756008
 30
0.0
 40
0.0009281565954009
 50
141.0426627249476041
 51
220.6391220430624003
  0
ARC
  5
3026
  8
0
 10
165.507695905360606
 20
19.6925674490101201
 30
0.0
 40
0.0046149884205211
 50
222.3709240277570132
 51
252.3425610120860085
  0
ARC
  5
3027
  8
0
 10
165.5148534172045061
 20
19.7114691883404483
 30
0.0
 40
0.0248210756526009
 50
249.8327541840845925
 51
260.519818496160326
  0
ARC
  5
3028
  8
0
 10
165.5234975470274037
 20
19.7658186729612986
 30
0.0
 40
0.0798531676161162
 50
260.8252201358366733
 51
281.300015146005876
  0
ARC
  5
3029
  8
0
 10
165.5356957077119091
 20
19.7012282364813807
 30
0.0
 40
0.0141417235756609
 50
284.1152236136830993
 51
299.0754278613270003
  0
ARC
  5
302A
  8
0
 10
165.5416496693623003
 20
19.6905202745629602
 30
0.0
 40
0.001889780555024
 50
299.0754278613231918
 51
329.4880836223794063
  0
ARC
  5
302B
  8
0
 10
165.5423850936996928
 20
19.6900868704723386
 30
0.0
 40
0.0010361482795228
 50
329.4880836223792926
 51
56.5892896404681025
  0
ARC
  5
302C
  8
0
 10
165.5379844593551866
 20
19.6843911381238996
 30
0.0
 40
0.0082313268135523
 50
52.8478488659894907
 51
75.6728490673323648
  0
ARC
  5
302D
  8
0
 10
165.5237811182963128
 20
19.6195614040883299
 30
0.0
 40
0.0745943814233801
 50
77.4251922990836334
 51
102.7659736819953054
  0
ARC
  5
302E
  8
0
 10
165.5116352699440085
 20
19.6791663529614702
 30
0.0
 40
0.0138425462866437
 50
108.2597576882244965
 51
118.2722677679629015
  0
ARC
  5
302F
  8
0
 10
165.5062083495332104
 20
19.6892569352862914
 30
0.0
 40
0.0023851767456153
 50
118.2722677679611962
 51
144.401425916901303
  0
ARC
  5
3030
  8
0
 10
165.4956865291977124
 20
19.6956726984484014
 30
0.0
 40
0.0084931626068441
 50
184.7323269816764082
 51
242.2719464895824046
  0
ARC
  5
3031
  8
0
 10
165.5074048910391866
 20
19.7179663599649899
 30
0.0
 40
0.033679018718204
 50
242.2719464895824046
 51
260.6361095257939837
  0
ARC
  5
3032
  8
0
 10
165.5253664503611901
 20
19.8268893246025897
 30
0.0
 40
0.1440729942726926
 50
260.6361095257939837
 51
276.3054297603280247
  0
ARC
  5
3033
  8
0
 10
165.5340613198625022
 20
19.7482005515938503
 30
0.0
 40
0.0649053003990806
 50
276.3054297603280247
 51
290.5063231263732177
  0
ARC
  5
3034
  8
0
 10
165.5535758105945945
 20
19.6960242297074402
 30
0.0
 40
0.0091990717156858
 50
290.5063231263698071
 51
0.0074975299047592
  0
LINE
  5
3035
  8
0
 10
165.487222319803692
 20
19.6949720056488005
 30
0.0
 11
165.4852756506984122
 21
19.7385903592626093
 31
0.0
  0
LINE
  5
3036
  8
0
 10
165.5627748822315084
 20
19.6960254334665308
 30
0.0
 11
165.5660964492282972
 21
19.7379391401031796
 31
0.0
  0
ARC
  5
3037
  8
0
 10
165.4896688697326113
 20
19.694915785460271
 30
0.0
 40
0.0024471957960725
 50
137.4353273409894882
 51
178.6836104653654047
  0
ARC
  5
3038
  8
0
 10
165.4924505302564057
 20
19.6923629725447604
 30
0.0
 40
0.0062227074551751
 50
117.6218900376198064
 51
137.4481544907272053
  0
ARC
  5
3039
  8
0
 10
165.5014286086542938
 20
19.6752054613278098
 30
0.0
 40
0.0255872648443564
 50
104.2941724996588988
 51
117.6218900376183001
  0
ARC
  5
303A
  8
0
 10
165.5154498224246993
 20
19.6201746637682994
 30
0.0
 40
0.0823761996435817
 50
97.5332861213213818
 51
104.2941724996588988
  0
ARC
  5
303B
  8
0
 10
165.5219398181280894
 20
19.5710985841497909
 30
0.0
 40
0.1318795493782607
 50
93.3495214186091715
 51
97.5332861213213818
  0
ARC
  5
303C
  8
0
 10
165.5244872521265052
 20
19.5275726929873485
 30
0.0
 40
0.1754799234759721
 50
86.6587322270113845
 51
93.3495214186091715
  0
ARC
  5
303D
  8
0
 10
165.5267990198013024
 20
19.5671697432000684
 30
0.0
 40
0.1358154474888717
 50
81.2884643039078441
 51
86.6587322270113845
  0
ARC
  5
303E
  8
0
 10
165.5379045421015007
 20
19.6396470594786194
 30
0.0
 40
0.0624922315167023
 50
71.9516757143821479
 51
81.2884643039094641
  0
ARC
  5
303F
  8
0
 10
165.551382102690809
 20
19.6818854122490201
 30
0.0
 40
0.0181586240033218
 50
51.1412028887290404
 51
71.0939070380108831
  0
ARC
  5
3040
  8
0
 10
165.1564738033439141
 20
19.6164036045935291
 30
0.0
 40
0.0009281565954009
 50
141.0426627249476041
 51
220.6391220430624003
  0
ARC
  5
3041
  8
0
 10
165.1591790348732047
 20
19.6189092710280484
 30
0.0
 40
0.0046149884205211
 50
222.3709240277570132
 51
252.3425610120860085
  0
ARC
  5
3042
  8
0
 10
165.1663365467169911
 20
19.6378110103583801
 30
0.0
 40
0.0248210756526009
 50
249.8327541840845925
 51
260.519818496160326
  0
ARC
  5
3043
  8
0
 10
165.1749806765398887
 20
19.6921604949792304
 30
0.0
 40
0.0798531676161162
 50
260.8252201358366733
 51
281.300015146005876
  0
ARC
  5
3044
  8
0
 10
165.1871788372243941
 20
19.6275700584993089
 30
0.0
 40
0.0141417235756609
 50
284.1152236136830993
 51
299.0754278613270003
  0
ARC
  5
3045
  8
0
 10
165.1931327988748137
 20
19.6168620965808884
 30
0.0
 40
0.001889780555024
 50
299.0754278613231918
 51
329.4880836223794063
  0
ARC
  5
3046
  8
0
 10
165.1938682232122062
 20
19.6164286924902704
 30
0.0
 40
0.0010361482795228
 50
329.4880836223792926
 51
56.5892896404681025
  0
ARC
  5
3047
  8
0
 10
165.1894675888677
 20
19.6107329601418314
 30
0.0
 40
0.0082313268135523
 50
52.8478488659894907
 51
75.6728490673323648
  0
ARC
  5
3048
  8
0
 10
165.1752642478087978
 20
19.5459032261062688
 30
0.0
 40
0.0745943814233801
 50
77.4251922990836334
 51
102.7659736819953054
  0
ARC
  5
3049
  8
0
 10
165.1631183994564935
 20
19.6055081749793985
 30
0.0
 40
0.0138425462866437
 50
108.2597576882244965
 51
118.2722677679629015
  0
ARC
  5
304A
  8
0
 10
165.1576914790456954
 20
19.6155987573042196
 30
0.0
 40
0.0023851767456153
 50
118.2722677679611962
 51
144.401425916901303
  0
ARC
  5
304B
  8
0
 10
165.1471696587103111
 20
19.6220145204663403
 30
0.0
 40
0.0084931626068441
 50
184.7323269816764082
 51
242.2719464895824046
  0
ARC
  5
304C
  8
0
 10
165.1588880205517
 20
19.6443081819829217
 30
0.0
 40
0.033679018718204
 50
242.2719464895824046
 51
260.6361095257939837
  0
ARC
  5
304D
  8
0
 10
165.1768495798737035
 20
19.7532311466205286
 30
0.0
 40
0.1440729942726926
 50
260.6361095257939837
 51
276.3054297603280247
  0
ARC
  5
304E
  8
0
 10
165.1855444493749872
 20
19.6745423736117786
 30
0.0
 40
0.0649053003990806
 50
276.3054297603280247
 51
290.5063231263732177
  0
ARC
  5
304F
  8
0
 10
165.2050589401071079
 20
19.6223660517253791
 30
0.0
 40
0.0091990717156858
 50
290.5063231263698071
 51
0.0074975299047592
  0
LINE
  5
3050
  8
0
 10
165.1387054493162054
 20
19.6213138276667287
 30
0.0
 11
165.1382382469988954
 21
19.6317822713426082
 31
0.0
  0
LINE
  5
3051
  8
0
 10
165.2142580117439934
 20
19.622367255484459
 30
0.0
 11
165.2181053855321125
 21
19.6709159364024089
 31
0.0
  0
ARC
  5
3052
  8
0
 10
165.1411519992450962
 20
19.6212576074781992
 30
0.0
 40
0.0024471957960725
 50
137.4353273409894882
 51
178.6836104653654047
  0
ARC
  5
3053
  8
0
 10
165.1439336597688907
 20
19.6187047945626887
 30
0.0
 40
0.0062227074551751
 50
117.6218900376198064
 51
137.4481544907272053
  0
ARC
  5
3054
  8
0
 10
165.1529117381668073
 20
19.6015472833457416
 30
0.0
 40
0.0255872648443564
 50
104.2941724996588988
 51
117.6218900376183001
  0
ARC
  5
3055
  8
0
 10
165.1669329519372127
 20
19.5465164857862312
 30
0.0
 40
0.0823761996435817
 50
97.5332861213213818
 51
104.2941724996588988
  0
ARC
  5
3056
  8
0
 10
165.1734229476406881
 20
19.4974404061677191
 30
0.0
 40
0.1318795493782607
 50
93.3495214186091715
 51
97.5332861213213818
  0
ARC
  5
3057
  8
0
 10
165.1759703816389901
 20
19.4539145150052804
 30
0.0
 40
0.1754799234759721
 50
86.6587322270113845
 51
93.3495214186091715
  0
ARC
  5
3058
  8
0
 10
165.1782821493137874
 20
19.4935115652180109
 30
0.0
 40
0.1358154474888717
 50
81.2884643039078441
 51
86.6587322270113845
  0
ARC
  5
3059
  8
0
 10
165.1893876716140994
 20
19.5659888814965512
 30
0.0
 40
0.0624922315167023
 50
71.9516757143821479
 51
81.2884643039094641
  0
ARC
  5
305A
  8
0
 10
165.202865232203294
 20
19.6082272342669484
 30
0.0
 40
0.0181586240033218
 50
51.1412028887290404
 51
71.0939070380108831
  0
ARC
  5
305B
  8
0
 10
165.2162950322058066
 20
19.5974330889976791
 30
0.0
 40
0.0009281565954009
 50
141.0426627249476041
 51
220.6391220430624003
  0
ARC
  5
305C
  8
0
 10
165.2190002637350972
 20
19.5999387554322091
 30
0.0
 40
0.0046149884205211
 50
222.3709240277570132
 51
252.3425610120860085
  0
ARC
  5
305D
  8
0
 10
165.2261577755789972
 20
19.6188404947625301
 30
0.0
 40
0.0248210756526009
 50
249.8327541840845925
 51
260.519818496160326
  0
ARC
  5
305E
  8
0
 10
165.2348019054018948
 20
19.6731899793833911
 30
0.0
 40
0.0798531676161162
 50
260.8252201358366733
 51
281.300015146005876
  0
ARC
  5
305F
  8
0
 10
165.2470000660864002
 20
19.6085995429034803
 30
0.0
 40
0.0141417235756609
 50
284.1152236136830993
 51
299.0754278613270003
  0
ARC
  5
3060
  8
0
 10
165.2529540277367914
 20
19.5978915809850491
 30
0.0
 40
0.001889780555024
 50
299.0754278613231918
 51
329.4880836223794063
  0
ARC
  5
3061
  8
0
 10
165.2536894520742123
 20
19.5974581768944311
 30
0.0
 40
0.0010361482795228
 50
329.4880836223792926
 51
56.5892896404681025
  0
ARC
  5
3062
  8
0
 10
165.2492888177297061
 20
19.5917624445459815
 30
0.0
 40
0.0082313268135523
 50
52.8478488659894907
 51
75.6728490673323648
  0
ARC
  5
3063
  8
0
 10
165.2350854766708039
 20
19.5269327105104296
 30
0.0
 40
0.0745943814233801
 50
77.4251922990836334
 51
102.7659736819953054
  0
ARC
  5
3064
  8
0
 10
165.2229396283184997
 20
19.5865376593835592
 30
0.0
 40
0.0138425462866437
 50
108.2597576882244965
 51
118.2722677679629015
  0
ARC
  5
3065
  8
0
 10
165.2175127079075878
 20
19.5966282417083804
 30
0.0
 40
0.0023851767456153
 50
118.2722677679611962
 51
144.401425916901303
  0
ARC
  5
3066
  8
0
 10
165.2069908875722888
 20
19.6030440048704904
 30
0.0
 40
0.0084931626068441
 50
184.7323269816764082
 51
242.2719464895824046
  0
ARC
  5
3067
  8
0
 10
165.2187092494137062
 20
19.6253376663870682
 30
0.0
 40
0.033679018718204
 50
242.2719464895824046
 51
260.6361095257939837
  0
ARC
  5
3068
  8
0
 10
165.2366708087357097
 20
19.7342606310246786
 30
0.0
 40
0.1440729942726926
 50
260.6361095257939837
 51
276.3054297603280247
  0
ARC
  5
3069
  8
0
 10
165.2453656782369933
 20
19.6555718580159393
 30
0.0
 40
0.0649053003990806
 50
276.3054297603280247
 51
290.5063231263732177
  0
ARC
  5
306A
  8
0
 10
165.264880168969114
 20
19.6033955361295398
 30
0.0
 40
0.0091990717156858
 50
290.5063231263698071
 51
0.0074975299047592
  0
LINE
  5
306B
  8
0
 10
165.1985266781782116
 20
19.6023433120708788
 30
0.0
 11
165.1981460398613137
 21
19.6108721455840005
 31
0.0
  0
LINE
  5
306C
  8
0
 10
165.2740792406059995
 20
19.6033967398886197
 30
0.0
 11
165.2757351184554864
 21
19.6242916905177296
 31
0.0
  0
ARC
  5
306D
  8
0
 10
165.2009732281071024
 20
19.60228709188236
 30
0.0
 40
0.0024471957960725
 50
137.4353273409894882
 51
178.6836104653654047
  0
ARC
  5
306E
  8
0
 10
165.2037548886308969
 20
19.59973427896686
 30
0.0
 40
0.0062227074551751
 50
117.6218900376198064
 51
137.4481544907272053
  0
ARC
  5
306F
  8
0
 10
165.2127329670288134
 20
19.5825767677498987
 30
0.0
 40
0.0255872648443564
 50
104.2941724996588988
 51
117.6218900376183001
  0
ARC
  5
3070
  8
0
 10
165.2267541807991904
 20
19.5275459701903884
 30
0.0
 40
0.0823761996435817
 50
97.5332861213213818
 51
104.2941724996588988
  0
ARC
  5
3071
  8
0
 10
165.233244176502609
 20
19.4784698905718692
 30
0.0
 40
0.1318795493782607
 50
93.3495214186091715
 51
97.5332861213213818
  0
ARC
  5
3072
  8
0
 10
165.2357916105009963
 20
19.4349439994094411
 30
0.0
 40
0.1754799234759721
 50
86.6587322270113845
 51
93.3495214186091715
  0
ARC
  5
3073
  8
0
 10
165.2381033781757935
 20
19.4745410496221716
 30
0.0
 40
0.1358154474888717
 50
81.2884643039078441
 51
86.6587322270113845
  0
ARC
  5
3074
  8
0
 10
165.2492089004759919
 20
19.5470183659007084
 30
0.0
 40
0.0624922315167023
 50
71.9516757143821479
 51
81.2884643039094641
  0
ARC
  5
3075
  8
0
 10
165.2626864610653001
 20
19.5892567186711091
 30
0.0
 40
0.0181586240033218
 50
51.1412028887290404
 51
71.0939070380108831
  0
ARC
  5
3076
  8
0
 10
165.2370919683698958
 20
19.5281871186466596
 30
0.0
 40
0.1349662992869668
 50
80.0362174094628074
 51
80.1050805208869434
  0
ARC
  5
3077
  8
0
 10
165.2370919683698958
 20
19.5281871186466596
 30
0.0
 40
0.1349662992869668
 50
90.281196324158671
 51
98.4000868134762072
  0
ARC
  5
3078
  8
0
 10
165.2553897448985083
 20
19.6315371395555403
 30
0.0
 40
0.0009281565954009
 50
141.0426627249476041
 51
220.6391220430624003
  0
ARC
  5
3079
  8
0
 10
165.2580949764277989
 20
19.6340428059900702
 30
0.0
 40
0.0046149884205211
 50
222.3709240277570132
 51
252.3425610120860085
  0
ARC
  5
307A
  8
0
 10
165.2652524882716136
 20
19.6529445453203913
 30
0.0
 40
0.0248210756526009
 50
249.8327541840845925
 51
260.519818496160326
  0
ARC
  5
307B
  8
0
 10
165.2738966180945113
 20
19.7072940299412487
 30
0.0
 40
0.0798531676161162
 50
260.8252201358366733
 51
281.300015146005876
  0
ARC
  5
307C
  8
0
 10
165.2860947787789883
 20
19.6427035934613308
 30
0.0
 40
0.0141417235756609
 50
284.1152236136830993
 51
299.0754278613270003
  0
ARC
  5
307D
  8
0
 10
165.2920487404294079
 20
19.6319956315429103
 30
0.0
 40
0.001889780555024
 50
299.0754278613231918
 51
329.4880836223794063
  0
ARC
  5
307E
  8
0
 10
165.2927841647668004
 20
19.6315622274522887
 30
0.0
 40
0.0010361482795228
 50
329.4880836223792926
 51
56.5892896404681025
  0
ARC
  5
307F
  8
0
 10
165.2883835304222941
 20
19.6258664951038391
 30
0.0
 40
0.0082313268135523
 50
52.8478488659894907
 51
75.6728490673323648
  0
ARC
  5
3080
  8
0
 10
165.2741801893633919
 20
19.56103676106828
 30
0.0
 40
0.0745943814233801
 50
77.4251922990836334
 51
102.7659736819953054
  0
ARC
  5
3081
  8
0
 10
165.2620343410110877
 20
19.6206417099414203
 30
0.0
 40
0.0138425462866437
 50
108.2597576882244965
 51
118.2722677679629015
  0
ARC
  5
3082
  8
0
 10
165.2566074206002895
 20
19.6307322922662415
 30
0.0
 40
0.0023851767456153
 50
118.2722677679611962
 51
144.401425916901303
  0
ARC
  5
3083
  8
0
 10
165.2460856002649052
 20
19.6371480554283515
 30
0.0
 40
0.0084931626068441
 50
184.7323269816764082
 51
242.2719464895824046
  0
ARC
  5
3084
  8
0
 10
165.2578039621062942
 20
19.6594417169449294
 30
0.0
 40
0.033679018718204
 50
242.2719464895824046
 51
260.6361095257939837
  0
ARC
  5
3085
  8
0
 10
165.2757655214282977
 20
19.7683646815825398
 30
0.0
 40
0.1440729942726926
 50
260.6361095257939837
 51
276.3054297603280247
  0
ARC
  5
3086
  8
0
 10
165.2844603909296097
 20
19.6896759085737898
 30
0.0
 40
0.0649053003990806
 50
276.3054297603280247
 51
290.5063231263732177
  0
ARC
  5
3087
  8
0
 10
165.3039748816617021
 20
19.6374995866874009
 30
0.0
 40
0.0091990717156858
 50
290.5063231263698071
 51
0.0074975299047592
  0
LINE
  5
3088
  8
0
 10
165.2376213908707996
 20
19.6364473626287399
 30
0.0
 11
165.2361331661556108
 21
19.6697935084682491
 31
0.0
  0
LINE
  5
3089
  8
0
 10
165.3131739532985875
 20
19.6375007904464809
 30
0.0
 11
165.3140924216642134
 21
19.6490906255048401
 31
0.0
  0
ARC
  5
308A
  8
0
 10
165.2400679407996904
 20
19.6363911424402211
 30
0.0
 40
0.0024471957960725
 50
137.4353273409894882
 51
178.6836104653654047
  0
ARC
  5
308B
  8
0
 10
165.2428496013235133
 20
19.6338383295247105
 30
0.0
 40
0.0062227074551751
 50
117.6218900376198064
 51
137.4481544907272053
  0
ARC
  5
308C
  8
0
 10
165.2518276797214014
 20
19.6166808183077599
 30
0.0
 40
0.0255872648443564
 50
104.2941724996588988
 51
117.6218900376183001
  0
ARC
  5
308D
  8
0
 10
165.2658488934918068
 20
19.5616500207482495
 30
0.0
 40
0.0823761996435817
 50
97.5332861213213818
 51
104.2941724996588988
  0
ARC
  5
308E
  8
0
 10
165.2723388891953107
 20
19.5125739411297303
 30
0.0
 40
0.1318795493782607
 50
93.3495214186091715
 51
97.5332861213213818
  0
ARC
  5
308F
  8
0
 10
165.2748863231936127
 20
19.4690480499672987
 30
0.0
 40
0.1754799234759721
 50
86.6587322270113845
 51
93.3495214186091715
  0
ARC
  5
3090
  8
0
 10
165.27719809086841
 20
19.5086451001800185
 30
0.0
 40
0.1358154474888717
 50
81.2884643039078441
 51
86.6587322270113845
  0
ARC
  5
3091
  8
0
 10
165.2883036131686083
 20
19.5811224164585695
 30
0.0
 40
0.0624922315167023
 50
71.9516757143821479
 51
81.2884643039094641
  0
ARC
  5
3092
  8
0
 10
165.3017811737578882
 20
19.6233607692289702
 30
0.0
 40
0.0181586240033218
 50
51.1412028887290404
 51
71.0939070380108831
  0
ARC
  5
3093
  8
0
 10
165.1359734234669929
 20
19.6378848558117483
 30
0.0
 40
0.0009281565954009
 50
141.0426627249476041
 51
220.6391220430624003
  0
ARC
  5
3094
  8
0
 10
165.1386786549963119
 20
19.6403905222462782
 30
0.0
 40
0.0046149884205211
 50
222.3709240277570132
 51
252.3425610120860085
  0
ARC
  5
3095
  8
0
 10
165.1458361668400983
 20
19.6592922615766099
 30
0.0
 40
0.0248210756526009
 50
249.8327541840845925
 51
260.519818496160326
  0
ARC
  5
3096
  8
0
 10
165.1544802966631096
 20
19.7136417461974709
 30
0.0
 40
0.0798531676161162
 50
260.8252201358366733
 51
281.300015146005876
  0
ARC
  5
3097
  8
0
 10
165.1666784573475013
 20
19.6490513097175388
 30
0.0
 40
0.0141417235756609
 50
284.1152236136830993
 51
299.0754278613270003
  0
ARC
  5
3098
  8
0
 10
165.1726324189978925
 20
19.6383433477991289
 30
0.0
 40
0.001889780555024
 50
299.0754278613231918
 51
329.4880836223794063
  0
ARC
  5
3099
  8
0
 10
165.1733678433353987
 20
19.637909943708511
 30
0.0
 40
0.0010361482795228
 50
329.4880836223792926
 51
56.5892896404681025
  0
ARC
  5
309A
  8
0
 10
165.1689672089908925
 20
19.6322142113600613
 30
0.0
 40
0.0082313268135523
 50
52.8478488659894907
 51
75.6728490673323648
  0
ARC
  5
309B
  8
0
 10
165.154763867931905
 20
19.5673844773244916
 30
0.0
 40
0.0745943814233801
 50
77.4251922990836334
 51
102.7659736819953054
  0
ARC
  5
309C
  8
0
 10
165.1426180195796007
 20
19.626989426197639
 30
0.0
 40
0.0138425462866437
 50
108.2597576882244965
 51
118.2722677679629015
  0
ARC
  5
309D
  8
0
 10
165.1371910991688026
 20
19.6370800085224495
 30
0.0
 40
0.0023851767456153
 50
118.2722677679611962
 51
144.401425916901303
  0
ARC
  5
309E
  8
0
 10
165.1266692788333899
 20
19.6434957716845595
 30
0.0
 40
0.0084931626068441
 50
184.7323269816762092
 51
242.2719464895824046
  0
ARC
  5
309F
  8
0
 10
165.1383876406748072
 20
19.6657894332011516
 30
0.0
 40
0.033679018718204
 50
242.2719464895824046
 51
260.6361095257939837
  0
ARC
  5
30A0
  8
0
 10
165.156349199996896
 20
19.7747123978387513
 30
0.0
 40
0.1440729942726926
 50
260.6361095257939837
 51
276.3054297603280247
  0
ARC
  5
30A1
  8
0
 10
165.1650440694980944
 20
19.6960236248300014
 30
0.0
 40
0.0649053003990806
 50
276.3054297603280247
 51
290.5063231263732177
  0
ARC
  5
30A2
  8
0
 10
165.1845585602301867
 20
19.6438473029436089
 30
0.0
 40
0.0091990717156858
 50
290.5063231263698071
 51
0.0074975299047592
  0
LINE
  5
30A3
  8
0
 10
165.1182050694393126
 20
19.6427950788849586
 30
0.0
 11
165.1157757192393092
 21
19.6972287038849601
 31
0.0
  0
LINE
  5
30A4
  8
0
 10
165.1937576318671859
 20
19.6438485067026889
 30
0.0
 11
165.1945222937119127
 21
19.653497510400971
 31
0.0
  0
ARC
  5
30A5
  8
0
 10
165.1206516193682887
 20
19.6427388586964291
 30
0.0
 40
0.0024471957960725
 50
137.4353273409894882
 51
178.6836104653654047
  0
ARC
  5
30A6
  8
0
 10
165.1234332798921116
 20
19.6401860457809292
 30
0.0
 40
0.0062227074551751
 50
117.6218900376198064
 51
137.4481544907272053
  0
ARC
  5
30A7
  8
0
 10
165.1324113582899997
 20
19.6230285345639786
 30
0.0
 40
0.0255872648443564
 50
104.2941724996588988
 51
117.6218900376183001
  0
ARC
  5
30A8
  8
0
 10
165.1464325720604052
 20
19.5679977370044718
 30
0.0
 40
0.0823761996435817
 50
97.5332861213213818
 51
104.2941724996588988
  0
ARC
  5
30A9
  8
0
 10
165.1529225677637953
 20
19.5189216573859383
 30
0.0
 40
0.1318795493782607
 50
93.3495214186091715
 51
97.5332861213213818
  0
ARC
  5
30AA
  8
0
 10
165.155470001762211
 20
19.4753957662235102
 30
0.0
 40
0.1754799234759721
 50
86.6587322270113845
 51
93.3495214186091715
  0
ARC
  5
30AB
  8
0
 10
165.1577817694370083
 20
19.5149928164362407
 30
0.0
 40
0.1358154474888717
 50
81.2884643039078441
 51
86.6587322270113845
  0
ARC
  5
30AC
  8
0
 10
165.1688872917372066
 20
19.5874701327147811
 30
0.0
 40
0.0624922315167023
 50
71.9516757143821479
 51
81.2884643039094641
  0
ARC
  5
30AD
  8
0
 10
165.1823648523264865
 20
19.6297084854851818
 30
0.0
 40
0.0181586240033218
 50
51.1412028887290404
 51
71.0939070380108831
  0
ARC
  5
30AE
  8
0
 10
165.1187994897458111
 20
19.6966239246272394
 30
0.0
 40
0.0054610556872629
 50
211.5823462546262874
 51
239.3111676033859112
  0
ARC
  5
30AF
  8
0
 10
165.1156340364599941
 20
19.6946778689824207
 30
0.0
 40
0.0017452479584756
 50
149.9714243287021134
 51
211.5823462546329949
  0
ARC
  5
30B0
  8
0
 10
165.1181820110327862
 20
19.693205100321169
 30
0.0
 40
0.0046882433633419
 50
120.8812787566428995
 51
149.9714243287004933
  0
ARC
  5
30B1
  8
0
 10
165.1567703596309968
 20
19.5686388854607287
 30
0.0
 40
0.1349662992869668
 50
97.7094153529013454
 51
107.6823649389170043
  0
ARC
  5
30B2
  8
0
 10
165.2780866291149948
 20
19.6554857432699883
 30
0.0
 40
0.0009281565954009
 50
141.0426627249476041
 51
220.6391220430624003
  0
ARC
  5
30B3
  8
0
 10
165.2807918606443138
 20
19.6579914097045183
 30
0.0
 40
0.0046149884205211
 50
222.3709240277570132
 51
252.3425610120860085
  0
ARC
  5
30B4
  8
0
 10
165.2879493724882138
 20
19.6768931490348393
 30
0.0
 40
0.0248210756526009
 50
249.8327541840845925
 51
260.519818496160326
  0
ARC
  5
30B5
  8
0
 10
165.2965935023111115
 20
19.7312426336557003
 30
0.0
 40
0.0798531676161162
 50
260.8252201358366733
 51
281.300015146005876
  0
ARC
  5
30B6
  8
0
 10
165.3087916629955885
 20
19.6666521971757788
 30
0.0
 40
0.0141417235756609
 50
284.1152236136830993
 51
299.0754278613270003
  0
ARC
  5
30B7
  8
0
 10
165.3147456246460081
 20
19.6559442352573583
 30
0.0
 40
0.001889780555024
 50
299.0754278613231918
 51
329.4880836223794063
  0
ARC
  5
30B8
  8
0
 10
165.3154810489834006
 20
19.6555108311667404
 30
0.0
 40
0.0010361482795228
 50
329.4880836223792926
 51
56.5892896404681025
  0
ARC
  5
30B9
  8
0
 10
165.3110804146388944
 20
19.6498150988182907
 30
0.0
 40
0.0082313268135523
 50
52.8478488659894907
 51
75.6728490673323648
  0
ARC
  5
30BA
  8
0
 10
165.2968770735799922
 20
19.5849853647827388
 30
0.0
 40
0.0745943814233801
 50
77.4251922990836334
 51
102.7659736819953054
  0
ARC
  5
30BB
  8
0
 10
165.2847312252276879
 20
19.6445903136558684
 30
0.0
 40
0.0138425462866437
 50
108.2597576882244965
 51
118.2722677679629015
  0
ARC
  5
30BC
  8
0
 10
165.2793043048168897
 20
19.6546808959806896
 30
0.0
 40
0.0023851767456153
 50
118.2722677679611962
 51
144.401425916901303
  0
ARC
  5
30BD
  8
0
 10
165.2687824844815054
 20
19.6610966591427996
 30
0.0
 40
0.0084931626068441
 50
184.7323269816762092
 51
242.2719464895824046
  0
ARC
  5
30BE
  8
0
 10
165.2805008463228944
 20
19.683390320659381
 30
0.0
 40
0.033679018718204
 50
242.2719464895824046
 51
260.6361095257939837
  0
ARC
  5
30BF
  8
0
 10
165.2984624056448979
 20
19.7923132852969914
 30
0.0
 40
0.1440729942726926
 50
260.6361095257939837
 51
276.3054297603280247
  0
ARC
  5
30C0
  8
0
 10
165.3071572751460963
 20
19.7136245122882485
 30
0.0
 40
0.0649053003990806
 50
276.3054297603280247
 51
290.5063231263732177
  0
ARC
  5
30C1
  8
0
 10
165.3266717658783023
 20
19.661448190401849
 30
0.0
 40
0.0091990717156858
 50
290.5063231263698071
 51
0.0074975299047592
  0
LINE
  5
30C2
  8
0
 10
165.2603182750873998
 20
19.6603959663431915
 30
0.0
 11
165.2597985532341909
 21
19.6720411974273617
 31
0.0
  0
LINE
  5
30C3
  8
0
 10
165.3358708375151878
 20
19.661449394160929
 30
0.0
 11
165.3375761085139004
 21
19.6829676198785393
 31
0.0
  0
ARC
  5
30C4
  8
0
 10
165.2627648250162906
 20
19.6603397461546692
 30
0.0
 40
0.0024471957960725
 50
137.4353273409894882
 51
178.6836104653654047
  0
ARC
  5
30C5
  8
0
 10
165.2655464855401135
 20
19.6577869332391586
 30
0.0
 40
0.0062227074551751
 50
117.6218900376198064
 51
137.4481544907272053
  0
ARC
  5
30C6
  8
0
 10
165.2745245639380016
 20
19.6406294220222115
 30
0.0
 40
0.0255872648443564
 50
104.2941724996588988
 51
117.6218900376183001
  0
ARC
  5
30C7
  8
0
 10
165.2885457777084071
 20
19.5855986244627012
 30
0.0
 40
0.0823761996435817
 50
97.5332861213213818
 51
104.2941724996588988
  0
ARC
  5
30C8
  8
0
 10
165.2950357734119109
 20
19.5365225448441784
 30
0.0
 40
0.1318795493782607
 50
93.3495214186091715
 51
97.5332861213213818
  0
ARC
  5
30C9
  8
0
 10
165.2975832074102982
 20
19.4929966536817503
 30
0.0
 40
0.1754799234759721
 50
86.6587322270113845
 51
93.3495214186091715
  0
ARC
  5
30CA
  8
0
 10
165.2998949750850102
 20
19.5325937038944808
 30
0.0
 40
0.1358154474888717
 50
81.2884643039078441
 51
86.6587322270113845
  0
ARC
  5
30CB
  8
0
 10
165.3110004973852938
 20
19.6050710201730212
 30
0.0
 40
0.0624922315167023
 50
71.9516757143821479
 51
81.2884643039094641
  0
ARC
  5
30CC
  8
0
 10
165.3244780579744884
 20
19.6473093729434183
 30
0.0
 40
0.0181586240033218
 50
51.1412028887290404
 51
71.0939070380108831
  0
ARC
  5
30CD
  8
0
 10
165.2988835652791124
 20
19.5862397729189688
 30
0.0
 40
0.1349662992869668
 50
96.8527231300924853
 51
99.6151663379716439
  0
ARC
  5
30CE
  8
0
 10
165.3748023759254124
 20
19.6688045336447317
 30
0.0
 40
0.0009281565954009
 50
141.0426627249476041
 51
220.6391220430624003
  0
ARC
  5
30CF
  8
0
 10
165.377507607454703
 20
19.6713102000792617
 30
0.0
 40
0.0046149884205211
 50
222.3709240277570132
 51
252.3425610120860085
  0
ARC
  5
30D0
  8
0
 10
165.3846651192984893
 20
19.6902119394095791
 30
0.0
 40
0.0248210756526009
 50
249.8327541840845925
 51
260.519818496160326
  0
ARC
  5
30D1
  8
0
 10
165.393309249121387
 20
19.7445614240304401
 30
0.0
 40
0.0798531676161162
 50
260.8252201358366733
 51
281.300015146005876
  0
ARC
  5
30D2
  8
0
 10
165.4055074098058924
 20
19.6799709875505187
 30
0.0
 40
0.0141417235756609
 50
284.1152236136830993
 51
299.0754278613270003
  0
ARC
  5
30D3
  8
0
 10
165.411461371456312
 20
19.6692630256321017
 30
0.0
 40
0.001889780555024
 50
299.0754278613231918
 51
329.4880836223794063
  0
ARC
  5
30D4
  8
0
 10
165.4121967957937045
 20
19.6688296215414802
 30
0.0
 40
0.0010361482795228
 50
329.4880836223792926
 51
56.5892896404681025
  0
ARC
  5
30D5
  8
0
 10
165.4077961614491983
 20
19.6631338891930305
 30
0.0
 40
0.0082313268135523
 50
52.8478488659894907
 51
75.6728490673323648
  0
ARC
  5
30D6
  8
0
 10
165.3935928203902961
 20
19.5983041551574715
 30
0.0
 40
0.0745943814233801
 50
77.4251922990836334
 51
102.7659736819953054
  0
ARC
  5
30D7
  8
0
 10
165.3814469720379918
 20
19.6579091040306118
 30
0.0
 40
0.0138425462866437
 50
108.2597576882244965
 51
118.2722677679629015
  0
ARC
  5
30D8
  8
0
 10
165.3760200516271937
 20
19.6679996863554294
 30
0.0
 40
0.0023851767456153
 50
118.2722677679611962
 51
144.401425916901303
  0
ARC
  5
30D9
  8
0
 10
165.3654982312918094
 20
19.6744154495175394
 30
0.0
 40
0.0084931626068441
 50
184.7323269816762092
 51
242.2719464895824046
  0
ARC
  5
30DA
  8
0
 10
165.3772165931331983
 20
19.6967091110341208
 30
0.0
 40
0.033679018718204
 50
242.2719464895824046
 51
260.6361095257939837
  0
ARC
  5
30DB
  8
0
 10
165.3951781524552018
 20
19.8056320756717312
 30
0.0
 40
0.1440729942726926
 50
260.6361095257939837
 51
276.3054297603280247
  0
ARC
  5
30DC
  8
0
 10
165.4038730219565139
 20
19.7269433026629812
 30
0.0
 40
0.0649053003990806
 50
276.3054297603280247
 51
290.5063231263732177
  0
ARC
  5
30DD
  8
0
 10
165.4233875126886062
 20
19.6747669807765817
 30
0.0
 40
0.0091990717156858
 50
290.5063231263698071
 51
0.0074975299047592
  0
LINE
  5
30DE
  8
0
 10
165.3570340218977037
 20
19.6737147567179314
 30
0.0
 11
165.3563767850436079
 21
19.6884412397296487
 31
0.0
  0
LINE
  5
30DF
  8
0
 10
165.4325865843254917
 20
19.6747681845356617
 30
0.0
 11
165.4335558454824024
 21
19.6869989562828316
 31
0.0
  0
ARC
  5
30E0
  8
0
 10
165.3594805718265945
 20
19.673658536529409
 30
0.0
 40
0.0024471957960725
 50
137.4353273409894882
 51
178.6836104653654047
  0
ARC
  5
30E1
  8
0
 10
165.3622622323505027
 20
19.6711057236138984
 30
0.0
 40
0.0062227074551751
 50
117.6218900376198064
 51
137.4481544907272053
  0
ARC
  5
30E2
  8
0
 10
165.3712403107483908
 20
19.6539482123969513
 30
0.0
 40
0.0255872648443564
 50
104.2941724996588988
 51
117.6218900376183001
  0
ARC
  5
30E3
  8
0
 10
165.385261524518711
 20
19.598917414837441
 30
0.0
 40
0.0823761996435817
 50
97.5332861213213818
 51
104.2941724996588988
  0
ARC
  5
30E4
  8
0
 10
165.3917515202221864
 20
19.5498413352189218
 30
0.0
 40
0.1318795493782607
 50
93.3495214186091715
 51
97.5332861213213818
  0
ARC
  5
30E5
  8
0
 10
165.3942989542206021
 20
19.5063154440564794
 30
0.0
 40
0.1754799234759721
 50
86.6587322270113845
 51
93.3495214186091715
  0
ARC
  5
30E6
  8
0
 10
165.3966107218953994
 20
19.54591249426921
 30
0.0
 40
0.1358154474888717
 50
81.2884643039078441
 51
86.6587322270113845
  0
ARC
  5
30E7
  8
0
 10
165.4077162441955977
 20
19.618389810547761
 30
0.0
 40
0.0624922315167023
 50
71.9516757143821479
 51
81.2884643039094641
  0
ARC
  5
30E8
  8
0
 10
165.421193804784906
 20
19.660628163318151
 30
0.0
 40
0.0181586240033218
 50
51.1412028887290404
 51
71.0939070380108831
  0
ARC
  5
30E9
  8
0
 10
165.3955993120893879
 20
19.5995585632937086
 30
0.0
 40
0.1349662992869668
 50
95.0140060818549159
 51
104.2992668200381985
  0
ARC
  5
30EA
  8
0
 10
165.320329374169404
 20
19.6117139524088593
 30
0.0
 40
0.0009281565954009
 50
141.0426627249476041
 51
220.6391220430624003
  0
ARC
  5
30EB
  8
0
 10
165.3230346056986093
 20
19.6142196188433786
 30
0.0
 40
0.0046149884205211
 50
222.3709240277570132
 51
252.3425610120860085
  0
ARC
  5
30EC
  8
0
 10
165.3301921175425093
 20
19.6331213581737103
 30
0.0
 40
0.0248210756526009
 50
249.8327541840845925
 51
260.519818496160326
  0
ARC
  5
30ED
  8
0
 10
165.338836247365407
 20
19.6874708427945606
 30
0.0
 40
0.0798531676161162
 50
260.8252201358366733
 51
281.300015146005876
  0
ARC
  5
30EE
  8
0
 10
165.3510344080499124
 20
19.6228804063146498
 30
0.0
 40
0.0141417235756609
 50
284.1152236136830993
 51
299.0754278613270003
  0
ARC
  5
30EF
  8
0
 10
165.3569883697003036
 20
19.6121724443962293
 30
0.0
 40
0.001889780555024
 50
299.0754278613231918
 51
329.4880836223794063
  0
ARC
  5
30F0
  8
0
 10
165.3577237940376961
 20
19.6117390403056113
 30
0.0
 40
0.0010361482795228
 50
329.4880836223792926
 51
56.5892896404681025
  0
ARC
  5
30F1
  8
0
 10
165.3533231596931898
 20
19.6060433079571617
 30
0.0
 40
0.0082313268135523
 50
52.8478488659894907
 51
75.6728490673323648
  0
ARC
  5
30F2
  8
0
 10
165.3391198186342876
 20
19.5412135739215991
 30
0.0
 40
0.0745943814233801
 50
77.4251922990836334
 51
102.7659736819953054
  0
ARC
  5
30F3
  8
0
 10
165.3269739702820118
 20
19.6008185227947394
 30
0.0
 40
0.0138425462866437
 50
108.2597576882244965
 51
118.2722677679629015
  0
ARC
  5
30F4
  8
0
 10
165.3215470498712136
 20
19.6109091051195605
 30
0.0
 40
0.0023851767456153
 50
118.2722677679611962
 51
144.401425916901303
  0
ARC
  5
30F5
  8
0
 10
165.3110252295358009
 20
19.6173248682816705
 30
0.0
 40
0.0084931626068441
 50
184.7323269816762092
 51
242.2719464895824046
  0
ARC
  5
30F6
  8
0
 10
165.3227435913771899
 20
19.6396185297982484
 30
0.0
 40
0.033679018718204
 50
242.2719464895824046
 51
260.6361095257939837
  0
ARC
  5
30F7
  8
0
 10
165.3407051506991934
 20
19.7485414944358588
 30
0.0
 40
0.1440729942726926
 50
260.6361095257939837
 51
276.3054297603280247
  0
ARC
  5
30F8
  8
0
 10
165.3494000202005054
 20
19.6698527214271088
 30
0.0
 40
0.0649053003990806
 50
276.3054297603280247
 51
290.5063231263732177
  0
ARC
  5
30F9
  8
0
 10
165.3689145109325978
 20
19.6176763995407093
 30
0.0
 40
0.0091990717156858
 50
290.5063231263698071
 51
0.0074975299047592
  0
LINE
  5
30FA
  8
0
 10
165.3025610201416953
 20
19.6166241754820589
 30
0.0
 11
165.3020885633841033
 21
19.6272103536189988
 31
0.0
  0
LINE
  5
30FB
  8
0
 10
165.3781135825695117
 20
19.6176776032997893
 30
0.0
 11
165.38164159811231
 21
19.662196412828699
 31
0.0
  0
ARC
  5
30FC
  8
0
 10
165.3050075700705861
 20
19.6165679552935401
 30
0.0
 40
0.0024471957960725
 50
137.4353273409894882
 51
178.6836104653654047
  0
ARC
  5
30FD
  8
0
 10
165.307789230594409
 20
19.6140151423780296
 30
0.0
 40
0.0062227074551751
 50
117.6218900376198064
 51
137.4481544907272053
  0
ARC
  5
30FE
  8
0
 10
165.3167673089922971
 20
19.5968576311610789
 30
0.0
 40
0.0255872648443564
 50
104.2941724996588988
 51
117.6218900376183001
  0
ARC
  5
30FF
  8
0
 10
165.3307885227627025
 20
19.5418268336015686
 30
0.0
 40
0.0823761996435817
 50
97.5332861213213818
 51
104.2941724996588988
  0
ARC
  5
3100
  8
0
 10
165.3372785184662064
 20
19.4927507539830493
 30
0.0
 40
0.1318795493782607
 50
93.3495214186091715
 51
97.5332861213213818
  0
ARC
  5
3101
  8
0
 10
165.3398259524645937
 20
19.4492248628206106
 30
0.0
 40
0.1754799234759721
 50
86.6587322270113845
 51
93.3495214186091715
  0
ARC
  5
3102
  8
0
 10
165.3421377201393057
 20
19.4888219130333411
 30
0.0
 40
0.1358154474888717
 50
81.2884643039078441
 51
86.6587322270113845
  0
ARC
  5
3103
  8
0
 10
165.3532432424395893
 20
19.5612992293118815
 30
0.0
 40
0.0624922315167023
 50
71.9516757143821479
 51
81.2884643039094641
  0
ARC
  5
3104
  8
0
 10
165.3667208030288123
 20
19.6035375820822786
 30
0.0
 40
0.0181586240033218
 50
51.1412028887290404
 51
71.0939070380108831
  0
ARC
  5
3105
  8
0
 10
165.3411263103334079
 20
19.5424679820578291
 30
0.0
 40
0.1349662992869668
 50
83.284432111243504
 51
91.695517710036853
  0
ARC
  5
3106
  8
0
 10
165.3018947441923103
 20
19.586520149711081
 30
0.0
 40
0.0009281565954009
 50
141.0426627249476041
 51
220.6391220430624003
  0
ARC
  5
3107
  8
0
 10
165.3045999757216009
 20
19.589025816145611
 30
0.0
 40
0.0046149884205211
 50
222.3709240277570132
 51
252.3425610120860085
  0
ARC
  5
3108
  8
0
 10
165.3117574875653872
 20
19.6079275554759391
 30
0.0
 40
0.0248210756526009
 50
249.8327541840845925
 51
260.519818496160326
  0
ARC
  5
3109
  8
0
 10
165.3204016173883133
 20
19.6622770400967894
 30
0.0
 40
0.0798531676161162
 50
260.8252201358366733
 51
281.300015146005876
  0
ARC
  5
310A
  8
0
 10
165.3325997780727903
 20
19.5976866036168715
 30
0.0
 40
0.0141417235756609
 50
284.1152236136830993
 51
299.0754278613270003
  0
ARC
  5
310B
  8
0
 10
165.3385537397232099
 20
19.586978641698451
 30
0.0
 40
0.001889780555024
 50
299.0754278613231918
 51
329.4880836223794063
  0
ARC
  5
310C
  8
0
 10
165.3392891640606024
 20
19.5865452376078295
 30
0.0
 40
0.0010361482795228
 50
329.4880836223792926
 51
56.5892896404681025
  0
ARC
  5
310D
  8
0
 10
165.3348885297162099
 20
19.5808495052593905
 30
0.0
 40
0.0082313268135523
 50
52.8478488659894907
 51
75.6728490673323648
  0
ARC
  5
310E
  8
0
 10
165.320685188657194
 20
19.5160197712238208
 30
0.0
 40
0.0745943814233801
 50
77.4251922990836334
 51
102.7659736819953054
  0
ARC
  5
310F
  8
0
 10
165.3085393403050034
 20
19.5756247200969611
 30
0.0
 40
0.0138425462866437
 50
108.2597576882244965
 51
118.2722677679629015
  0
ARC
  5
3110
  8
0
 10
165.3031124198940915
 20
19.5857153024217787
 30
0.0
 40
0.0023851767456153
 50
118.2722677679611962
 51
144.401425916901303
  0
ARC
  5
3111
  8
0
 10
165.2925905995587073
 20
19.5921310655838887
 30
0.0
 40
0.0084931626068441
 50
184.7323269816762092
 51
242.2719464895824046
  0
ARC
  5
3112
  8
0
 10
165.3043089614000962
 20
19.6144247271004808
 30
0.0
 40
0.033679018718204
 50
242.2719464895824046
 51
260.6361095257939837
  0
ARC
  5
3113
  8
0
 10
165.3222705207222134
 20
19.7233476917380806
 30
0.0
 40
0.1440729942726926
 50
260.6361095257939837
 51
276.3054297603280247
  0
ARC
  5
3114
  8
0
 10
165.3309653902234118
 20
19.6446589187293306
 30
0.0
 40
0.0649053003990806
 50
276.3054297603280247
 51
290.5063231263732177
  0
ARC
  5
3115
  8
0
 10
165.3504798809555041
 20
19.592482596842931
 30
0.0
 40
0.0091990717156858
 50
290.5063231263698071
 51
0.0074975299047592
  0
LINE
  5
3116
  8
0
 10
165.2841263901646016
 20
19.5914303727842913
 30
0.0
 11
165.2826524528852019
 21
19.6244563849009097
 31
0.0
  0
LINE
  5
3117
  8
0
 10
165.3596789525923896
 20
19.5924838006020217
 30
0.0
 11
165.36074586311301
 21
19.6059467759407902
 31
0.0
  0
ARC
  5
3118
  8
0
 10
165.2865729400936061
 20
19.5913741525957583
 30
0.0
 40
0.0024471957960725
 50
137.4353273409894882
 51
178.6836104653654047
  0
ARC
  5
3119
  8
0
 10
165.2893546006174006
 20
19.5888213396802513
 30
0.0
 40
0.0062227074551751
 50
117.6218900376198064
 51
137.4481544907272053
  0
ARC
  5
311A
  8
0
 10
165.2983326790152887
 20
19.5716638284633113
 30
0.0
 40
0.0255872648443564
 50
104.2941724996588988
 51
117.6218900376183001
  0
ARC
  5
311B
  8
0
 10
165.3123538927856089
 20
19.5166330309037903
 30
0.0
 40
0.0823761996435817
 50
97.5332861213213818
 51
104.2941724996588988
  0
ARC
  5
311C
  8
0
 10
165.3188438884891127
 20
19.4675569512852711
 30
0.0
 40
0.1318795493782607
 50
93.3495214186091715
 51
97.5332861213213818
  0
ARC
  5
311D
  8
0
 10
165.3213913224875
 20
19.4240310601228288
 30
0.0
 40
0.1754799234759721
 50
86.6587322270113845
 51
93.3495214186091715
  0
ARC
  5
311E
  8
0
 10
165.323703090162212
 20
19.4636281103355593
 30
0.0
 40
0.1358154474888717
 50
81.2884643039078441
 51
86.6587322270113845
  0
ARC
  5
311F
  8
0
 10
165.3348086124624956
 20
19.5361054266141103
 30
0.0
 40
0.0624922315167023
 50
71.9516757143821479
 51
81.2884643039094641
  0
ARC
  5
3120
  8
0
 10
165.3482861730518039
 20
19.5783437793845003
 30
0.0
 40
0.0181586240033218
 50
51.1412028887290404
 51
71.0939070380108831
  0
ARC
  5
3121
  8
0
 10
165.4043906761579876
 20
19.5825933008076092
 30
0.0
 40
0.0009281565954009
 50
141.0426627249476041
 51
220.6391220430624003
  0
ARC
  5
3122
  8
0
 10
165.4070959076873066
 20
19.5850989672421392
 30
0.0
 40
0.0046149884205211
 50
222.3709240277570132
 51
252.3425610120860085
  0
ARC
  5
3123
  8
0
 10
165.4142534195312066
 20
19.6040007065724708
 30
0.0
 40
0.0248210756526009
 50
249.8327541840845925
 51
260.519818496160326
  0
ARC
  5
3124
  8
0
 10
165.4228975493541043
 20
19.6583501911933283
 30
0.0
 40
0.0798531676161162
 50
260.8252201358366733
 51
281.300015146005876
  0
ARC
  5
3125
  8
0
 10
165.4350957100386097
 20
19.5937597547133997
 30
0.0
 40
0.0141417235756609
 50
284.1152236136830993
 51
299.0754278613270003
  0
ARC
  5
3126
  8
0
 10
165.4410496716890009
 20
19.5830517927949792
 30
0.0
 40
0.001889780555024
 50
299.0754278613231918
 51
329.4880836223794063
  0
ARC
  5
3127
  8
0
 10
165.4417850960263081
 20
19.5826183887043612
 30
0.0
 40
0.0010361482795228
 50
329.4880836223792926
 51
56.5892896404681025
  0
ARC
  5
3128
  8
0
 10
165.4373844616818872
 20
19.5769226563559187
 30
0.0
 40
0.0082313268135523
 50
52.8478488659894907
 51
75.6728490673323648
  0
ARC
  5
3129
  8
0
 10
165.4231811206228997
 20
19.512092922320349
 30
0.0
 40
0.0745943814233801
 50
77.4251922990836334
 51
102.7659736819953054
  0
ARC
  5
312A
  8
0
 10
165.4110352722707091
 20
19.5716978711934999
 30
0.0
 40
0.0138425462866437
 50
108.2597576882244965
 51
118.2722677679629015
  0
ARC
  5
312B
  8
0
 10
165.4056083518597973
 20
19.5817884535183104
 30
0.0
 40
0.0023851767456153
 50
118.2722677679611962
 51
144.401425916901303
  0
ARC
  5
312C
  8
0
 10
165.395086531524413
 20
19.5882042166804204
 30
0.0
 40
0.0084931626068441
 50
184.7323269816762092
 51
242.2719464895824046
  0
ARC
  5
312D
  8
0
 10
165.4068048933658019
 20
19.610497878197009
 30
0.0
 40
0.033679018718204
 50
242.2719464895824046
 51
260.6361095257939837
  0
ARC
  5
312E
  8
0
 10
165.4247664526878907
 20
19.7194208428346087
 30
0.0
 40
0.1440729942726926
 50
260.6361095257939837
 51
276.3054297603280247
  0
ARC
  5
312F
  8
0
 10
165.4334613221890891
 20
19.6407320698258587
 30
0.0
 40
0.0649053003990806
 50
276.3054297603280247
 51
290.5063231263732177
  0
ARC
  5
3130
  8
0
 10
165.4529758129212098
 20
19.5885557479394592
 30
0.0
 40
0.0091990717156858
 50
290.5063231263698071
 51
0.0074975299047592
  0
LINE
  5
3131
  8
0
 10
165.3866223221303073
 20
19.5875035238808195
 30
0.0
 11
165.3841929719303039
 21
19.641937148880821
 31
0.0
  0
LINE
  5
3132
  8
0
 10
165.462174884558209
 20
19.5885569516985498
 30
0.0
 11
165.4630736645765126
 21
19.5998983463035508
 31
0.0
  0
ARC
  5
3133
  8
0
 10
165.3890688720593118
 20
19.58744730369229
 30
0.0
 40
0.0024471957960725
 50
137.4353273409894882
 51
178.6836104653654047
  0
ARC
  5
3134
  8
0
 10
165.3918505325831063
 20
19.5848944907767901
 30
0.0
 40
0.0062227074551751
 50
117.6218900376198064
 51
137.4481544907272053
  0
ARC
  5
3135
  8
0
 10
165.4008286109809944
 20
19.5677369795598395
 30
0.0
 40
0.0255872648443564
 50
104.2941724996588988
 51
117.6218900376183001
  0
ARC
  5
3136
  8
0
 10
165.4148498247513999
 20
19.5127061820003291
 30
0.0
 40
0.0823761996435817
 50
97.5332861213213818
 51
104.2941724996588988
  0
ARC
  5
3137
  8
0
 10
165.42133982045479
 20
19.4636301023817992
 30
0.0
 40
0.1318795493782607
 50
93.3495214186091715
 51
97.5332861213213818
  0
ARC
  5
3138
  8
0
 10
165.4238872544532057
 20
19.4201042112193711
 30
0.0
 40
0.1754799234759721
 50
86.6587322270113845
 51
93.3495214186091715
  0
ARC
  5
3139
  8
0
 10
165.426199022128003
 20
19.459701261432091
 30
0.0
 40
0.1358154474888717
 50
81.2884643039078441
 51
86.6587322270113845
  0
ARC
  5
313A
  8
0
 10
165.4373045444282013
 20
19.5321785777106385
 30
0.0
 40
0.0624922315167023
 50
71.9516757143821479
 51
81.2884643039094641
  0
ARC
  5
313B
  8
0
 10
165.4507821050175096
 20
19.5744169304810285
 30
0.0
 40
0.0181586240033218
 50
51.1412028887290404
 51
71.0939070380108831
  0
ARC
  5
313C
  8
0
 10
165.3872167424368911
 20
19.6413323696231004
 30
0.0
 40
0.0054610556872629
 50
211.5823462546262874
 51
239.3111676033859112
  0
ARC
  5
313D
  8
0
 10
165.3840512891511025
 20
19.6393863139782816
 30
0.0
 40
0.0017452479584756
 50
149.9714243287021134
 51
211.5823462546329949
  0
ARC
  5
313E
  8
0
 10
165.3865992637238094
 20
19.6379135453170299
 30
0.0
 40
0.0046882433633419
 50
120.8812787566428995
 51
149.9714243287004933
  0
ARC
  5
313F
  8
0
 10
165.4251876123219915
 20
19.5133473304566003
 30
0.0
 40
0.1349662992869668
 50
94.3399364564355238
 51
107.6823649389170043
  0
ARC
  5
3140
  8
0
 10
165.4343543289191132
 20
19.6069019994317912
 30
0.0
 40
0.0009281565954009
 50
141.0426627249476041
 51
220.6391220430624003
  0
ARC
  5
3141
  8
0
 10
165.4370595604484038
 20
19.6094076658663106
 30
0.0
 40
0.0046149884205211
 50
222.3709240277570132
 51
252.3425610120860085
  0
ARC
  5
3142
  8
0
 10
165.4442170722921901
 20
19.6283094051966387
 30
0.0
 40
0.0248210756526009
 50
249.8327541840845925
 51
260.519818496160326
  0
ARC
  5
3143
  8
0
 10
165.4528612021150877
 20
19.682658889817489
 30
0.0
 40
0.0798531676161162
 50
260.8252201358366733
 51
281.300015146005876
  0
ARC
  5
3144
  8
0
 10
165.4650593627995931
 20
19.6180684533375711
 30
0.0
 40
0.0141417235756609
 50
284.1152236136830993
 51
299.0754278613270003
  0
ARC
  5
3145
  8
0
 10
165.4710133244500128
 20
19.6073604914191613
 30
0.0
 40
0.001889780555024
 50
299.0754278613231918
 51
329.4880836223794063
  0
ARC
  5
3146
  8
0
 10
165.4717487487874052
 20
19.6069270873285291
 30
0.0
 40
0.0010361482795228
 50
329.4880836223792926
 51
56.5892896404681025
  0
ARC
  5
3147
  8
0
 10
165.4673481144430127
 20
19.6012313549800901
 30
0.0
 40
0.0082313268135523
 50
52.8478488659894907
 51
75.6728490673323648
  0
ARC
  5
3148
  8
0
 10
165.4531447733839968
 20
19.536401620944531
 30
0.0
 40
0.0745943814233801
 50
77.4251922990836334
 51
102.7659736819953054
  0
ARC
  5
3149
  8
0
 10
165.4409989250318063
 20
19.5960065698176606
 30
0.0
 40
0.0138425462866437
 50
108.2597576882244965
 51
118.2722677679629015
  0
ARC
  5
314A
  8
0
 10
165.4355720046208944
 20
19.6060971521424889
 30
0.0
 40
0.0023851767456153
 50
118.2722677679611962
 51
144.401425916901303
  0
ARC
  5
314B
  8
0
 10
165.4250501842855101
 20
19.6125129153045989
 30
0.0
 40
0.0084931626068441
 50
184.7323269816762092
 51
242.2719464895824046
  0
ARC
  5
314C
  8
0
 10
165.4367685461268991
 20
19.6348065768211804
 30
0.0
 40
0.033679018718204
 50
242.2719464895824046
 51
260.6361095257939837
  0
ARC
  5
314D
  8
0
 10
165.4547301054489878
 20
19.7437295414587908
 30
0.0
 40
0.1440729942726926
 50
260.6361095257939837
 51
276.3054297603280247
  0
ARC
  5
314E
  8
0
 10
165.4634249749501862
 20
19.6650407684500408
 30
0.0
 40
0.0649053003990806
 50
276.3054297603280247
 51
290.5063231263732177
  0
ARC
  5
314F
  8
0
 10
165.4829394656823069
 20
19.6128644465636413
 30
0.0
 40
0.0091990717156858
 50
290.5063231263698071
 51
0.0074975299047592
  0
LINE
  5
3150
  8
0
 10
165.4165859748914045
 20
19.6118122225049909
 30
0.0
 11
165.4143067465604133
 21
19.6628821177630506
 31
0.0
  0
LINE
  5
3151
  8
0
 10
165.4921385373191924
 20
19.6128656503227212
 30
0.0
 11
165.4956910656565015
 21
19.657693778337979
 31
0.0
  0
ARC
  5
3152
  8
0
 10
165.419032524820409
 20
19.6117560023164685
 30
0.0
 40
0.0024471957960725
 50
137.4353273409894882
 51
178.6836104653654047
  0
ARC
  5
3153
  8
0
 10
165.4218141853442035
 20
19.6092031894009615
 30
0.0
 40
0.0062227074551751
 50
117.6218900376198064
 51
137.4481544907272053
  0
ARC
  5
3154
  8
0
 10
165.4307922637420916
 20
19.5920456781840109
 30
0.0
 40
0.0255872648443564
 50
104.2941724996588988
 51
117.6218900376183001
  0
ARC
  5
3155
  8
0
 10
165.4448134775124117
 20
19.5370148806244899
 30
0.0
 40
0.0823761996435817
 50
97.5332861213213818
 51
104.2941724996588988
  0
ARC
  5
3156
  8
0
 10
165.4513034732158872
 20
19.4879388010059813
 30
0.0
 40
0.1318795493782607
 50
93.3495214186091715
 51
97.5332861213213818
  0
ARC
  5
3157
  8
0
 10
165.4538509072143029
 20
19.444412909843539
 30
0.0
 40
0.1754799234759721
 50
86.6587322270113845
 51
93.3495214186091715
  0
ARC
  5
3158
  8
0
 10
165.4561626748891001
 20
19.4840099600562695
 30
0.0
 40
0.1358154474888717
 50
81.2884643039078441
 51
86.6587322270113845
  0
ARC
  5
3159
  8
0
 10
165.4672681971892985
 20
19.5564872763348099
 30
0.0
 40
0.0624922315167023
 50
71.9516757143821479
 51
81.2884643039094641
  0
ARC
  5
315A
  8
0
 10
165.4807457577786067
 20
19.5987256291052105
 30
0.0
 40
0.0181586240033218
 50
51.1412028887290404
 51
71.0939070380108831
  0
ARC
  5
315B
  8
0
 10
165.417180395197903
 20
19.6656410682472611
 30
0.0
 40
0.0054610556872629
 50
213.4530132999717011
 51
239.3111676033859112
  0
ARC
  5
315C
  8
0
 10
165.4551512650830887
 20
19.537656029080761
 30
0.0
 40
0.1349662992869668
 50
83.3866883409305615
 51
100.0665308774268993
  0
ARC
  5
315D
  8
0
 10
165.4885743691613982
 20
19.6643278147050893
 30
0.0
 40
0.0009281565954009
 50
141.0426627249476041
 51
220.6391220430624003
  0
ARC
  5
315E
  8
0
 10
165.4912796006906888
 20
19.6668334811396193
 30
0.0
 40
0.0046149884205211
 50
222.3709240277570132
 51
252.3425610120860085
  0
ARC
  5
315F
  8
0
 10
165.4984371125345035
 20
19.6857352204699509
 30
0.0
 40
0.0248210756526009
 50
249.8327541840845925
 51
260.519818496160326
  0
ARC
  5
3160
  8
0
 10
165.5070812423574012
 20
19.7400847050908084
 30
0.0
 40
0.0798531676161162
 50
260.8252201358366733
 51
281.300015146005876
  0
ARC
  5
3161
  8
0
 10
165.5192794030419066
 20
19.6754942686108798
 30
0.0
 40
0.0141417235756609
 50
284.1152236136830993
 51
299.0754278613270003
  0
ARC
  5
3162
  8
0
 10
165.5252333646922978
 20
19.66478630669247
 30
0.0
 40
0.001889780555024
 50
299.0754278613231918
 51
329.4880836223794063
  0
ARC
  5
3163
  8
0
 10
165.5259687890296902
 20
19.6643529026018484
 30
0.0
 40
0.0010361482795228
 50
329.4880836223792926
 51
56.5892896404681025
  0
ARC
  5
3164
  8
0
 10
165.5215681546852977
 20
19.6586571702533988
 30
0.0
 40
0.0082313268135523
 50
52.8478488659894907
 51
75.6728490673323648
  0
ARC
  5
3165
  8
0
 10
165.5073648136263103
 20
19.5938274362178291
 30
0.0
 40
0.0745943814233801
 50
77.4251922990836334
 51
102.7659736819953054
  0
ARC
  5
3166
  8
0
 10
165.495218965274006
 20
19.65343238509098
 30
0.0
 40
0.0138425462866437
 50
108.2597576882244965
 51
118.2722677679629015
  0
ARC
  5
3167
  8
0
 10
165.4897920448632078
 20
19.6635229674157905
 30
0.0
 40
0.0023851767456153
 50
118.2722677679611962
 51
144.401425916901303
  0
ARC
  5
3168
  8
0
 10
165.4792702245277951
 20
19.6699387305779005
 30
0.0
 40
0.0084931626068441
 50
184.7323269816762092
 51
242.2719464895824046
  0
ARC
  5
3169
  8
0
 10
165.4909885863692125
 20
19.6922323920944891
 30
0.0
 40
0.033679018718204
 50
242.2719464895824046
 51
260.6361095257939837
  0
ARC
  5
316A
  8
0
 10
165.5089501456911876
 20
19.8011553567320888
 30
0.0
 40
0.1440729942726926
 50
260.6361095257939837
 51
276.3054297603280247
  0
ARC
  5
316B
  8
0
 10
165.5176450151924996
 20
19.7224665837233388
 30
0.0
 40
0.0649053003990806
 50
276.3054297603280247
 51
290.5063231263732177
  0
ARC
  5
316C
  8
0
 10
165.5371595059245919
 20
19.67029026183695
 30
0.0
 40
0.0091990717156858
 50
290.5063231263698071
 51
0.0074975299047592
  0
LINE
  5
316D
  8
0
 10
165.4708060151336895
 20
19.6692380377782996
 30
0.0
 11
165.468376664933686
 21
19.7236716627783011
 31
0.0
  0
LINE
  5
316E
  8
0
 10
165.5463585775615059
 20
19.6702914655960299
 30
0.0
 11
165.5475005684232883
 21
19.6847018538275513
 31
0.0
  0
ARC
  5
316F
  8
0
 10
165.4732525650626087
 20
19.6691818175897701
 30
0.0
 40
0.0024471957960725
 50
137.4353273409894882
 51
178.6836104653654047
  0
ARC
  5
3170
  8
0
 10
165.4760342255864032
 20
19.6666290046742702
 30
0.0
 40
0.0062227074551751
 50
117.6218900376198064
 51
137.4481544907272053
  0
ARC
  5
3171
  8
0
 10
165.4850123039842913
 20
19.6494714934573196
 30
0.0
 40
0.0255872648443564
 50
104.2941724996588988
 51
117.6218900376183001
  0
ARC
  5
3172
  8
0
 10
165.4990335177546967
 20
19.5944406958978092
 30
0.0
 40
0.0823761996435817
 50
97.5332861213213818
 51
104.2941724996588988
  0
ARC
  5
3173
  8
0
 10
165.5055235134582006
 20
19.54536461627929
 30
0.0
 40
0.1318795493782607
 50
93.3495214186091715
 51
97.5332861213213818
  0
ARC
  5
3174
  8
0
 10
165.5080709474565879
 20
19.5018387251168512
 30
0.0
 40
0.1754799234759721
 50
86.6587322270113845
 51
93.3495214186091715
  0
ARC
  5
3175
  8
0
 10
165.5103827151312998
 20
19.5414357753295818
 30
0.0
 40
0.1358154474888717
 50
81.2884643039078441
 51
86.6587322270113845
  0
ARC
  5
3176
  8
0
 10
165.5214882374316119
 20
19.6139130916081186
 30
0.0
 40
0.0624922315167023
 50
71.9516757143821479
 51
81.2884643039094641
  0
ARC
  5
3177
  8
0
 10
165.5349657980208917
 20
19.6561514443785192
 30
0.0
 40
0.0181586240033218
 50
51.1412028887290404
 51
71.0939070380108831
  0
ARC
  5
3178
  8
0
 10
165.4714004354401879
 20
19.7230668835205805
 30
0.0
 40
0.0054610556872629
 50
211.5823462546262874
 51
239.3111676033859112
  0
ARC
  5
3179
  8
0
 10
165.4682349821543994
 20
19.7211208278757617
 30
0.0
 40
0.0017452479584756
 50
149.9714243287021134
 51
211.5823462546329949
  0
ARC
  5
317A
  8
0
 10
165.4707829567271915
 20
19.71964805921451
 30
0.0
 40
0.0046882433633419
 50
120.8812787566428995
 51
149.9714243287004933
  0
ARC
  5
317B
  8
0
 10
165.5093713053254021
 20
19.5950818443540804
 30
0.0
 40
0.1349662992869668
 50
100.0796697246615992
 51
107.6823649389170043
  0
ARC
  5
317C
  8
0
 10
165.5946150231324054
 20
19.6773567022200702
 30
0.0
 40
0.0009281565954009
 50
141.0426627249476041
 51
220.6391220430624003
  0
ARC
  5
317D
  8
0
 10
165.597320254661696
 20
19.6798623686546001
 30
0.0
 40
0.0046149884205211
 50
222.3709240277570132
 51
252.3425610120860085
  0
ARC
  5
317E
  8
0
 10
165.604477766505596
 20
19.6987641079849212
 30
0.0
 40
0.0248210756526009
 50
249.8327541840845925
 51
260.519818496160326
  0
ARC
  5
317F
  8
0
 10
165.6131218963284937
 20
19.7531135926057786
 30
0.0
 40
0.0798531676161162
 50
260.8252201358366733
 51
281.300015146005876
  0
ARC
  5
3180
  8
0
 10
165.6253200570129991
 20
19.6885231561258607
 30
0.0
 40
0.0141417235756609
 50
284.1152236136830993
 51
299.0754278613270003
  0
ARC
  5
3181
  8
0
 10
165.6312740186633903
 20
19.6778151942074402
 30
0.0
 40
0.001889780555024
 50
299.0754278613231918
 51
329.4880836223794063
  0
ARC
  5
3182
  8
0
 10
165.6320094430008112
 20
19.6773817901168186
 30
0.0
 40
0.0010361482795228
 50
329.4880836223792926
 51
56.5892896404681025
  0
ARC
  5
3183
  8
0
 10
165.627608808656305
 20
19.671686057768369
 30
0.0
 40
0.0082313268135523
 50
52.8478488659894907
 51
75.6728490673323648
  0
ARC
  5
3184
  8
0
 10
165.6134054675974028
 20
19.60685632373281
 30
0.0
 40
0.0745943814233801
 50
77.4251922990836334
 51
102.7659736819953054
  0
ARC
  5
3185
  8
0
 10
165.6012596192450985
 20
19.6664612726059502
 30
0.0
 40
0.0138425462866437
 50
108.2597576882244965
 51
118.2722677679629015
  0
ARC
  5
3186
  8
0
 10
165.5958326988341867
 20
19.6765518549307608
 30
0.0
 40
0.0023851767456153
 50
118.2722677679611962
 51
144.401425916901303
  0
ARC
  5
3187
  8
0
 10
165.5853108784988876
 20
19.6829676180928708
 30
0.0
 40
0.0084931626068441
 50
184.7323269816762092
 51
242.2719464895824046
  0
ARC
  5
3188
  8
0
 10
165.597029240340305
 20
19.7052612796094593
 30
0.0
 40
0.033679018718204
 50
242.2719464895824046
 51
260.6361095257939837
  0
ARC
  5
3189
  8
0
 10
165.6149907996623085
 20
19.814184244247059
 30
0.0
 40
0.1440729942726926
 50
260.6361095257939837
 51
276.3054297603280247
  0
ARC
  5
318A
  8
0
 10
165.6236856691635921
 20
19.7354954712383197
 30
0.0
 40
0.0649053003990806
 50
276.3054297603280247
 51
290.5063231263732177
  0
ARC
  5
318B
  8
0
 10
165.6432001598957129
 20
19.6833191493519202
 30
0.0
 40
0.0091990717156858
 50
290.5063231263698071
 51
0.0074975299047592
  0
LINE
  5
318C
  8
0
 10
165.5768466691048104
 20
19.6822669252932698
 30
0.0
 11
165.574417318904807
 21
19.7367005502932713
 31
0.0
  0
LINE
  5
318D
  8
0
 10
165.6523992315325984
 20
19.6833203531110108
 30
0.0
 11
165.6566239840047956
 21
19.7366310452932687
 31
0.0
  0
ARC
  5
318E
  8
0
 10
165.5792932190337012
 20
19.6822107051047404
 30
0.0
 40
0.0024471957960725
 50
137.4353273409894882
 51
178.6836104653654047
  0
ARC
  5
318F
  8
0
 10
165.5820748795574957
 20
19.6796578921892404
 30
0.0
 40
0.0062227074551751
 50
117.6218900376198064
 51
137.4481544907272053
  0
ARC
  5
3190
  8
0
 10
165.5910529579554122
 20
19.6625003809722898
 30
0.0
 40
0.0255872648443564
 50
104.2941724996588988
 51
117.6218900376183001
  0
ARC
  5
3191
  8
0
 10
165.6050741717257893
 20
19.6074695834127795
 30
0.0
 40
0.0823761996435817
 50
97.5332861213213818
 51
104.2941724996588988
  0
ARC
  5
3192
  8
0
 10
165.6115641674292078
 20
19.5583935037942602
 30
0.0
 40
0.1318795493782607
 50
93.3495214186091715
 51
97.5332861213213818
  0
ARC
  5
3193
  8
0
 10
165.6141116014277088
 20
19.5148676126318215
 30
0.0
 40
0.1754799234759721
 50
86.6587322270113845
 51
93.3495214186091715
  0
ARC
  5
3194
  8
0
 10
165.6164233691023924
 20
19.5544646628445484
 30
0.0
 40
0.1358154474888717
 50
81.2884643039078441
 51
86.6587322270113845
  0
ARC
  5
3195
  8
0
 10
165.6275288914027044
 20
19.6269419791230888
 30
0.0
 40
0.0624922315167023
 50
71.9516757143821479
 51
81.2884643039094641
  0
ARC
  5
3196
  8
0
 10
165.641006451991899
 20
19.6691803318934895
 30
0.0
 40
0.0181586240033218
 50
51.1412028887290404
 51
71.0939070380108831
  0
ARC
  5
3197
  8
0
 10
165.5774410894113089
 20
19.7360957710355507
 30
0.0
 40
0.0054610556872629
 50
211.5823462546262874
 51
239.3111676033859112
  0
ARC
  5
3198
  8
0
 10
165.5742756361254919
 20
19.7341497153907284
 30
0.0
 40
0.0017452479584756
 50
149.9714243287021134
 51
211.5823462546329949
  0
ARC
  5
3199
  8
0
 10
165.5768236106983125
 20
19.7326769467294802
 30
0.0
 40
0.0046882433633419
 50
120.8812787566428995
 51
149.9714243287004933
  0
ARC
  5
319A
  8
0
 10
165.6154119592964946
 20
19.6081107318690506
 30
0.0
 40
0.1349662992869668
 50
106.088275714745194
 51
107.6823649389170043
  0
ARC
  5
319B
  8
0
 10
165.654307910534186
 20
19.7327731222111282
 30
0.0
 40
0.0044997518630269
 50
32.9921259813146932
 51
59.0218351283160914
  0
ARC
  5
319C
  8
0
 10
165.6564459885732106
 20
19.7341611886136299
 30
0.0
 40
0.0019506135696612
 50
331.646061071891495
 51
32.9921259813052004
  0
ARC
  5
319D
  8
0
 10
165.6542365885983941
 20
19.7353535122730293
 30
0.0
 40
0.0044612079131449
 50
296.189381315037906
 51
331.6460610718934845
  0
ARC
  5
319E
  8
0
 10
165.5538829923179094
 20
19.6440588766800204
 30
0.0
 40
0.0009281565954009
 50
141.0426627249476041
 51
220.6391220430624003
  0
ARC
  5
319F
  8
0
 10
165.5565882238470863
 20
19.6465645431145504
 30
0.0
 40
0.0046149884205211
 50
222.3709240277570132
 51
252.3425610120860085
  0
ARC
  5
31A0
  8
0
 10
165.5637457356909863
 20
19.6654662824448714
 30
0.0
 40
0.0248210756526009
 50
249.8327541840845925
 51
260.519818496160326
  0
ARC
  5
31A1
  8
0
 10
165.5723898655139124
 20
19.7198157670657288
 30
0.0
 40
0.0798531676161162
 50
260.8252201358366733
 51
281.300015146005876
  0
ARC
  5
31A2
  8
0
 10
165.5845880261983893
 20
19.6552253305858109
 30
0.0
 40
0.0141417235756609
 50
284.1152236136830993
 51
299.0754278613270003
  0
ARC
  5
31A3
  8
0
 10
165.590541987848809
 20
19.6445173686673904
 30
0.0
 40
0.001889780555024
 50
299.0754278613231918
 51
329.4880836223794063
  0
ARC
  5
31A4
  8
0
 10
165.5912774121862014
 20
19.6440839645767689
 30
0.0
 40
0.0010361482795228
 50
329.4880836223792926
 51
56.5892896404681025
  0
ARC
  5
31A5
  8
0
 10
165.5868767778416952
 20
19.6383882322283192
 30
0.0
 40
0.0082313268135523
 50
52.8478488659894907
 51
75.6728490673323648
  0
ARC
  5
31A6
  8
0
 10
165.572673436782793
 20
19.5735584981927602
 30
0.0
 40
0.0745943814233801
 50
77.4251922990836334
 51
102.7659736819953054
  0
ARC
  5
31A7
  8
0
 10
165.5605275884304888
 20
19.6331634470659004
 30
0.0
 40
0.0138425462866437
 50
108.2597576882244965
 51
118.2722677679629015
  0
ARC
  5
31A8
  8
0
 10
165.5551006680196906
 20
19.6432540293907216
 30
0.0
 40
0.0023851767456153
 50
118.2722677679611962
 51
144.401425916901303
  0
ARC
  5
31A9
  8
0
 10
165.5445788476843063
 20
19.6496697925528316
 30
0.0
 40
0.0084931626068441
 50
184.7323269816762092
 51
242.2719464895824046
  0
ARC
  5
31AA
  8
0
 10
165.5562972095256953
 20
19.6719634540694095
 30
0.0
 40
0.033679018718204
 50
242.2719464895824046
 51
260.6361095257939837
  0
ARC
  5
31AB
  8
0
 10
165.5742587688476988
 20
19.7808864187070199
 30
0.0
 40
0.1440729942726926
 50
260.6361095257939837
 51
276.3054297603280247
  0
ARC
  5
31AC
  8
0
 10
165.5829536383490108
 20
19.7021976456982699
 30
0.0
 40
0.0649053003990806
 50
276.3054297603280247
 51
290.5063231263732177
  0
ARC
  5
31AD
  8
0
 10
165.6024681290811031
 20
19.6500213238118704
 30
0.0
 40
0.0091990717156858
 50
290.5063231263698071
 51
0.0074975299047592
  0
LINE
  5
31AE
  8
0
 10
165.5361146382902007
 20
19.64896909975322
 30
0.0
 11
165.5356179003827037
 21
19.6600993373689192
 31
0.0
  0
LINE
  5
31AF
  8
0
 10
165.6116672007179886
 20
19.650022527570961
 30
0.0
 11
165.6132600107007988
 21
19.6701216465741417
 31
0.0
  0
ARC
  5
31B0
  8
0
 10
165.5385611882190915
 20
19.6489128795647012
 30
0.0
 40
0.0024471957960725
 50
137.4353273409894882
 51
178.6836104653654047
  0
ARC
  5
31B1
  8
0
 10
165.541342848742886
 20
19.6463600666491907
 30
0.0
 40
0.0062227074551751
 50
117.6218900376198064
 51
137.4481544907272053
  0
ARC
  5
31B2
  8
0
 10
165.5503209271408025
 20
19.62920255543224
 30
0.0
 40
0.0255872648443564
 50
104.2941724996588988
 51
117.6218900376183001
  0
ARC
  5
31B3
  8
0
 10
165.5643421409112079
 20
19.5741717578727297
 30
0.0
 40
0.0823761996435817
 50
97.5332861213213818
 51
104.2941724996588988
  0
ARC
  5
31B4
  8
0
 10
165.5708321366145981
 20
19.5250956782542104
 30
0.0
 40
0.1318795493782607
 50
93.3495214186091715
 51
97.5332861213213818
  0
ARC
  5
31B5
  8
0
 10
165.5733795706130138
 20
19.4815697870917788
 30
0.0
 40
0.1754799234759721
 50
86.6587322270113845
 51
93.3495214186091715
  0
ARC
  5
31B6
  8
0
 10
165.575691338287811
 20
19.5211668373044986
 30
0.0
 40
0.1358154474888717
 50
81.2884643039078441
 51
86.6587322270113845
  0
ARC
  5
31B7
  8
0
 10
165.5867968605880094
 20
19.5936441535830497
 30
0.0
 40
0.0624922315167023
 50
71.9516757143821479
 51
81.2884643039094641
  0
ARC
  5
31B8
  8
0
 10
165.6002744211772892
 20
19.6358825063534503
 30
0.0
 40
0.0181586240033218
 50
51.1412028887290404
 51
71.0939070380108831
  0
ARC
  5
31B9
  8
0
 10
165.5746799284819133
 20
19.5748129063290008
 30
0.0
 40
0.1349662992869668
 50
89.6013628079638238
 51
94.6108834029443102
  0
ARC
  5
31BA
  8
0
 10
165.5308844844711018
 20
19.6203619721913185
 30
0.0
 40
0.0009281565954009
 50
141.0426627249476041
 51
220.6391220430624003
  0
ARC
  5
31BB
  8
0
 10
165.5335897160003924
 20
19.6228676386258485
 30
0.0
 40
0.0046149884205211
 50
222.3709240277570132
 51
252.3425610120860085
  0
ARC
  5
31BC
  8
0
 10
165.5407472278442071
 20
19.6417693779561802
 30
0.0
 40
0.0248210756526009
 50
249.8327541840845925
 51
260.519818496160326
  0
ARC
  5
31BD
  8
0
 10
165.5493913576671048
 20
19.6961188625770305
 30
0.0
 40
0.0798531676161162
 50
260.8252201358366733
 51
281.300015146005876
  0
ARC
  5
31BE
  8
0
 10
165.5615895183516102
 20
19.631528426097109
 30
0.0
 40
0.0141417235756609
 50
284.1152236136830993
 51
299.0754278613270003
  0
ARC
  5
31BF
  8
0
 10
165.5675434800020867
 20
19.6208204641786885
 30
0.0
 40
0.001889780555024
 50
299.0754278613231918
 51
329.4880836223794063
  0
ARC
  5
31C0
  8
0
 10
165.5682789043393939
 20
19.6203870600880705
 30
0.0
 40
0.0010361482795228
 50
329.4880836223792926
 51
56.5892896404681025
  0
ARC
  5
31C1
  8
0
 10
165.5638782699950013
 20
19.6146913277396315
 30
0.0
 40
0.0082313268135523
 50
52.8478488659894907
 51
75.6728490673323648
  0
ARC
  5
31C2
  8
0
 10
165.5496749289360139
 20
19.5498615937040583
 30
0.0
 40
0.0745943814233801
 50
77.4251922990836334
 51
102.7659736819953054
  0
ARC
  5
31C3
  8
0
 10
165.5375290805837949
 20
19.6094665425771986
 30
0.0
 40
0.0138425462866437
 50
108.2597576882244965
 51
118.2722677679629015
  0
ARC
  5
31C4
  8
0
 10
165.5321021601729115
 20
19.6195571249020198
 30
0.0
 40
0.0023851767456153
 50
118.2722677679611962
 51
144.401425916901303
  0
ARC
  5
31C5
  8
0
 10
165.5215803398374987
 20
19.6259728880641298
 30
0.0
 40
0.0084931626068441
 50
184.7323269816762092
 51
242.2719464895824046
  0
ARC
  5
31C6
  8
0
 10
165.5332987016788877
 20
19.6482665495807183
 30
0.0
 40
0.033679018718204
 50
242.2719464895824046
 51
260.6361095257939837
  0
ARC
  5
31C7
  8
0
 10
165.5512602610010049
 20
19.7571895142183216
 30
0.0
 40
0.1440729942726926
 50
260.6361095257939837
 51
276.3054297603280247
  0
ARC
  5
31C8
  8
0
 10
165.5599551305022032
 20
19.6785007412095716
 30
0.0
 40
0.0649053003990806
 50
276.3054297603280247
 51
290.5063231263732177
  0
ARC
  5
31C9
  8
0
 10
165.5794696212342956
 20
19.6263244193231685
 30
0.0
 40
0.0091990717156858
 50
290.5063231263698071
 51
0.0074975299047592
  0
LINE
  5
31CA
  8
0
 10
165.5131161304433931
 20
19.6252721952645288
 30
0.0
 11
165.5116952885283865
 21
19.6571085175807099
 31
0.0
  0
LINE
  5
31CB
  8
0
 10
165.5886686928712095
 20
19.6263256230822591
 30
0.0
 11
165.5895644390178063
 21
19.6376287343080911
 31
0.0
  0
ARC
  5
31CC
  8
0
 10
165.5155626803723976
 20
19.6252159750759994
 30
0.0
 40
0.0024471957960725
 50
137.4353273409894882
 51
178.6836104653654047
  0
ARC
  5
31CD
  8
0
 10
165.5183443408961921
 20
19.6226631621604888
 30
0.0
 40
0.0062227074551751
 50
117.6218900376198064
 51
137.4481544907272053
  0
ARC
  5
31CE
  8
0
 10
165.5273224192941086
 20
19.6055056509435417
 30
0.0
 40
0.0255872648443564
 50
104.2941724996588988
 51
117.6218900376183001
  0
ARC
  5
31CF
  8
0
 10
165.5413436330645141
 20
19.5504748533840313
 30
0.0
 40
0.0823761996435817
 50
97.5332861213213818
 51
104.2941724996588988
  0
ARC
  5
31D0
  8
0
 10
165.5478336287679042
 20
19.5013987737655086
 30
0.0
 40
0.1318795493782607
 50
93.3495214186091715
 51
97.5332861213213818
  0
ARC
  5
31D1
  8
0
 10
165.5503810627662915
 20
19.4578728826030805
 30
0.0
 40
0.1754799234759721
 50
86.6587322270113845
 51
93.3495214186091715
  0
ARC
  5
31D2
  8
0
 10
165.5526928304410887
 20
19.4974699328158003
 30
0.0
 40
0.1358154474888717
 50
81.2884643039078441
 51
86.6587322270113845
  0
ARC
  5
31D3
  8
0
 10
165.5637983527412871
 20
19.5699472490943513
 30
0.0
 40
0.0624922315167023
 50
71.9516757143821479
 51
81.2884643039094641
  0
ARC
  5
31D4
  8
0
 10
165.5772759133305954
 20
19.6121856018647414
 30
0.0
 40
0.0181586240033218
 50
51.1412028887290404
 51
71.0939070380108831
  0
ARC
  5
31D5
  8
0
 10
165.5074299613702919
 20
19.586349117173441
 30
0.0
 40
0.0009281565954009
 50
141.0426627249476041
 51
220.6391220430624003
  0
ARC
  5
31D6
  8
0
 10
165.510135192899611
 20
19.5888547836079709
 30
0.0
 40
0.0046149884205211
 50
222.3709240277570132
 51
252.3425610120860085
  0
ARC
  5
31D7
  8
0
 10
165.517292704743511
 20
19.6077565229382884
 30
0.0
 40
0.0248210756526009
 50
249.8327541840845925
 51
260.519818496160326
  0
ARC
  5
31D8
  8
0
 10
165.5259368345664086
 20
19.6621060075591494
 30
0.0
 40
0.0798531676161162
 50
260.8252201358366733
 51
281.300015146005876
  0
ARC
  5
31D9
  8
0
 10
165.538134995250914
 20
19.5975155710792315
 30
0.0
 40
0.0141417235756609
 50
284.1152236136830993
 51
299.0754278613270003
  0
ARC
  5
31DA
  8
0
 10
165.5440889569013052
 20
19.586807609160811
 30
0.0
 40
0.001889780555024
 50
299.0754278613231918
 51
329.4880836223794063
  0
ARC
  5
31DB
  8
0
 10
165.5448243812386977
 20
19.5863742050701894
 30
0.0
 40
0.0010361482795228
 50
329.4880836223792926
 51
56.5892896404681025
  0
ARC
  5
31DC
  8
0
 10
165.5404237468941915
 20
19.5806784727217398
 30
0.0
 40
0.0082313268135523
 50
52.8478488659894907
 51
75.6728490673323648
  0
ARC
  5
31DD
  8
0
 10
165.5262204058352893
 20
19.5158487386861808
 30
0.0
 40
0.0745943814233801
 50
77.4251922990836334
 51
102.7659736819953054
  0
ARC
  5
31DE
  8
0
 10
165.5140745574830135
 20
19.575453687559321
 30
0.0
 40
0.0138425462866437
 50
108.2597576882244965
 51
118.2722677679629015
  0
ARC
  5
31DF
  8
0
 10
165.5086476370721016
 20
19.5855442698841387
 30
0.0
 40
0.0023851767456153
 50
118.2722677679611962
 51
144.401425916901303
  0
ARC
  5
31E0
  8
0
 10
165.4981258167366889
 20
19.5919600330462487
 30
0.0
 40
0.0084931626068441
 50
184.7323269816762092
 51
242.2719464895824046
  0
ARC
  5
31E1
  8
0
 10
165.5098441785781915
 20
19.6142536945628301
 30
0.0
 40
0.033679018718204
 50
242.2719464895824046
 51
260.6361095257939837
  0
ARC
  5
31E2
  8
0
 10
165.527805737900195
 20
19.7231766592004405
 30
0.0
 40
0.1440729942726926
 50
260.6361095257939837
 51
276.3054297603280247
  0
ARC
  5
31E3
  8
0
 10
165.5365006074013934
 20
19.6444878861917012
 30
0.0
 40
0.0649053003990806
 50
276.3054297603280247
 51
290.5063231263732177
  0
ARC
  5
31E4
  8
0
 10
165.5560150981335994
 20
19.592311564305291
 30
0.0
 40
0.0091990717156858
 50
290.5063231263698071
 51
0.0074975299047592
  0
LINE
  5
31E5
  8
0
 10
165.4896616073426969
 20
19.5912593402466406
 30
0.0
 11
165.4890060030643042
 21
19.6059492426893307
 31
0.0
  0
LINE
  5
31E6
  8
0
 10
165.5652141697705133
 20
19.5923127680643816
 30
0.0
 11
165.5669305562236957
 21
19.6139712558629888
 31
0.0
  0
ARC
  5
31E7
  8
0
 10
165.4921081572715877
 20
19.5912031200581183
 30
0.0
 40
0.0024471957960725
 50
137.4353273409894882
 51
178.6836104653654047
  0
ARC
  5
31E8
  8
0
 10
165.4948898177954106
 20
19.5886503071426112
 30
0.0
 40
0.0062227074551751
 50
117.6218900376198064
 51
137.4481544907272053
  0
ARC
  5
31E9
  8
0
 10
165.5038678961932987
 20
19.5714927959256606
 30
0.0
 40
0.0255872648443564
 50
104.2941724996588988
 51
117.6218900376183001
  0
ARC
  5
31EA
  8
0
 10
165.5178891099637042
 20
19.5164619983661503
 30
0.0
 40
0.0823761996435817
 50
97.5332861213213818
 51
104.2941724996588988
  0
ARC
  5
31EB
  8
0
 10
165.524379105667208
 20
19.467385918747631
 30
0.0
 40
0.1318795493782607
 50
93.3495214186091715
 51
97.5332861213213818
  0
ARC
  5
31EC
  8
0
 10
165.5269265396655101
 20
19.4238600275851994
 30
0.0
 40
0.1754799234759721
 50
86.6587322270113845
 51
93.3495214186091715
  0
ARC
  5
31ED
  8
0
 10
165.5292383073403073
 20
19.4634570777979192
 30
0.0
 40
0.1358154474888717
 50
81.2884643039078441
 51
86.6587322270113845
  0
ARC
  5
31EE
  8
0
 10
165.5403438296405056
 20
19.5359343940764703
 30
0.0
 40
0.0624922315167023
 50
71.9516757143821479
 51
81.2884643039094641
  0
ARC
  5
31EF
  8
0
 10
165.5538213902298139
 20
19.5781727468468709
 30
0.0
 40
0.0181586240033218
 50
51.1412028887290404
 51
71.0939070380108831
  0
ARC
  5
31F0
  8
0
 10
165.6530672006537088
 20
19.6590830430648396
 30
0.0
 40
0.0009281565954009
 50
141.0426627249476041
 51
220.6391220430624003
  0
ARC
  5
31F1
  8
0
 10
165.6557724321829994
 20
19.6615887094993802
 30
0.0
 40
0.0046149884205211
 50
222.3709240277570132
 51
252.3425610120860085
  0
ARC
  5
31F2
  8
0
 10
165.6629299440268142
 20
19.6804904488297012
 30
0.0
 40
0.0248210756526009
 50
249.8327541840845925
 51
260.519818496160326
  0
ARC
  5
31F3
  8
0
 10
165.6715740738497971
 20
19.7348399334505515
 30
0.0
 40
0.0798531676161162
 50
260.8252201358366733
 51
281.300015146005876
  0
ARC
  5
31F4
  8
0
 10
165.6837722345341888
 20
19.6702494969706301
 30
0.0
 40
0.0141417235756609
 50
284.1152236136830993
 51
299.0754278613270003
  0
ARC
  5
31F5
  8
0
 10
165.6897261961846937
 20
19.6595415350522096
 30
0.0
 40
0.001889780555024
 50
299.0754278613231918
 51
329.4880836223794063
  0
ARC
  5
31F6
  8
0
 10
165.6904616205220009
 20
19.6591081309615916
 30
0.0
 40
0.0010361482795228
 50
329.4880836223792926
 51
56.5892896404681025
  0
ARC
  5
31F7
  8
0
 10
165.6860609861776084
 20
19.653412398613149
 30
0.0
 40
0.0082313268135523
 50
52.8478488659894907
 51
75.6728490673323648
  0
ARC
  5
31F8
  8
0
 10
165.6718576451185925
 20
19.58858266457759
 30
0.0
 40
0.0745943814233801
 50
77.4251922990836334
 51
102.7659736819953054
  0
ARC
  5
31F9
  8
0
 10
165.6597117967664019
 20
19.6481876134507196
 30
0.0
 40
0.0138425462866437
 50
108.2597576882244965
 51
118.2722677679629015
  0
ARC
  5
31FA
  8
0
 10
165.65428487635549
 20
19.6582781957755408
 30
0.0
 40
0.0023851767456153
 50
118.2722677679611962
 51
144.401425916901303
  0
ARC
  5
31FB
  8
0
 10
165.6437630560201058
 20
19.6646939589376508
 30
0.0
 40
0.0084931626068441
 50
184.7323269816762092
 51
242.2719464895824046
  0
ARC
  5
31FC
  8
0
 10
165.6554814178614947
 20
19.6869876204542393
 30
0.0
 40
0.033679018718204
 50
242.2719464895824046
 51
260.6361095257939837
  0
ARC
  5
31FD
  8
0
 10
165.6734429771836119
 20
19.7959105850918391
 30
0.0
 40
0.1440729942726926
 50
260.6361095257939837
 51
276.3054297603280247
  0
ARC
  5
31FE
  8
0
 10
165.6821378466848103
 20
19.7172218120830891
 30
0.0
 40
0.0649053003990806
 50
276.3054297603280247
 51
290.5063231263732177
  0
ARC
  5
31FF
  8
0
 10
165.7016523374169026
 20
19.6650454901967002
 30
0.0
 40
0.0091990717156858
 50
290.5063231263698071
 51
0.0074975299047592
  0
LINE
  5
3200
  8
0
 10
165.6352988466260001
 20
19.6639932661380499
 30
0.0
 11
165.6349603904097023
 21
19.6715769396475793
 31
0.0
  0
LINE
  5
3201
  8
0
 10
165.7108514090539018
 20
19.6650466939557802
 30
0.0
 11
165.715076161526099
 21
19.7183573861380417
 31
0.0
  0
ARC
  5
3202
  8
0
 10
165.6377453965550046
 20
19.6639370459495204
 30
0.0
 40
0.0024471957960725
 50
137.4353273409894882
 51
178.6836104653654047
  0
ARC
  5
3203
  8
0
 10
165.6405270570787991
 20
19.6613842330340098
 30
0.0
 40
0.0062227074551751
 50
117.6218900376198064
 51
137.4481544907272053
  0
ARC
  5
3204
  8
0
 10
165.6495051354766872
 20
19.6442267218170699
 30
0.0
 40
0.0255872648443564
 50
104.2941724996588988
 51
117.6218900376183001
  0
ARC
  5
3205
  8
0
 10
165.6635263492470926
 20
19.5891959242575489
 30
0.0
 40
0.0823761996435817
 50
97.5332861213213818
 51
104.2941724996588988
  0
ARC
  5
3206
  8
0
 10
165.6700163449505112
 20
19.5401198446390296
 30
0.0
 40
0.1318795493782607
 50
93.3495214186091715
 51
97.5332861213213818
  0
ARC
  5
3207
  8
0
 10
165.6725637789488985
 20
19.4965939534766015
 30
0.0
 40
0.1754799234759721
 50
86.6587322270113845
 51
93.3495214186091715
  0
ARC
  5
3208
  8
0
 10
165.6748755466236958
 20
19.5361910036893214
 30
0.0
 40
0.1358154474888717
 50
81.2884643039078441
 51
86.6587322270113845
  0
ARC
  5
3209
  8
0
 10
165.6859810689238941
 20
19.6086683199678689
 30
0.0
 40
0.0624922315167023
 50
71.9516757143821479
 51
81.2884643039094641
  0
ARC
  5
320A
  8
0
 10
165.6994586295132024
 20
19.6509066727382589
 30
0.0
 40
0.0181586240033218
 50
51.1412028887290404
 51
71.0939070380108831
  0
ARC
  5
320B
  8
0
 10
165.6738641368177127
 20
19.58983707271382
 30
0.0
 40
0.1349662992869668
 50
72.220748946038313
 51
97.7824131409337411
  0
ARC
  5
320C
  8
0
 10
165.7127600880554041
 20
19.7144994630559083
 30
0.0
 40
0.0044997518630269
 50
32.9921259813146932
 51
59.0218351283160914
  0
ARC
  5
320D
  8
0
 10
165.7148981660944003
 20
19.7158875294584099
 30
0.0
 40
0.0019506135696612
 50
331.646061071891495
 51
32.9921259813052004
  0
ARC
  5
320E
  8
0
 10
165.7126887661196122
 20
19.7170798531178093
 30
0.0
 40
0.0044612079131449
 50
296.189381315037906
 51
331.6460610718934845
  0
ARC
  5
320F
  8
0
 10
165.6734093972355879
 20
19.6378600690659297
 30
0.0
 40
0.0009281565954009
 50
141.0426627249476041
 51
220.6391220430624003
  0
ARC
  5
3210
  8
0
 10
165.6761146287649069
 20
19.6403657355004597
 30
0.0
 40
0.0046149884205211
 50
222.3709240277570132
 51
252.3425610120860085
  0
ARC
  5
3211
  8
0
 10
165.6832721406086932
 20
19.6592674748307807
 30
0.0
 40
0.0248210756526009
 50
249.8327541840845925
 51
260.519818496160326
  0
ARC
  5
3212
  8
0
 10
165.6919162704315909
 20
19.7136169594516311
 30
0.0
 40
0.0798531676161162
 50
260.8252201358366733
 51
281.300015146005876
  0
ARC
  5
3213
  8
0
 10
165.70411443111621
 20
19.6490265229717203
 30
0.0
 40
0.0141417235756609
 50
284.1152236136830993
 51
299.0754278613270003
  0
ARC
  5
3214
  8
0
 10
165.7100683927666012
 20
19.6383185610532891
 30
0.0
 40
0.001889780555024
 50
299.0754278613231918
 51
329.4880836223794063
  0
ARC
  5
3215
  8
0
 10
165.7108038171039084
 20
19.6378851569626711
 30
0.0
 40
0.0010361482795228
 50
329.4880836223792926
 51
56.5892896404681025
  0
ARC
  5
3216
  8
0
 10
165.7064031827594874
 20
19.6321894246142286
 30
0.0
 40
0.0082313268135523
 50
52.8478488659894907
 51
75.6728490673323648
  0
ARC
  5
3217
  8
0
 10
165.6921998417005
 20
19.5673596905786695
 30
0.0
 40
0.0745943814233801
 50
77.4251922990836334
 51
102.7659736819953054
  0
ARC
  5
3218
  8
0
 10
165.6800539933483094
 20
19.6269646394517991
 30
0.0
 40
0.0138425462866437
 50
108.2597576882244965
 51
118.2722677679629015
  0
ARC
  5
3219
  8
0
 10
165.6746270729373975
 20
19.637055221776631
 30
0.0
 40
0.0023851767456153
 50
118.2722677679611962
 51
144.401425916901303
  0
ARC
  5
321A
  8
0
 10
165.6641052526020133
 20
19.643470984938741
 30
0.0
 40
0.0084931626068441
 50
184.7323269816762092
 51
242.2719464895824046
  0
ARC
  5
321B
  8
0
 10
165.6758236144434022
 20
19.6657646464553189
 30
0.0
 40
0.033679018718204
 50
242.2719464895824046
 51
260.6361095257939837
  0
ARC
  5
321C
  8
0
 10
165.693785173765491
 20
19.7746876110929293
 30
0.0
 40
0.1440729942726926
 50
260.6361095257939837
 51
276.3054297603280247
  0
ARC
  5
321D
  8
0
 10
165.7024800432666893
 20
19.6959988380841793
 30
0.0
 40
0.0649053003990806
 50
276.3054297603280247
 51
290.5063231263732177
  0
ARC
  5
321E
  8
0
 10
165.7219945339988101
 20
19.6438225161977797
 30
0.0
 40
0.0091990717156858
 50
290.5063231263698071
 51
0.0074975299047592
  0
LINE
  5
321F
  8
0
 10
165.6556410432079076
 20
19.6427702921391294
 30
0.0
 11
165.6551845301511889
 21
19.6529992251841499
 31
0.0
  0
LINE
  5
3220
  8
0
 10
165.7311936056356956
 20
19.6438237199568597
 30
0.0
 11
165.7354183581078928
 21
19.6971344121391283
 31
0.0
  0
ARC
  5
3221
  8
0
 10
165.6580875931369121
 20
19.6427140719506106
 30
0.0
 40
0.0024471957960725
 50
137.4353273409894882
 51
178.6836104653654047
  0
ARC
  5
3222
  8
0
 10
165.6608692536607066
 20
19.6401612590351
 30
0.0
 40
0.0062227074551751
 50
117.6218900376198064
 51
137.4481544907272053
  0
ARC
  5
3223
  8
0
 10
165.6698473320585947
 20
19.6230037478181494
 30
0.0
 40
0.0255872648443564
 50
104.2941724996588988
 51
117.6218900376183001
  0
ARC
  5
3224
  8
0
 10
165.6838685458290001
 20
19.5679729502586284
 30
0.0
 40
0.0823761996435817
 50
97.5332861213213818
 51
104.2941724996588988
  0
ARC
  5
3225
  8
0
 10
165.6903585415323903
 20
19.5188968706401198
 30
0.0
 40
0.1318795493782607
 50
93.3495214186091715
 51
97.5332861213213818
  0
ARC
  5
3226
  8
0
 10
165.692905975530806
 20
19.475370979477681
 30
0.0
 40
0.1754799234759721
 50
86.6587322270113845
 51
93.3495214186091715
  0
ARC
  5
3227
  8
0
 10
165.6952177432054896
 20
19.5149680296904116
 30
0.0
 40
0.1358154474888717
 50
81.2884643039078441
 51
86.6587322270113845
  0
ARC
  5
3228
  8
0
 10
165.7063232655058016
 20
19.587445345968959
 30
0.0
 40
0.0624922315167023
 50
71.9516757143821479
 51
81.2884643039094641
  0
ARC
  5
3229
  8
0
 10
165.7198008260951099
 20
19.629683698739349
 30
0.0
 40
0.0181586240033218
 50
51.1412028887290404
 51
71.0939070380108831
  0
ARC
  5
322A
  8
0
 10
165.6942063333995918
 20
19.5686140987148995
 30
0.0
 40
0.1349662992869668
 50
72.220748946038313
 51
81.6560895452397943
  0
ARC
  5
322B
  8
0
 10
165.7331022846373116
 20
19.6932764890569985
 30
0.0
 40
0.0044997518630269
 50
32.9921259813146932
 51
59.0218351283160914
  0
ARC
  5
322C
  8
0
 10
165.735240362676393
 20
19.6946645554595001
 30
0.0
 40
0.0019506135696612
 50
331.646061071891495
 51
32.9921259813052004
  0
ARC
  5
322D
  8
0
 10
165.7330309627014913
 20
19.6958568791188888
 30
0.0
 40
0.0044612079131449
 50
296.189381315037906
 51
331.6460610718934845
  0
ARC
  5
322E
  8
0
 10
165.6524309260192069
 20
19.6164903474961214
 30
0.0
 40
0.0009281565954009
 50
141.0426627249476041
 51
220.6391220430624003
  0
ARC
  5
322F
  8
0
 10
165.6551361575484975
 20
19.6189960139306514
 30
0.0
 40
0.0046149884205211
 50
222.3709240277570132
 51
252.3425610120860085
  0
ARC
  5
3230
  8
0
 10
165.6622936693923123
 20
19.6378977532609795
 30
0.0
 40
0.0248210756526009
 50
249.8327541840845925
 51
260.519818496160326
  0
ARC
  5
3231
  8
0
 10
165.6709377992152099
 20
19.6922472378818298
 30
0.0
 40
0.0798531676161162
 50
260.8252201358366733
 51
281.300015146005876
  0
ARC
  5
3232
  8
0
 10
165.6831359598996869
 20
19.6276568014019084
 30
0.0
 40
0.0141417235756609
 50
284.1152236136830993
 51
299.0754278613270003
  0
ARC
  5
3233
  8
0
 10
165.6890899215501065
 20
19.6169488394834985
 30
0.0
 40
0.001889780555024
 50
299.0754278613231918
 51
329.4880836223794063
  0
ARC
  5
3234
  8
0
 10
165.689825345887499
 20
19.6165154353928806
 30
0.0
 40
0.0010361482795228
 50
329.4880836223792926
 51
56.5892896404681025
  0
ARC
  5
3235
  8
0
 10
165.6854247115431065
 20
19.6108197030444309
 30
0.0
 40
0.0082313268135523
 50
52.8478488659894907
 51
75.6728490673323648
  0
ARC
  5
3236
  8
0
 10
165.6712213704840906
 20
19.5459899690088612
 30
0.0
 40
0.0745943814233801
 50
77.4251922990836334
 51
102.7659736819953054
  0
ARC
  5
3237
  8
0
 10
165.6590755221319
 20
19.6055949178820086
 30
0.0
 40
0.0138425462866437
 50
108.2597576882244965
 51
118.2722677679629015
  0
ARC
  5
3238
  8
0
 10
165.6536486017209882
 20
19.6156855002068191
 30
0.0
 40
0.0023851767456153
 50
118.2722677679611962
 51
144.401425916901303
  0
ARC
  5
3239
  8
0
 10
165.6431267813856039
 20
19.6221012633689291
 30
0.0
 40
0.0084931626068441
 50
184.7323269816762092
 51
242.2719464895824046
  0
ARC
  5
323A
  8
0
 10
165.6548451432269928
 20
19.6443949248855105
 30
0.0
 40
0.033679018718204
 50
242.2719464895824046
 51
260.6361095257939837
  0
ARC
  5
323B
  8
0
 10
165.67280670254911
 20
19.753317889523121
 30
0.0
 40
0.1440729942726926
 50
260.6361095257939837
 51
276.3054297603280247
  0
ARC
  5
323C
  8
0
 10
165.6815015720503084
 20
19.674629116514371
 30
0.0
 40
0.0649053003990806
 50
276.3054297603280247
 51
290.5063231263732177
  0
ARC
  5
323D
  8
0
 10
165.7010160627824007
 20
19.6224527946279785
 30
0.0
 40
0.0091990717156858
 50
290.5063231263698071
 51
0.0074975299047592
  0
LINE
  5
323E
  8
0
 10
165.6346625719914982
 20
19.6214005705693317
 30
0.0
 11
165.6324407860707026
 21
19.6711833732486205
 31
0.0
  0
LINE
  5
323F
  8
0
 10
165.7102151344192862
 20
19.6224539983870585
 30
0.0
 11
165.710943717513004
 21
19.631647736787091
 31
0.0
  0
ARC
  5
3240
  8
0
 10
165.637109121920389
 20
19.6213443503807987
 30
0.0
 40
0.0024471957960725
 50
137.4353273409894882
 51
178.6836104653654047
  0
ARC
  5
3241
  8
0
 10
165.6398907824442972
 20
19.6187915374652988
 30
0.0
 40
0.0062227074551751
 50
117.6218900376198064
 51
137.4481544907272053
  0
ARC
  5
3242
  8
0
 10
165.6488688608422137
 20
19.6016340262483517
 30
0.0
 40
0.0255872648443564
 50
104.2941724996588988
 51
117.6218900376183001
  0
ARC
  5
3243
  8
0
 10
165.6628900746125055
 20
19.5466032286888414
 30
0.0
 40
0.0823761996435817
 50
97.5332861213213818
 51
104.2941724996588988
  0
ARC
  5
3244
  8
0
 10
165.6693800703160093
 20
19.4975271490703115
 30
0.0
 40
0.1318795493782607
 50
93.3495214186091715
 51
97.5332861213213818
  0
ARC
  5
3245
  8
0
 10
165.6719275043143966
 20
19.4540012579078798
 30
0.0
 40
0.1754799234759721
 50
86.6587322270113845
 51
93.3495214186091715
  0
ARC
  5
3246
  8
0
 10
165.6742392719891086
 20
19.4935983081206103
 30
0.0
 40
0.1358154474888717
 50
81.2884643039078441
 51
86.6587322270113845
  0
ARC
  5
3247
  8
0
 10
165.6853447942893922
 20
19.5660756243991507
 30
0.0
 40
0.0624922315167023
 50
71.9516757143821479
 51
81.2884643039094641
  0
ARC
  5
3248
  8
0
 10
165.6988223548787005
 20
19.6083139771695514
 30
0.0
 40
0.0181586240033218
 50
51.1412028887290404
 51
71.0939070380108831
  0
ARC
  5
3249
  8
0
 10
165.5947352115749993
 20
19.5985725523406984
 30
0.0
 40
0.0009281565954009
 50
141.0426627249476041
 51
220.6391220430624003
  0
ARC
  5
324A
  8
0
 10
165.5974404431042899
 20
19.6010782187752284
 30
0.0
 40
0.0046149884205211
 50
222.3709240277570132
 51
252.3425610120860085
  0
ARC
  5
324B
  8
0
 10
165.6045979549481046
 20
19.6199799581055601
 30
0.0
 40
0.0248210756526009
 50
249.8327541840845925
 51
260.519818496160326
  0
ARC
  5
324C
  8
0
 10
165.6132420847710023
 20
19.674329442726421
 30
0.0
 40
0.0798531676161162
 50
260.8252201358366733
 51
281.300015146005876
  0
ARC
  5
324D
  8
0
 10
165.6254402454555077
 20
19.6097390062464889
 30
0.0
 40
0.0141417235756609
 50
284.1152236136830993
 51
299.0754278613270003
  0
ARC
  5
324E
  8
0
 10
165.6313942071058989
 20
19.5990310443280791
 30
0.0
 40
0.001889780555024
 50
299.0754278613231918
 51
329.4880836223794063
  0
ARC
  5
324F
  8
0
 10
165.6321296314432914
 20
19.5985976402374611
 30
0.0
 40
0.0010361482795228
 50
329.4880836223792926
 51
56.5892896404681025
  0
ARC
  5
3250
  8
0
 10
165.6277289970988136
 20
19.5929019078890114
 30
0.0
 40
0.0082313268135523
 50
52.8478488659894907
 51
75.6728490673323648
  0
ARC
  5
3251
  8
0
 10
165.6135256560399114
 20
19.5280721738534417
 30
0.0
 40
0.0745943814233801
 50
77.4251922990836334
 51
102.7659736819953054
  0
ARC
  5
3252
  8
0
 10
165.6013798076876924
 20
19.5876771227265891
 30
0.0
 40
0.0138425462866437
 50
108.2597576882244965
 51
118.2722677679629015
  0
ARC
  5
3253
  8
0
 10
165.595952887276809
 20
19.5977677050513996
 30
0.0
 40
0.0023851767456153
 50
118.2722677679611962
 51
144.401425916901303
  0
ARC
  5
3254
  8
0
 10
165.5854310669413962
 20
19.6041834682135097
 30
0.0
 40
0.0084931626068441
 50
184.7323269816762092
 51
242.2719464895824046
  0
ARC
  5
3255
  8
0
 10
165.5971494287828136
 20
19.6264771297301017
 30
0.0
 40
0.033679018718204
 50
242.2719464895824046
 51
260.6361095257939837
  0
ARC
  5
3256
  8
0
 10
165.6151109881049024
 20
19.7354000943677015
 30
0.0
 40
0.1440729942726926
 50
260.6361095257939837
 51
276.3054297603280247
  0
ARC
  5
3257
  8
0
 10
165.6238058576061007
 20
19.6567113213589515
 30
0.0
 40
0.0649053003990806
 50
276.3054297603280247
 51
290.5063231263732177
  0
ARC
  5
3258
  8
0
 10
165.6433203483381931
 20
19.6045349994725591
 30
0.0
 40
0.0091990717156858
 50
290.5063231263698071
 51
0.0074975299047592
  0
LINE
  5
3259
  8
0
 10
165.5769668575472906
 20
19.6034827754139087
 30
0.0
 11
165.5764207718569025
 21
19.6157187320455293
 31
0.0
  0
LINE
  5
325A
  8
0
 10
165.652519419975107
 20
19.604536203231639
 30
0.0
 11
165.6530009715719984
 21
19.6106127365006699
 31
0.0
  0
ARC
  5
325B
  8
0
 10
165.5794134074762098
 20
19.6034265552253792
 30
0.0
 40
0.0024471957960725
 50
137.4353273409894882
 51
178.6836104653654047
  0
ARC
  5
325C
  8
0
 10
165.5821950680000043
 20
19.6008737423098793
 30
0.0
 40
0.0062227074551751
 50
117.6218900376198064
 51
137.4481544907272053
  0
ARC
  5
325D
  8
0
 10
165.5911731463978924
 20
19.5837162310929287
 30
0.0
 40
0.0255872648443564
 50
104.2941724996588988
 51
117.6218900376183001
  0
ARC
  5
325E
  8
0
 10
165.6051943601682979
 20
19.5286854335334183
 30
0.0
 40
0.0823761996435817
 50
97.5332861213213818
 51
104.2941724996588988
  0
ARC
  5
325F
  8
0
 10
165.6116843558718017
 20
19.4796093539148885
 30
0.0
 40
0.1318795493782607
 50
93.3495214186091715
 51
97.5332861213213818
  0
ARC
  5
3260
  8
0
 10
165.614231789870189
 20
19.4360834627524603
 30
0.0
 40
0.1754799234759721
 50
86.6587322270113845
 51
93.3495214186091715
  0
ARC
  5
3261
  8
0
 10
165.616543557544901
 20
19.4756805129651909
 30
0.0
 40
0.1358154474888717
 50
81.2884643039078441
 51
86.6587322270113845
  0
ARC
  5
3262
  8
0
 10
165.627649079845213
 20
19.5481578292437312
 30
0.0
 40
0.0624922315167023
 50
71.9516757143821479
 51
81.2884643039094641
  0
ARC
  5
3263
  8
0
 10
165.6411266404344929
 20
19.5903961820141284
 30
0.0
 40
0.0181586240033218
 50
51.1412028887290404
 51
71.0939070380108831
  0
ARC
  5
3264
  8
0
 10
165.6155321477390032
 20
19.5293265819896789
 30
0.0
 40
0.1349662992869668
 50
82.6502613275485345
 51
91.161670930367265
  0
ARC
  5
3265
  8
0
 10
165.3928359499394105
 20
19.6773081376681311
 30
0.0
 40
0.0580435150574554
 50
255.5827673308291992
 51
262.422798348238473
  0
ARC
  5
3266
  8
0
 10
165.5124994964465941
 20
19.5648508145856788
 30
0.0
 40
0.0885543032534461
 50
90.4133308975488603
 51
101.2547277966802
  0
ARC
  5
3268
  8
0
 10
165.4756885851799098
 20
27.1664007252590913
 30
0.0
 40
7.579572483429291
 50
268.2479627298222908
 51
268.5554057865359141
  0
ARC
  5
3269
  8
0
 10
165.8848880932548013
 20
-28.0437431294667014
 30
0.0
 40
47.6351272020947931
 50
90.5993959880791522
 51
90.6328403378993528
  0
ARC
  5
326A
  8
0
 10
165.5821270466003057
 20
33.4508141912543309
 30
0.0
 40
13.8626026282168802
 50
269.5042741327657154
 51
269.6207238970885101
  0
ENDSEC
  0
EOF
