  0
SECTION
  2
HEADER
  9
$ACADVER
  1
AC1009
  9
$INSBASE
 10
31.8153524574031117
 20
-69.7956056412591153
 30
0.0
  9
$EXTMIN
 10
19.7170006289789796
 20
-75.894662032826659
 30
-0.0015258207003583
  9
$EXTMAX
 10
43.9151071278337923
 20
-63.6959132302215494
 30
0.0000000349246037
  9
$LIMMIN
 10
0.0
 20
0.0
  9
$LIMMAX
 10
11.6929133858000007
 20
8.2677165353999982
  9
$ORTHOMODE
 70
     0
  9
$REGENMODE
 70
     1
  9
$FILLMODE
 70
     1
  9
$QTEXTMODE
 70
     0
  9
$MIRRTEXT
 70
     0
  9
$DRAGMODE
 70
     2
  9
$LTSCALE
 40
0.6431102362
  9
$OSMODE
 70
  4095
  9
$ATTMODE
 70
     1
  9
$TEXTSIZE
 40
0.2
  9
$TRACEWID
 40
0.05
  9
$TEXTSTYLE
  7
STANDARD
  9
$CLAYER
  8
0
  9
$CELTYPE
  6
BYLAYER
  9
$CECOLOR
 62
   256
  9
$DIMSCALE
 40
1.0
  9
$DIMASZ
 40
0.1875
  9
$DIMEXO
 40
0.0625
  9
$DIMDLI
 40
0.4443307087
  9
$DIMRND
 40
0.0
  9
$DIMDLE
 40
0.0
  9
$DIMEXE
 40
0.125
  9
$DIMTP
 40
0.01
  9
$DIMTM
 40
0.01
  9
$DIMTXT
 40
1.0
  9
$DIMCEN
 40
0.1052362205
  9
$DIMTSZ
 40
0.0
  9
$DIMTOL
 70
     1
  9
$DIMLIM
 70
     0
  9
$DIMTIH
 70
     1
  9
$DIMTOH
 70
     1
  9
$DIMSE1
 70
     0
  9
$DIMSE2
 70
     0
  9
$DIMTAD
 70
     0
  9
$DIMZIN
 70
     0
  9
$DIMBLK
  1

  9
$DIMASO
 70
     1
  9
$DIMSHO
 70
     1
  9
$DIMPOST
  1
\X
  9
$DIMAPOST
  1

  9
$DIMALT
 70
     1
  9
$DIMALTD
 70
     2
  9
$DIMALTF
 40
25.3999999999999986
  9
$DIMLFAC
 40
1.0
  9
$DIMTOFL
 70
     0
  9
$DIMTVP
 40
0.0
  9
$DIMTIX
 70
     0
  9
$DIMSOXD
 70
     0
  9
$DIMSAH
 70
     0
  9
$DIMBLK1
  1

  9
$DIMBLK2
  1

  9
$DIMSTYLE
  2
STANDARD
  9
$DIMCLRD
 70
     0
  9
$DIMCLRE
 70
     0
  9
$DIMCLRT
 70
     0
  9
$DIMTFAC
 40
1.0
  9
$DIMGAP
 40
0.09
  9
$LUNITS
 70
     2
  9
$LUPREC
 70
     4
  9
$SKETCHINC
 40
0.1
  9
$FILLETRAD
 40
0.0
  9
$AUNITS
 70
     0
  9
$AUPREC
 70
     0
  9
$MENU
  1
.
  9
$ELEVATION
 40
0.0
  9
$PELEVATION
 40
0.0
  9
$THICKNESS
 40
0.0
  9
$LIMCHECK
 70
     0
  9
$BLIPMODE
 70
     0
  9
$CHAMFERA
 40
0.0
  9
$CHAMFERB
 40
0.0
  9
$SKPOLY
 70
     0
  9
$TDCREATE
 40
2458172.4620254631154239
  9
$TDUPDATE
 40
2459111.3366666669026017
  9
$TDINDWG
 40
0.1593693634
  9
$TDUSRTIMER
 40
0.1593693634
  9
$USRTIMER
 70
     1
  9
$ANGBASE
 50
0.0
  9
$ANGDIR
 70
     0
  9
$PDMODE
 70
     0
  9
$PDSIZE
 40
0.3125
  9
$PLINEWID
 40
0.0
  9
$COORDS
 70
     1
  9
$SPLFRAME
 70
     0
  9
$SPLINETYPE
 70
     6
  9
$SPLINESEGS
 70
     8
  9
$ATTDIA
 70
     1
  9
$ATTREQ
 70
     1
  9
$HANDLING
 70
     1
  9
$HANDSEED
  5
97CD
  9
$SURFTAB1
 70
     6
  9
$SURFTAB2
 70
     6
  9
$SURFTYPE
 70
     6
  9
$SURFU
 70
     6
  9
$SURFV
 70
     6
  9
$UCSNAME
  2

  9
$UCSORG
 10
0.0
 20
0.0
 30
0.0
  9
$UCSXDIR
 10
1.0
 20
0.0
 30
0.0
  9
$UCSYDIR
 10
0.0
 20
1.0
 30
0.0
  9
$PUCSNAME
  2

  9
$PUCSORG
 10
0.0
 20
0.0
 30
0.0
  9
$PUCSXDIR
 10
1.0
 20
0.0
 30
0.0
  9
$PUCSYDIR
 10
0.0
 20
1.0
 30
0.0
  9
$USERI1
 70
     0
  9
$USERI2
 70
     0
  9
$USERI3
 70
     0
  9
$USERI4
 70
     0
  9
$USERI5
 70
     0
  9
$USERR1
 40
0.0
  9
$USERR2
 40
0.0
  9
$USERR3
 40
0.0
  9
$USERR4
 40
0.0
  9
$USERR5
 40
0.0
  9
$WORLDVIEW
 70
     1
  9
$SHADEDGE
 70
     3
  9
$SHADEDIF
 70
    70
  9
$TILEMODE
 70
     1
  9
$MAXACTVP
 70
    64
  9
$PLIMCHECK
 70
     0
  9
$PEXTMIN
 10
1.0000000000000000E+20
 20
1.0000000000000000E+20
 30
1.0000000000000000E+20
  9
$PEXTMAX
 10
-1.0000000000000000E+20
 20
-1.0000000000000000E+20
 30
-1.0000000000000000E+20
  9
$PLIMMIN
 10
0.0
 20
0.0
  9
$PLIMMAX
 10
12.0
 20
9.0
  9
$UNITMODE
 70
     0
  9
$VISRETAIN
 70
     1
  9
$PLINEGEN
 70
     0
  9
$PSLTSCALE
 70
     1
  0
ENDSEC
  0
SECTION
  2
TABLES
  0
TABLE
  2
VPORT
 70
     1
  0
VPORT
  2
*ACTIVE
 70
     0
 10
0.0
 20
0.0
 11
1.0
 21
1.0
 12
-92.7951047216662488
 22
-75.1075618019019231
 13
0.0
 23
0.0
 14
1.0
 24
1.0
 15
0.0
 25
0.0
 16
0.0
 26
0.0
 36
30.6214257250603907
 17
124.6111586000725993
 27
5.3122741703778242
 37
0.0
 40
12.3002640492287298
 41
2.6486111111111108
 42
50.0
 43
0.0
 44
0.0
 50
0.0
 51
0.0
 71
     0
 72
   100
 73
     1
 74
     1
 75
     0
 76
     0
 77
     0
 78
     0
  0
ENDTAB
  0
TABLE
  2
LTYPE
 70
     2
  0
LTYPE
  2
CONTINUOUS
 70
     0
  3
Solid line
 72
    65
 73
     0
 40
0.0
  0
LTYPE
  2
PHANTOM2
 70
     0
  3
___ _ _ ___ _ _ ___ _ _ ___ _ _
 72
    65
 73
     6
 40
1.25
 49
0.625
 49
-0.125
 49
0.125
 49
-0.125
 49
0.125
 49
-0.125
  0
ENDTAB
  0
TABLE
  2
LAYER
 70
     2
  0
LAYER
  2
0
 70
     0
 62
   255
  6
CONTINUOUS
  0
LAYER
  2
DEFPOINTS
 70
     0
 62
     7
  6
CONTINUOUS
  0
ENDTAB
  0
TABLE
  2
STYLE
 70
     1
  0
STYLE
  2
STANDARD
 70
     0
 40
0.0
 41
0.8
 50
0.0
 71
     0
 42
0.2
  3
txt
  4

  0
ENDTAB
  0
TABLE
  2
VIEW
 70
     0
  0
ENDTAB
  0
TABLE
  2
UCS
 70
     0
  0
ENDTAB
  0
TABLE
  2
APPID
 70
     9
  0
APPID
  2
ACAD
 70
     0
  0
APPID
  2
ACAD_MLEADERVER
 70
     0
  0
APPID
  2
ACAD_EXEMPT_FROM_CAD_STANDARDS
 70
     0
  0
APPID
  2
ACAD_DSTYLE_DIMJAG
 70
     0
  0
APPID
  2
ACAD_DSTYLE_DIMTALN
 70
     0
  0
APPID
  2
ACAD_NAV_VCDISPLAY
 70
     0
  0
APPID
  2
ACAECLAYERSTANDARD
 70
     0
  0
APPID
  2
ACCMTRANSPARENCY
 70
     0
  0
APPID
  2
ACDBATTR
 70
     0
  0
ENDTAB
  0
TABLE
  2
DIMSTYLE
 70
     1
  0
DIMSTYLE
  2
STANDARD
 70
     0
  3

  4

  5

  6

  7

 40
1.0
 41
0.1875
 42
0.0625
 43
0.38
 44
0.125
 45
0.0
 46
0.0
 47
0.01
 48
0.01
140
0.15625
141
0.09
142
0.0
143
25.3999999999999986
144
1.0
145
0.0
146
1.0
147
0.09
 71
     1
 72
     0
 73
     1
 74
     1
 75
     0
 76
     0
 77
     0
 78
     4
170
     0
171
     2
172
     0
173
     0
174
     0
175
     0
176
     0
177
     0
178
     0
  0
ENDTAB
  0
ENDSEC
  0
SECTION
  2
BLOCKS
  0
BLOCK
  8
0
  2
$MODEL_SPACE
 70
     0
 10
0.0
 20
0.0
 30
0.0
  3
$MODEL_SPACE
  1

  0
ENDBLK
  5
21
  8
0
  0
BLOCK
 67
     1
  8
0
  2
$PAPER_SPACE
 70
     0
 10
0.0
 20
0.0
 30
0.0
  3
$PAPER_SPACE
  1

  0
ENDBLK
  5
1D
 67
     1
  8
0
  0
BLOCK
  8
0
  2
_FILLED
 70
     0
 10
0.0
 20
0.0
 30
0.0
  3
_FILLED
  1

  0
SOLID
  5
94F4
  8
0
  6
BYBLOCK
 62
     0
 10
0.0
 20
0.0
 30
0.0
 11
-1.0
 21
0.1666666667
 31
0.0
 12
-1.0
 22
-0.1666666667
 32
0.0
 13
-1.0
 23
-0.1666666667
 33
0.0
  0
ENDBLK
  5
94F5
  8
0
  6
BYBLOCK
 62
     0
  0
ENDSEC
  0
SECTION
  2
ENTITIES
  0
ATTDEF
  5
897C
  8
DEFPOINTS
 10
31.8159939242639389
 20
-69.7909876481589322
 30
0.0
 40
0.001
  1
K-1044T
  3

  2
MODELNUMBER
 70
     0
1001
ACDBATTR
1070
     0
1070
     1
  0
ATTDEF
  5
897D
  8
DEFPOINTS
 10
31.8159939242639389
 20
-69.7926543148255831
 30
0.0
 40
0.001
  1
PETALINE
  3

  2
TRADENAME
 70
     0
1001
ACDBATTR
1070
     0
1070
     1
  0
ATTDEF
  5
897E
  8
DEFPOINTS
 10
31.8159939242639389
 20
-69.7943209814922625
 30
0.0
 40
0.001
  1
BATHROOM SINK
  3

  2
PRODUCT
 70
     0
1001
ACDBATTR
1070
     0
1070
     1
  0
ARC
  5
951D
  8
0
 10
27.4704375884700411
 20
-69.8025875517159733
 30
0.0
 40
7.752695764318819
 50
165.9855795749913909
 51
179.9487184762930099
  0
ARC
  5
951E
  8
0
 10
24.1033465417839494
 20
-68.9621772857497746
 30
0.0
 40
4.2823079571976832
 50
136.2600667615548957
 51
165.9855795749913909
  0
ARC
  5
951F
  8
0
 10
24.1373751043382292
 20
-68.9947410918797601
 30
0.0
 40
4.3294072622794122
 50
115.7121886777919997
 51
136.2600667615548957
  0
ARC
  5
9520
  8
0
 10
26.5188825976162086
 20
-73.9404554010300643
 30
0.0
 40
9.8186392639599092
 50
108.5654334934246066
 51
115.7121886777919997
  0
ARC
  5
9521
  8
0
 10
27.7438417488573812
 20
-77.5876250490707804
 30
0.0
 40
13.6660242672834507
 50
98.9246765839424
 51
108.5654334934246066
  0
ARC
  5
9522
  8
0
 10
30.1981254507622694
 20
-93.2163121814051721
 30
0.0
 40
29.4862445555673816
 50
93.1895874216669569
 51
98.9246765839421727
  0
ARC
  5
9523
  8
0
 10
31.3089202431717695
 20
-113.1493276745314063
 30
0.0
 40
49.4501863437027396
 50
89.893064690322646
 51
93.1895874216669569
  0
ARC
  5
9524
  8
0
 10
31.2108731522314109
 20
-165.6827518408298943
 30
0.0
 40
101.9837020062610975
 50
88.0337345495310757
 51
89.893064690322646
  0
ARC
  5
9525
  8
0
 10
33.8032575538521129
 20
-90.1719041532189038
 30
0.0
 40
26.4283674799197783
 50
82.5201081491755843
 51
88.0337345495308767
  0
ARC
  5
9526
  8
0
 10
34.9769811375300534
 20
-81.2323458124708679
 30
0.0
 40
17.4120860746774007
 50
76.3454121189094366
 51
82.5201081491755843
  0
ARC
  5
9527
  8
0
 10
35.4907208525907123
 20
-79.1176179227064438
 30
0.0
 40
15.2358502091108594
 50
69.6346072823797613
 51
76.3454121189094366
  0
ARC
  5
9528
  8
0
 10
38.9533669020176418
 20
-69.7896018318716926
 30
0.0
 40
5.2858852918619599
 50
51.5714341259905282
 51
69.6346072823797613
  0
ARC
  5
9529
  8
0
 10
39.7556984400975608
 20
-68.778347497905699
 30
0.0
 40
3.9950052722773708
 50
29.6133076396151083
 51
51.5714341259905282
  0
ARC
  5
952A
  8
0
 10
39.0417789387067629
 20
-69.1841295774211176
 30
0.0
 40
4.8161874387434649
 50
9.9377280777291332
 51
29.6133076396151083
  0
ARC
  5
952B
  8
0
 10
36.13853706246028
 20
-69.7538526768926772
 30
0.0
 40
7.7744229229252486
 50
359.6919462575589819
 51
10.3809510483637197
  0
ARC
  5
952C
  8
0
 10
27.4704375815644717
 20
-69.7887098581904439
 30
0.0
 40
7.7526957573081301
 50
180.0512806558338923
 51
194.0144204281689042
  0
ARC
  5
952D
  8
0
 10
24.1033465417839494
 20
-70.6291201228738146
 30
0.0
 40
4.2823079571976832
 50
194.0144204250084954
 51
223.7399332384449906
  0
ARC
  5
952E
  8
0
 10
24.1373751043382292
 20
-70.596556316743829
 30
0.0
 40
4.3294072622794122
 50
223.7399332384449906
 51
244.2878113222080003
  0
ARC
  5
952F
  8
0
 10
26.5188825976162086
 20
-65.6508420075935248
 30
0.0
 40
9.8186392639599092
 50
244.2878113222080003
 51
251.4345665065754076
  0
ARC
  5
9530
  8
0
 10
27.7438417488573812
 20
-62.0036723595528088
 30
0.0
 40
13.6660242672834507
 50
251.4345665065754076
 51
261.0753234160575857
  0
ARC
  5
9531
  8
0
 10
30.1981254507622694
 20
-46.3749852272184171
 30
0.0
 40
29.4862445555673816
 50
261.0753234160578131
 51
266.8104125783330005
  0
ARC
  5
9532
  8
0
 10
31.3089202431717695
 20
-26.4419697340921402
 30
0.0
 40
49.4501863437027396
 50
266.8104125783330005
 51
270.1069353096772829
  0
ARC
  5
9533
  8
0
 10
31.2108731522314109
 20
26.0914544322063087
 30
0.0
 40
101.9837020062610975
 50
270.1069353096772829
 51
271.9662654504689954
  0
ARC
  5
9534
  8
0
 10
33.8032575538521129
 20
-49.4193932554046711
 30
0.0
 40
26.4283674799197783
 50
271.9662654504689954
 51
277.4798918508244014
  0
ARC
  5
9535
  8
0
 10
34.9769811375300534
 20
-58.358951596152707
 30
0.0
 40
17.4120860746774007
 50
277.4798918508244014
 51
283.6545878810904924
  0
ARC
  5
9536
  8
0
 10
35.4907208525907123
 20
-60.4736794859171596
 30
0.0
 40
15.2358502091108594
 50
283.6545878810904924
 51
290.3653927176201819
  0
ARC
  5
9537
  8
0
 10
38.9533669020176418
 20
-69.8016955767519107
 30
0.0
 40
5.2858852918619599
 50
290.3653927176201819
 51
308.4285658740093936
  0
ARC
  5
9538
  8
0
 10
39.7556984400975608
 20
-70.8129499107179043
 30
0.0
 40
3.9950052722773708
 50
308.4285658740093936
 51
330.3866923603849273
  0
ARC
  5
9539
  8
0
 10
39.0417789387067629
 20
-70.4071678312024858
 30
0.0
 40
4.8161874387434649
 50
330.3866923603849273
 51
350.0622719222707815
  0
ARC
  5
953A
  8
0
 10
36.1385411856808716
 20
-69.8374452898497964
 30
0.0
 40
7.7744187666272468
 50
349.6190475219822815
 51
0.3080084811532057
  0
CIRCLE
  5
953B
  8
0
 10
38.282284228320691
 20
-69.7941895600341127
 30
0.0
 40
1.090509029727021
  0
CIRCLE
  5
953C
  8
0
 10
38.2899369410206987
 20
-69.7956490458341108
 30
0.0
 40
0.8463713868744903
  0
ENDSEC
  0
EOF
