  0
SECTION
  2
HEADER
  9
$ACADVER
  1
AC1009
  9
$INSBASE
 10
1643.9327269114610317
 20
135.7631517684255016
 30
0.0
  9
$EXTMIN
 10
1636.7421842602170727
 20
135.7595289466135
 30
-0.0015258207003583
  9
$EXTMAX
 10
1645.222324096569082
 20
143.8744098814682104
 30
0.0000000349246037
  9
$LIMMIN
 10
0.0
 20
0.0
  9
$LIMMAX
 10
11.6929133858000007
 20
8.2677165353999982
  9
$ORTHOMODE
 70
     0
  9
$REGENMODE
 70
     1
  9
$FILLMODE
 70
     1
  9
$QTEXTMODE
 70
     0
  9
$MIRRTEXT
 70
     0
  9
$DRAGMODE
 70
     2
  9
$LTSCALE
 40
0.6431102362
  9
$OSMODE
 70
  4095
  9
$ATTMODE
 70
     1
  9
$TEXTSIZE
 40
0.2
  9
$TRACEWID
 40
0.05
  9
$TEXTSTYLE
  7
STANDARD
  9
$CLAYER
  8
0
  9
$CELTYPE
  6
BYLAYER
  9
$CECOLOR
 62
   256
  9
$DIMSCALE
 40
1.0
  9
$DIMASZ
 40
0.1875
  9
$DIMEXO
 40
0.0625
  9
$DIMDLI
 40
0.4443307087
  9
$DIMRND
 40
0.0
  9
$DIMDLE
 40
0.0
  9
$DIMEXE
 40
0.125
  9
$DIMTP
 40
0.01
  9
$DIMTM
 40
0.01
  9
$DIMTXT
 40
2.0
  9
$DIMCEN
 40
0.1052362205
  9
$DIMTSZ
 40
0.0
  9
$DIMTOL
 70
     1
  9
$DIMLIM
 70
     0
  9
$DIMTIH
 70
     1
  9
$DIMTOH
 70
     1
  9
$DIMSE1
 70
     0
  9
$DIMSE2
 70
     0
  9
$DIMTAD
 70
     0
  9
$DIMZIN
 70
     0
  9
$DIMBLK
  1

  9
$DIMASO
 70
     1
  9
$DIMSHO
 70
     1
  9
$DIMPOST
  1
\X
  9
$DIMAPOST
  1

  9
$DIMALT
 70
     1
  9
$DIMALTD
 70
     2
  9
$DIMALTF
 40
25.3999999999999986
  9
$DIMLFAC
 40
1.0
  9
$DIMTOFL
 70
     0
  9
$DIMTVP
 40
0.0
  9
$DIMTIX
 70
     0
  9
$DIMSOXD
 70
     0
  9
$DIMSAH
 70
     0
  9
$DIMBLK1
  1

  9
$DIMBLK2
  1

  9
$DIMSTYLE
  2
STANDARD
  9
$DIMCLRD
 70
     0
  9
$DIMCLRE
 70
     0
  9
$DIMCLRT
 70
     0
  9
$DIMTFAC
 40
1.0
  9
$DIMGAP
 40
0.09
  9
$LUNITS
 70
     2
  9
$LUPREC
 70
     4
  9
$SKETCHINC
 40
0.1
  9
$FILLETRAD
 40
0.0
  9
$AUNITS
 70
     0
  9
$AUPREC
 70
     0
  9
$MENU
  1
.
  9
$ELEVATION
 40
0.0
  9
$PELEVATION
 40
0.0
  9
$THICKNESS
 40
0.0
  9
$LIMCHECK
 70
     0
  9
$BLIPMODE
 70
     0
  9
$CHAMFERA
 40
0.0
  9
$CHAMFERB
 40
0.0
  9
$SKPOLY
 70
     0
  9
$TDCREATE
 40
2458060.468368056230247
  9
$TDUPDATE
 40
2460475.7365393522195518
  9
$TDINDWG
 40
0.3001307639
  9
$TDUSRTIMER
 40
0.3001307639
  9
$USRTIMER
 70
     1
  9
$ANGBASE
 50
0.0
  9
$ANGDIR
 70
     0
  9
$PDMODE
 70
     0
  9
$PDSIZE
 40
0.3125
  9
$PLINEWID
 40
0.0
  9
$COORDS
 70
     1
  9
$SPLFRAME
 70
     0
  9
$SPLINETYPE
 70
     6
  9
$SPLINESEGS
 70
     8
  9
$ATTDIA
 70
     1
  9
$ATTREQ
 70
     1
  9
$HANDLING
 70
     1
  9
$HANDSEED
  5
6741
  9
$SURFTAB1
 70
     6
  9
$SURFTAB2
 70
     6
  9
$SURFTYPE
 70
     6
  9
$SURFU
 70
     6
  9
$SURFV
 70
     6
  9
$UCSNAME
  2

  9
$UCSORG
 10
0.0
 20
0.0
 30
0.0
  9
$UCSXDIR
 10
1.0
 20
0.0
 30
0.0
  9
$UCSYDIR
 10
0.0
 20
1.0
 30
0.0
  9
$PUCSNAME
  2

  9
$PUCSORG
 10
0.0
 20
0.0
 30
0.0
  9
$PUCSXDIR
 10
1.0
 20
0.0
 30
0.0
  9
$PUCSYDIR
 10
0.0
 20
1.0
 30
0.0
  9
$USERI1
 70
     0
  9
$USERI2
 70
     0
  9
$USERI3
 70
     0
  9
$USERI4
 70
     0
  9
$USERI5
 70
     0
  9
$USERR1
 40
0.0
  9
$USERR2
 40
0.0
  9
$USERR3
 40
0.0
  9
$USERR4
 40
0.0
  9
$USERR5
 40
0.0
  9
$WORLDVIEW
 70
     1
  9
$SHADEDGE
 70
     3
  9
$SHADEDIF
 70
    70
  9
$TILEMODE
 70
     1
  9
$MAXACTVP
 70
    64
  9
$PLIMCHECK
 70
     0
  9
$PEXTMIN
 10
1.0000000000000000E+20
 20
1.0000000000000000E+20
 30
1.0000000000000000E+20
  9
$PEXTMAX
 10
-1.0000000000000000E+20
 20
-1.0000000000000000E+20
 30
-1.0000000000000000E+20
  9
$PLIMMIN
 10
0.0
 20
0.0
  9
$PLIMMAX
 10
12.0
 20
9.0
  9
$UNITMODE
 70
     0
  9
$VISRETAIN
 70
     1
  9
$PLINEGEN
 70
     0
  9
$PSLTSCALE
 70
     1
  0
ENDSEC
  0
SECTION
  2
TABLES
  0
TABLE
  2
VPORT
 70
     1
  0
VPORT
  2
*ACTIVE
 70
     0
 10
0.0
 20
0.0
 11
1.0
 21
1.0
 12
30.1361362130983217
 22
-0.1073193021892678
 13
0.0
 23
0.0
 14
1.0
 24
1.0
 15
0.0
 25
0.0
 16
0.0
 26
0.0
 36
24.9815421804010107
 17
1610.8461179652949795
 27
139.9242887162301088
 37
0.0
 40
8.1702096685014176
 41
2.1604095563139931
 42
50.0
 43
0.0
 44
0.0
 50
0.0
 51
0.0
 71
     0
 72
   100
 73
     1
 74
     1
 75
     0
 76
     0
 77
     0
 78
     0
  0
ENDTAB
  0
TABLE
  2
LTYPE
 70
     2
  0
LTYPE
  2
CONTINUOUS
 70
     0
  3
Solid line
 72
    65
 73
     0
 40
0.0
  0
LTYPE
  2
PHANTOM2
 70
     0
  3
___ _ _ ___ _ _ ___ _ _ ___ _ _
 72
    65
 73
     6
 40
1.25
 49
0.625
 49
-0.125
 49
0.125
 49
-0.125
 49
0.125
 49
-0.125
  0
ENDTAB
  0
TABLE
  2
LAYER
 70
     2
  0
LAYER
  2
0
 70
     0
 62
   255
  6
CONTINUOUS
  0
LAYER
  2
DEFPOINTS
 70
     0
 62
     7
  6
CONTINUOUS
  0
ENDTAB
  0
TABLE
  2
STYLE
 70
     1
  0
STYLE
  2
STANDARD
 70
     0
 40
0.0
 41
0.8
 50
0.0
 71
     0
 42
0.2
  3
txt
  4

  0
ENDTAB
  0
TABLE
  2
VIEW
 70
     0
  0
ENDTAB
  0
TABLE
  2
UCS
 70
     0
  0
ENDTAB
  0
TABLE
  2
APPID
 70
     9
  0
APPID
  2
ACAD
 70
     0
  0
APPID
  2
ACAD_MLEADERVER
 70
     0
  0
APPID
  2
ACAD_EXEMPT_FROM_CAD_STANDARDS
 70
     0
  0
APPID
  2
ACAD_NAV_VCDISPLAY
 70
     0
  0
APPID
  2
ACAECLAYERSTANDARD
 70
     0
  0
APPID
  2
ACCMTRANSPARENCY
 70
     0
  0
APPID
  2
ACAD_DSTYLE_DIMJAG
 70
     0
  0
APPID
  2
ACAD_DSTYLE_DIMTALN
 70
     0
  0
APPID
  2
ACDBATTR
 70
     0
  0
ENDTAB
  0
TABLE
  2
DIMSTYLE
 70
     1
  0
DIMSTYLE
  2
STANDARD
 70
     0
  3

  4

  5

  6

  7

 40
1.0
 41
0.1875
 42
0.0625
 43
0.38
 44
0.125
 45
0.0
 46
0.0
 47
0.01
 48
0.01
140
0.15625
141
0.09
142
0.0
143
25.3999999999999986
144
1.0
145
0.0
146
1.0
147
0.09
 71
     1
 72
     0
 73
     1
 74
     1
 75
     0
 76
     0
 77
     0
 78
     4
170
     0
171
     2
172
     0
173
     0
174
     0
175
     0
176
     0
177
     0
178
     0
  0
ENDTAB
  0
ENDSEC
  0
SECTION
  2
BLOCKS
  0
BLOCK
  8
0
  2
$MODEL_SPACE
 70
     0
 10
0.0
 20
0.0
 30
0.0
  3
$MODEL_SPACE
  1

  0
ENDBLK
  5
21
  8
0
  0
BLOCK
 67
     1
  8
0
  2
$PAPER_SPACE
 70
     0
 10
0.0
 20
0.0
 30
0.0
  3
$PAPER_SPACE
  1

  0
ENDBLK
  5
1D
 67
     1
  8
0
  0
ENDSEC
  0
SECTION
  2
ENTITIES
  0
ATTDEF
  5
3930
  8
DEFPOINTS
 10
1643.9293080422910407
 20
135.7671516393961895
 30
0.0
 40
0.001
  1
K-104M36-SANA
  3

  2
MODELNUMBER
 70
     0
1001
ACDBATTR
1070
     0
1070
     1
  0
ATTDEF
  5
3931
  8
DEFPOINTS
 10
1643.9293080422910407
 20
135.7654849727294959
 30
0.0
 40
0.001
  1
COMPONENTS
  3

  2
TRADENAME
 70
     0
1001
ACDBATTR
1070
     0
1070
     1
  0
ATTDEF
  5
3932
  8
DEFPOINTS
 10
1643.9293080422910407
 20
135.7638183060628023
 30
0.0
 40
0.001
  1
BATHROOM SINK FAUCET
  3

  2
PRODUCT
 70
     0
1001
ACDBATTR
1070
     0
1070
     1
  0
LINE
  5
65D2
  8
0
 10
1642.7713245492600436
 20
135.7631517684255016
 30
0.0
 11
1645.0941292736611103
 21
135.7631517684255016
 31
0.0
  0
LINE
  5
65D3
  8
0
 10
1643.3697347854599684
 20
136.0623643668255056
 30
0.0
 11
1644.4957190374609581
 21
136.0623643668255056
 31
0.0
  0
LINE
  5
65D4
  8
0
 10
1642.7516245492608959
 20
135.9049380198190136
 30
0.0
 11
1642.7516245492608959
 21
135.7828517684255019
 31
0.0
  0
LINE
  5
65D5
  8
0
 10
1643.3697347854599684
 20
136.0623643668255056
 30
0.0
 11
1642.7669216181609499
 21
135.9241396915622886
 31
0.0
  0
ARC
  5
65D6
  8
0
 10
1642.7713245492600436
 20
135.9049380198190136
 30
0.0
 40
0.0197
 50
102.9146320386133056
 51
180.0000000000129887
  0
ARC
  5
65D7
  8
0
 10
1642.7713245492600436
 20
135.7828517684255019
 30
0.0
 40
0.0197
 50
179.9999999999951115
 51
270.0000000000130171
  0
LINE
  5
65D8
  8
0
 10
1643.3717032893600845
 20
136.0820643668255059
 30
0.0
 11
1643.3717032893600845
 21
143.1942966503247021
 31
0.0
  0
ARC
  5
65D9
  8
0
 10
1643.3914032893610511
 20
136.0820643668255059
 30
0.0
 40
0.0197
 50
179.9999999999951115
 51
270.0000000000130171
  0
LINE
  5
65DA
  8
0
 10
1642.7669216181609499
 20
135.9241396915622886
 30
0.0
 11
1645.0985322047599766
 21
135.9241396915622886
 31
0.0
  0
LINE
  5
65DB
  8
0
 10
1638.1025424705510432
 20
143.2040966503207073
 30
0.0
 11
1644.4839505335598915
 21
143.2040966503255106
 31
0.0
  0
ARC
  5
65DC
  8
0
 10
1643.3815032893598982
 20
143.1942966503247021
 30
0.0
 40
0.0098
 50
90.0000000000521254
 51
180.0
  0
LINE
  5
65DD
  8
0
 10
1636.9716430333169228
 20
143.8733879889254865
 30
0.0
 11
1644.4740505335601028
 21
143.8733879889254865
 31
0.0
  0
LINE
  5
65DE
  8
0
 10
1636.7533872964479542
 20
142.7293459751784894
 30
0.0
 11
1636.9551127705840372
 21
143.8733879889254865
 31
0.0
  0
LINE
  5
65DF
  8
0
 10
1636.7693671400820676
 20
142.7065243933433862
 30
0.0
 11
1637.8937244781270692
 21
142.5082698586871004
 31
0.0
  0
LINE
  5
65E0
  8
0
 10
1638.024939619612951
 20
143.1389801267170867
 30
0.0
 11
1637.9165460599610924
 21
142.5242497023222938
 31
0.0
  0
ARC
  5
65E1
  8
0
 10
1638.1025424705510432
 20
143.1252966503205926
 30
0.0
 40
0.0788
 50
90.0000000000390656
 51
170.0000000027820022
  0
ARC
  5
65E2
  8
0
 10
1636.7727880091820225
 20
142.7259251060777103
 30
0.0
 40
0.0197
 50
169.9999999976593017
 51
259.999999999928491
  0
ARC
  5
65E3
  8
0
 10
1637.8971453472270241
 20
142.5276705714213961
 30
0.0
 40
0.0197
 50
259.999999999928491
 51
350.0000000027803821
  0
ARC
  5
65E4
  8
0
 10
1636.9716430333169228
 20
143.8536879889254863
 30
0.0
 40
0.0197
 50
90.0
 51
169.9999999976625134
  0
LINE
  5
65E5
  8
0
 10
1638.4097287185620644
 20
143.1253564928254889
 30
0.0
 11
1639.0685542547610112
 21
143.1253564928254889
 31
0.0
  0
ARC
  5
65E6
  8
0
 10
1638.18469598696106
 20
143.2039192618256038
 30
0.0
 40
0.0393700787000029
 50
179.741843378714691
 51
235.974448145105697
  0
ARC
  5
65E7
  8
0
 10
1638.2717853058140918
 20
143.332910363129912
 30
0.0
 40
0.1950082927547814
 50
235.974448145105697
 51
258.0671054825991177
  0
ARC
  5
65E8
  8
0
 10
1638.3572208807570405
 20
143.7371807831191859
 30
0.0
 40
0.6082077723576877
 50
258.0671054825991177
 51
265.5504101002172774
  0
ARC
  5
65E9
  8
0
 10
1638.4780736448039988
 20
145.2902289161665976
 30
0.0
 40
2.165950977812221
 50
265.5504100980090243
 51
268.1917753558990967
  0
ARC
  5
65EA
  8
0
 10
1639.326428270461065
 20
143.2039192618256038
 30
0.0
 40
0.0393700786999958
 50
304.0255518542962818
 51
0.2581566226418266
  0
ARC
  5
65EB
  8
0
 10
1639.2343646089079812
 20
143.3402780398058098
 30
0.0
 40
0.2038979915620826
 50
277.1655299939093879
 51
304.0255518542962818
  0
ARC
  5
65EC
  8
0
 10
1639.0516939702210948
 20
144.8367616145588954
 30
0.0
 40
1.711488171121833
 50
270.5644437323142029
 51
276.9840192746597154
  0
LINE
  5
65ED
  8
0
 10
1645.1138292736600306
 20
135.9049380198190136
 30
0.0
 11
1645.1138292736600306
 21
135.7828517684255019
 31
0.0
  0
LINE
  5
65EE
  8
0
 10
1644.4957190374609581
 20
136.0623643668255056
 30
0.0
 11
1645.0985322047599766
 21
135.9241396915622886
 31
0.0
  0
ARC
  5
65EF
  8
0
 10
1645.0941292736611103
 20
135.9049380198190136
 30
0.0
 40
0.0197
 50
359.9999999999869829
 51
77.0853679613732794
  0
ARC
  5
65F0
  8
0
 10
1645.0941292736611103
 20
135.7828517684255019
 30
0.0
 40
0.0197
 50
269.9999999999739089
 51
0.0000000000048853
  0
LINE
  5
65F1
  8
0
 10
1644.4937505335599326
 20
136.0820643668255059
 30
0.0
 11
1644.4937505335599326
 21
143.1942966503254979
 31
0.0
  0
ARC
  5
65F2
  8
0
 10
1644.4839505335598915
 20
143.1942966503254979
 30
0.0
 40
0.0098
 50
0.0
 51
90.0000000000521254
  0
LINE
  5
65F3
  8
0
 10
1644.4937505335599326
 20
143.2237966503255109
 30
0.0
 11
1644.4937505335599326
 21
143.8536879889254863
 31
0.0
  0
ARC
  5
65F4
  8
0
 10
1644.4740505335601028
 20
136.0820643668255059
 30
0.0
 40
0.0197
 50
269.9999999999869829
 51
0.0000000000048853
  0
ARC
  5
65F5
  8
0
 10
1644.4740505335601028
 20
143.8536879889254863
 30
0.0
 40
0.0197
 50
0.0000000000032569
 51
89.9999999999739515
  0
ARC
  5
65F6
  8
0
 10
1644.4740505335601028
 20
143.2237966503255109
 30
0.0
 40
0.0197
 50
270.0000000000391083
 51
359.9999999999951115
  0
ENDSEC
  0
EOF
