  0
SECTION
  2
HEADER
  9
$ACADVER
  1
AC1009
  9
$INSBASE
 10
3488.5436783640989233
 20
194.1399689444660055
 30
0.0
  9
$EXTMIN
 10
3484.999907003304088
 20
191.2311284178215942
 30
0.0
  9
$EXTMAX
 10
3492.4917611343557837
 20
194.1445908127894882
 30
0.0
  9
$LIMMIN
 10
0.0
 20
0.0
  9
$LIMMAX
 10
11.6929133858000007
 20
8.2677165353999982
  9
$ORTHOMODE
 70
     0
  9
$REGENMODE
 70
     1
  9
$FILLMODE
 70
     1
  9
$QTEXTMODE
 70
     0
  9
$MIRRTEXT
 70
     0
  9
$DRAGMODE
 70
     2
  9
$LTSCALE
 40
0.6431102362
  9
$OSMODE
 70
  3839
  9
$ATTMODE
 70
     1
  9
$TEXTSIZE
 40
0.2
  9
$TRACEWID
 40
0.05
  9
$TEXTSTYLE
  7
STANDARD
  9
$CLAYER
  8
0
  9
$CELTYPE
  6
BYLAYER
  9
$CECOLOR
 62
   256
  9
$DIMSCALE
 40
1.0
  9
$DIMASZ
 40
0.1875
  9
$DIMEXO
 40
0.0625
  9
$DIMDLI
 40
0.4443307087
  9
$DIMRND
 40
0.0
  9
$DIMDLE
 40
0.0
  9
$DIMEXE
 40
0.125
  9
$DIMTP
 40
0.01
  9
$DIMTM
 40
0.01
  9
$DIMTXT
 40
2.0
  9
$DIMCEN
 40
0.1052362205
  9
$DIMTSZ
 40
0.0
  9
$DIMTOL
 70
     1
  9
$DIMLIM
 70
     0
  9
$DIMTIH
 70
     1
  9
$DIMTOH
 70
     1
  9
$DIMSE1
 70
     0
  9
$DIMSE2
 70
     0
  9
$DIMTAD
 70
     0
  9
$DIMZIN
 70
     0
  9
$DIMBLK
  1

  9
$DIMASO
 70
     1
  9
$DIMSHO
 70
     1
  9
$DIMPOST
  1
\X
  9
$DIMAPOST
  1

  9
$DIMALT
 70
     1
  9
$DIMALTD
 70
     2
  9
$DIMALTF
 40
25.3999999999999986
  9
$DIMLFAC
 40
1.0
  9
$DIMTOFL
 70
     0
  9
$DIMTVP
 40
0.0
  9
$DIMTIX
 70
     0
  9
$DIMSOXD
 70
     0
  9
$DIMSAH
 70
     0
  9
$DIMBLK1
  1

  9
$DIMBLK2
  1

  9
$DIMSTYLE
  2
STANDARD
  9
$DIMCLRD
 70
     0
  9
$DIMCLRE
 70
     0
  9
$DIMCLRT
 70
     0
  9
$DIMTFAC
 40
1.0
  9
$DIMGAP
 40
0.09
  9
$LUNITS
 70
     2
  9
$LUPREC
 70
     4
  9
$SKETCHINC
 40
0.1
  9
$FILLETRAD
 40
0.0
  9
$AUNITS
 70
     0
  9
$AUPREC
 70
     0
  9
$MENU
  1
.
  9
$ELEVATION
 40
0.0
  9
$PELEVATION
 40
0.0
  9
$THICKNESS
 40
0.0
  9
$LIMCHECK
 70
     0
  9
$BLIPMODE
 70
     0
  9
$CHAMFERA
 40
0.0
  9
$CHAMFERB
 40
0.0
  9
$SKPOLY
 70
     0
  9
$TDCREATE
 40
2458060.468368056230247
  9
$TDUPDATE
 40
2459023.8692476861178875
  9
$TDINDWG
 40
0.7107825231
  9
$TDUSRTIMER
 40
0.7107825231
  9
$USRTIMER
 70
     1
  9
$ANGBASE
 50
0.0
  9
$ANGDIR
 70
     0
  9
$PDMODE
 70
     0
  9
$PDSIZE
 40
0.3125
  9
$PLINEWID
 40
0.0
  9
$COORDS
 70
     1
  9
$SPLFRAME
 70
     0
  9
$SPLINETYPE
 70
     6
  9
$SPLINESEGS
 70
     8
  9
$ATTDIA
 70
     1
  9
$ATTREQ
 70
     1
  9
$HANDLING
 70
     1
  9
$HANDSEED
  5
9980
  9
$SURFTAB1
 70
     6
  9
$SURFTAB2
 70
     6
  9
$SURFTYPE
 70
     6
  9
$SURFU
 70
     6
  9
$SURFV
 70
     6
  9
$UCSNAME
  2

  9
$UCSORG
 10
0.0
 20
0.0
 30
0.0
  9
$UCSXDIR
 10
1.0
 20
0.0
 30
0.0
  9
$UCSYDIR
 10
0.0
 20
1.0
 30
0.0
  9
$PUCSNAME
  2

  9
$PUCSORG
 10
0.0
 20
0.0
 30
0.0
  9
$PUCSXDIR
 10
1.0
 20
0.0
 30
0.0
  9
$PUCSYDIR
 10
0.0
 20
1.0
 30
0.0
  9
$USERI1
 70
     0
  9
$USERI2
 70
     0
  9
$USERI3
 70
     0
  9
$USERI4
 70
     0
  9
$USERI5
 70
     0
  9
$USERR1
 40
0.0
  9
$USERR2
 40
0.0
  9
$USERR3
 40
0.0
  9
$USERR4
 40
0.0
  9
$USERR5
 40
0.0
  9
$WORLDVIEW
 70
     1
  9
$SHADEDGE
 70
     3
  9
$SHADEDIF
 70
    70
  9
$TILEMODE
 70
     1
  9
$MAXACTVP
 70
    64
  9
$PLIMCHECK
 70
     0
  9
$PEXTMIN
 10
1.0000000000000000E+20
 20
1.0000000000000000E+20
 30
1.0000000000000000E+20
  9
$PEXTMAX
 10
-1.0000000000000000E+20
 20
-1.0000000000000000E+20
 30
-1.0000000000000000E+20
  9
$PLIMMIN
 10
0.0
 20
0.0
  9
$PLIMMAX
 10
12.0
 20
9.0
  9
$UNITMODE
 70
     0
  9
$VISRETAIN
 70
     1
  9
$PLINEGEN
 70
     0
  9
$PSLTSCALE
 70
     1
  0
ENDSEC
  0
SECTION
  2
TABLES
  0
TABLE
  2
VPORT
 70
     1
  0
VPORT
  2
*ACTIVE
 70
     0
 10
0.0
 20
0.0
 11
1.0
 21
1.0
 12
0.0
 22
0.0
 13
0.0
 23
0.0
 14
1.0
 24
1.0
 15
0.0
 25
0.0
 16
0.0
 26
0.0
 36
33.3640206604326934
 17
3488.7467041015629547
 27
192.6880714684064912
 37
0.0
 40
8.0365258733659601
 41
3.314341846758349
 42
50.0
 43
0.0
 44
0.0
 50
0.0
 51
0.0
 71
     0
 72
   100
 73
     1
 74
     1
 75
     0
 76
     0
 77
     0
 78
     0
  0
ENDTAB
  0
TABLE
  2
LTYPE
 70
     2
  0
LTYPE
  2
CONTINUOUS
 70
     0
  3
Solid line
 72
    65
 73
     0
 40
0.0
  0
LTYPE
  2
PHANTOM2
 70
     0
  3
___ _ _ ___ _ _ ___ _ _ ___ _ _
 72
    65
 73
     6
 40
1.25
 49
0.625
 49
-0.125
 49
0.125
 49
-0.125
 49
0.125
 49
-0.125
  0
ENDTAB
  0
TABLE
  2
LAYER
 70
     2
  0
LAYER
  2
0
 70
     0
 62
   255
  6
CONTINUOUS
  0
LAYER
  2
DEFPOINTS
 70
     0
 62
     7
  6
CONTINUOUS
  0
ENDTAB
  0
TABLE
  2
STYLE
 70
     1
  0
STYLE
  2
STANDARD
 70
     0
 40
0.0
 41
0.8
 50
0.0
 71
     0
 42
0.2
  3
txt
  4

  0
ENDTAB
  0
TABLE
  2
VIEW
 70
     0
  0
ENDTAB
  0
TABLE
  2
UCS
 70
     0
  0
ENDTAB
  0
TABLE
  2
APPID
 70
     9
  0
APPID
  2
ACAD
 70
     0
  0
APPID
  2
ACAD_MLEADERVER
 70
     0
  0
APPID
  2
ACAD_EXEMPT_FROM_CAD_STANDARDS
 70
     0
  0
APPID
  2
ACAD_NAV_VCDISPLAY
 70
     0
  0
APPID
  2
ACAECLAYERSTANDARD
 70
     0
  0
APPID
  2
ACCMTRANSPARENCY
 70
     0
  0
APPID
  2
ACAD_DSTYLE_DIMJAG
 70
     0
  0
APPID
  2
ACAD_DSTYLE_DIMTALN
 70
     0
  0
APPID
  2
ACDBATTR
 70
     0
  0
ENDTAB
  0
TABLE
  2
DIMSTYLE
 70
     1
  0
DIMSTYLE
  2
STANDARD
 70
     0
  3

  4

  5

  6

  7

 40
1.0
 41
0.1875
 42
0.0625
 43
0.38
 44
0.125
 45
0.0
 46
0.0
 47
0.01
 48
0.01
140
0.15625
141
0.09
142
0.0
143
25.3999999999999986
144
1.0
145
0.0
146
1.0
147
0.09
 71
     1
 72
     0
 73
     1
 74
     1
 75
     0
 76
     0
 77
     0
 78
     4
170
     0
171
     2
172
     0
173
     0
174
     0
175
     0
176
     0
177
     0
178
     0
  0
ENDTAB
  0
ENDSEC
  0
SECTION
  2
BLOCKS
  0
BLOCK
  8
0
  2
$MODEL_SPACE
 70
     0
 10
0.0
 20
0.0
 30
0.0
  3
$MODEL_SPACE
  1

  0
ENDBLK
  5
21
  8
0
  0
BLOCK
 67
     1
  8
0
  2
$PAPER_SPACE
 70
     0
 10
0.0
 20
0.0
 30
0.0
  3
$PAPER_SPACE
  1

  0
ENDBLK
  5
1D
 67
     1
  8
0
  0
BLOCK
  8
0
  2
_FILLED
 70
     0
 10
0.0
 20
0.0
 30
0.0
  3
_FILLED
  1

  0
SOLID
  5
6F59
  8
0
  6
BYBLOCK
 62
     0
 10
0.0
 20
0.0
 30
0.0
 11
-1.0
 21
0.1666666667
 31
0.0
 12
-1.0
 22
-0.1666666667
 32
0.0
 13
-1.0
 23
-0.1666666667
 33
0.0
  0
ENDBLK
  5
6F5A
  8
0
  6
BYBLOCK
 62
     0
  0
ENDSEC
  0
SECTION
  2
ENTITIES
  0
ATTDEF
  5
3930
  8
DEFPOINTS
 10
3488.5439267634337739
 20
194.1435908127893981
 30
0.0
 40
0.001
  1
K-10557T
  3

  2
MODELNUMBER
 70
     0
1001
ACDBATTR
1070
     0
1070
     1
  0
ATTDEF
  5
3931
  8
DEFPOINTS
 10
3488.5439267634337739
 20
194.1419241461227898
 30
0.0
 40
0.001
  1
DEVONSHIRE
  3

  2
TRADENAME
 70
     0
1001
ACDBATTR
1070
     0
1070
     1
  0
ATTDEF
  5
3932
  8
DEFPOINTS
 10
3488.5439267634337739
 20
194.1402574794560962
 30
0.0
 40
0.001
  1
TOWEL RING
  3

  2
PRODUCT
 70
     0
1001
ACDBATTR
1070
     0
1070
     1
  0
ARC
  5
97BB
  8
0
 10
3486.2672307238549365
 20
192.5575545047418871
 30
0.0
 40
1.8881399421452301
 50
358.2068700328471209
 51
39.1997723197736576
  0
ARC
  5
97BC
  8
0
 10
3487.6844755184511087
 20
193.7015163305121916
 30
0.0
 40
0.0674702463982613
 50
47.0591984548881683
 51
88.5465256220107193
  0
ARC
  5
97BD
  8
0
 10
3487.686186914254904
 20
193.8489741662260997
 30
0.0
 40
0.0800092977501135
 50
189.5473518787152045
 51
270.0
  0
ARC
  5
97BE
  8
0
 10
3487.5283933085961507
 20
193.8224382779035011
 30
0.0
 40
0.080000000010963
 50
9.5446795187873512
 51
79.9207631462672481
  0
ARC
  5
97BF
  8
0
 10
3487.5563948995409191
 20
193.9799689444517128
 30
0.0
 40
0.0799999999846712
 50
190.6956241048060861
 51
259.9207633472047974
  0
ARC
  5
97C0
  8
0
 10
3487.3991745835919573
 20
193.9502742933827051
 30
0.0
 40
0.0800000001688696
 50
10.6956241061809703
 51
80.2620209314366804
  0
ARC
  5
97C1
  8
0
 10
3487.4262374193049254
 20
194.1079689445641066
 30
0.0
 40
0.0800000001061854
 50
180.0000000702542877
 51
260.2620212555955845
  0
ARC
  5
97C2
  8
0
 10
3488.1898682622431807
 20
192.4139728814971875
 30
0.0
 40
0.0951898981699269
 50
117.4144571175574043
 51
242.5855429196884927
  0
ARC
  5
97C3
  8
0
 10
3490.8201260043401817
 20
192.5575545047418871
 30
0.0
 40
1.8881399421452301
 50
140.8002276802262998
 51
181.7931299671529075
  0
ARC
  5
97C4
  8
0
 10
3489.4030103659579254
 20
193.7013154510883908
 30
0.0
 40
0.0677053016736787
 50
92.3280967376748833
 51
132.9050069763102044
  0
ARC
  5
97C5
  8
0
 10
3489.4011598616498304
 20
193.8489798671330107
 30
0.0
 40
0.0800200578562436
 50
269.355710021707182
 51
350.4498046505703996
  0
ARC
  5
97C6
  8
0
 10
3489.5589634196007864
 20
193.8224382779035011
 30
0.0
 40
0.080000000010963
 50
100.0792368537326951
 51
170.4553204812125955
  0
ARC
  5
97C7
  8
0
 10
3489.530961828656018
 20
193.9799689444517128
 30
0.0
 40
0.0799999999846712
 50
280.0792366527952026
 51
349.3043758951939139
  0
ARC
  5
97C8
  8
0
 10
3489.6881821446040703
 20
193.9502742933827051
 30
0.0
 40
0.0800000001688696
 50
99.7379790685633481
 51
169.3043758938190138
  0
ARC
  5
97C9
  8
0
 10
3489.6611193088920118
 20
194.1079689445641066
 30
0.0
 40
0.0800000001061847
 50
279.7379787444044155
 51
359.9999999297439786
  0
ARC
  5
97CA
  8
0
 10
3488.8974884660460702
 20
192.4139728814971875
 30
0.0
 40
0.0951898981272581
 50
297.414457030795802
 51
62.5855429319581802
  0
LINE
  5
97CB
  8
0
 10
3489.7411193089978951
 20
194.1079689444659948
 30
0.0
 11
3489.7411193089978951
 21
194.1399689444660055
 31
0.0
  0
LINE
  5
97CC
  8
0
 10
3489.7411193089978951
 20
194.1399689444660055
 30
0.0
 11
3487.3462374191981326
 21
194.1399689444660055
 31
0.0
  0
LINE
  5
97CD
  8
0
 10
3487.3462374191981326
 20
194.1079689444659948
 30
0.0
 11
3487.3462374191981326
 21
194.1399689444660055
 31
0.0
  0
LINE
  5
97CE
  8
0
 10
3487.4127060016758151
 20
194.029121618966002
 30
0.0
 11
3489.6746507265188484
 21
194.029121618966002
 31
0.0
  0
LINE
  5
97CF
  8
0
 10
3487.686186914254904
 20
193.768964868475905
 30
0.0
 11
3489.4002600565468128
 21
193.768964868475905
 31
0.0
  0
LINE
  5
97D0
  8
0
 10
3487.5423941042081424
 20
193.9012036111660109
 30
0.0
 11
3489.5449626239878853
 21
193.9012036111660109
 31
0.0
  0
LINE
  5
97D1
  8
0
 10
3488.1460405687930688
 20
192.4984728814999926
 30
0.0
 11
3488.9413161594029589
 21
192.4984728814999926
 31
0.0
  0
LINE
  5
97D2
  8
0
 10
3488.1460405688480932
 20
192.3294728814659891
 30
0.0
 11
3488.9413161593479344
 21
192.3294728814659891
 31
0.0
  0
ARC
  5
97D3
  8
0
 10
3487.3336625756719513
 20
191.8141110826344118
 30
0.0
 40
0.9617312561209987
 50
7.0268094863923967
 51
31.5642195379515087
  0
ARC
  5
97D4
  8
0
 10
3488.1650217777601029
 20
192.3176131197166114
 30
0.0
 40
0.0119125166151939
 50
95.3942061028389929
 51
180.3850165875199139
  0
CIRCLE
  5
97D6
  8
0
 10
3485.380605797698081
 20
191.6118272122160135
 30
0.0
 40
0.3806987943944033
  0
CIRCLE
  5
97D7
  8
0
 10
3485.3862216159482159
 20
191.6118272121659913
 30
0.0
 40
0.3513136750500003
  0
ARC
  5
97D8
  8
0
 10
3488.7263245357671622
 20
190.1150187661621089
 30
0.0
 40
1.2559662866158561
 50
71.5562792342386302
 51
85.6022969883836851
  0
ARC
  5
97D9
  8
0
 10
3489.1731463925179924
 20
191.3071800769411936
 30
0.0
 40
0.0494777565079287
 50
181.1361955585780095
 51
332.8276062751701261
  0
ARC
  5
97DA
  8
0
 10
3489.47772260017382
 20
190.5586472692756956
 30
0.0
 40
1.4322722976350659
 50
104.3080503418934057
 51
108.7500772606474015
  0
ARC
  5
97DB
  8
0
 10
3489.1729221340119693
 20
191.9160720928659032
 30
0.0
 40
0.0496849631149079
 50
27.0714144996551589
 51
172.3588022913131965
  0
LINE
  5
97DC
  8
0
 10
3489.2171636110879263
 20
191.9386837550300982
 30
0.0
 11
3489.2171636110979307
 21
191.2845851027761057
 31
0.0
  0
LINE
  5
97DD
  8
0
 10
3489.1236783640802059
 20
191.3061989798466129
 30
0.0
 11
3489.1236783640802059
 21
191.9464919372207987
 31
0.0
  0
LINE
  5
97DE
  8
0
 10
3489.2171636110879263
 20
191.2845851027221045
 30
0.0
 11
3489.2232562766980664
 21
191.3066344288760945
 31
0.0
  0
LINE
  5
97DF
  8
0
 10
3489.2232562766980664
 20
191.3066344288760945
 30
0.0
 11
3489.2382512203598708
 21
191.319216680560686
 31
0.0
  0
ARC
  5
97E0
  8
0
 10
3489.2202531672978694
 20
191.3406659249760935
 30
0.0
 40
0.0279999999999961
 50
309.9999999744791808
 51
0.0000000000048853
  0
LINE
  5
97E1
  8
0
 10
3489.2171636110879263
 20
191.9386837550300982
 30
0.0
 11
3489.2232562766980664
 21
191.9166344288761081
 31
0.0
  0
LINE
  5
97E2
  8
0
 10
3489.2232562766980664
 20
191.9166344288761081
 30
0.0
 11
3489.2382512203598708
 21
191.904052177191403
 31
0.0
  0
ARC
  5
97E3
  8
0
 10
3489.2202531672978694
 20
191.8826029327761091
 30
0.0
 40
0.0279999999999961
 50
359.9999999999951115
 51
50.0000000255207624
  0
LINE
  5
97E4
  8
0
 10
3489.2482531672981168
 20
191.8826029327761091
 30
0.0
 11
3489.2482531672981168
 21
191.3406659249760935
 31
0.0
  0
LINE
  5
97E5
  8
0
 10
3489.2232562766980664
 20
191.3066344288760945
 30
0.0
 11
3489.2232562766980664
 21
191.9166344288761081
 31
0.0
  0
ARC
  5
97E6
  8
0
 10
3488.979862802687876
 20
192.0633087803560954
 30
0.0
 40
0.1530574934020719
 50
237.1286106529315134
 51
284.1702666729744919
  0
ARC
  5
97E7
  8
0
 10
3488.9787780760739224
 20
192.0626597158581887
 30
0.0
 40
0.1519246366160034
 50
148.3602485273515015
 51
237.3393413177093123
  0
ARC
  5
97E8
  8
0
 10
3488.8744721805119298
 20
191.9516305745667069
 30
0.0
 40
0.5866384070476734
 50
181.9407693858387063
 51
264.9301489605164193
  0
LINE
  5
97E9
  8
0
 10
3492.2542381311977806
 20
191.3624845365660008
 30
0.0
 11
3489.2482531672981168
 21
191.3618338578515079
 31
0.0
  0
LINE
  5
97EA
  8
0
 10
3485.6677174494061546
 20
191.3618302692212012
 30
0.0
 11
3488.8776929239970741
 21
191.3618302692212012
 31
0.0
  0
LINE
  5
97EB
  8
0
 10
3492.2542381311977806
 20
191.8611698877660103
 30
0.0
 11
3489.2482531672981168
 21
191.8618205664803895
 31
0.0
  0
LINE
  5
97EC
  8
0
 10
3485.6677174494930114
 20
191.8618241551108099
 30
0.0
 11
3488.2947486018579184
 21
191.8618241551108099
 31
0.0
  0
ARC
  5
97ED
  8
0
 10
3492.2421243721728388
 20
191.6118272121659913
 30
0.0
 40
0.2496367621827445
 50
272.7814010208263085
 51
87.2185989791737342
  0
ARC
  5
97EE
  8
0
 10
3498.2838593976830452
 20
187.6827929243742972
 30
0.0
 40
10.4353277143024599
 50
153.6317093021415872
 51
154.7003427593340064
  0
ARC
  5
97EF
  8
0
 10
3488.9223349504359248
 20
192.3176131197166114
 30
0.0
 40
0.0119125166151939
 50
359.6149834124801146
 51
84.6057938971610071
  0
ENDSEC
  0
EOF
