  0
SECTION
  2
HEADER
  9
$ACADVER
  1
AC1009
  9
$INSBASE
 10
5628.2474914137083033
 20
416.1058532498432214
 30
0.0
  9
$EXTMIN
 10
5620.7512075073063897
 20
416.0982809703086218
 30
-0.0000000349181948
  9
$EXTMAX
 10
5629.7756187520235471
 20
424.2295492443581111
 30
0.0000000814935746
  9
$LIMMIN
 10
0.0
 20
0.0
  9
$LIMMAX
 10
11.6929133858000007
 20
8.2677165353999982
  9
$ORTHOMODE
 70
     1
  9
$REGENMODE
 70
     1
  9
$FILLMODE
 70
     1
  9
$QTEXTMODE
 70
     0
  9
$MIRRTEXT
 70
     0
  9
$DRAGMODE
 70
     2
  9
$LTSCALE
 40
0.6431102362
  9
$OSMODE
 70
  1599
  9
$ATTMODE
 70
     1
  9
$TEXTSIZE
 40
0.2
  9
$TRACEWID
 40
0.05
  9
$TEXTSTYLE
  7
STANDARD
  9
$CLAYER
  8
0
  9
$CELTYPE
  6
BYLAYER
  9
$CECOLOR
 62
   256
  9
$DIMSCALE
 40
1.0
  9
$DIMASZ
 40
0.1875
  9
$DIMEXO
 40
0.0625
  9
$DIMDLI
 40
0.4443307087
  9
$DIMRND
 40
0.0
  9
$DIMDLE
 40
0.0
  9
$DIMEXE
 40
0.125
  9
$DIMTP
 40
0.01
  9
$DIMTM
 40
0.01
  9
$DIMTXT
 40
2.0
  9
$DIMCEN
 40
0.1052362205
  9
$DIMTSZ
 40
0.0
  9
$DIMTOL
 70
     1
  9
$DIMLIM
 70
     0
  9
$DIMTIH
 70
     1
  9
$DIMTOH
 70
     1
  9
$DIMSE1
 70
     0
  9
$DIMSE2
 70
     0
  9
$DIMTAD
 70
     0
  9
$DIMZIN
 70
     0
  9
$DIMBLK
  1

  9
$DIMASO
 70
     1
  9
$DIMSHO
 70
     1
  9
$DIMPOST
  1
\X
  9
$DIMAPOST
  1

  9
$DIMALT
 70
     1
  9
$DIMALTD
 70
     2
  9
$DIMALTF
 40
25.3999999999999986
  9
$DIMLFAC
 40
1.0
  9
$DIMTOFL
 70
     0
  9
$DIMTVP
 40
0.0
  9
$DIMTIX
 70
     0
  9
$DIMSOXD
 70
     0
  9
$DIMSAH
 70
     0
  9
$DIMBLK1
  1

  9
$DIMBLK2
  1

  9
$DIMSTYLE
  2
STANDARD
  9
$DIMCLRD
 70
     0
  9
$DIMCLRE
 70
     0
  9
$DIMCLRT
 70
     0
  9
$DIMTFAC
 40
1.0
  9
$DIMGAP
 40
0.09
  9
$LUNITS
 70
     2
  9
$LUPREC
 70
     4
  9
$SKETCHINC
 40
0.1
  9
$FILLETRAD
 40
0.0
  9
$AUNITS
 70
     0
  9
$AUPREC
 70
     0
  9
$MENU
  1
.
  9
$ELEVATION
 40
0.0
  9
$PELEVATION
 40
0.0
  9
$THICKNESS
 40
0.0
  9
$LIMCHECK
 70
     0
  9
$BLIPMODE
 70
     0
  9
$CHAMFERA
 40
0.0
  9
$CHAMFERB
 40
0.0
  9
$SKPOLY
 70
     0
  9
$TDCREATE
 40
2458060.468368056230247
  9
$TDUPDATE
 40
2460776.5722106480970979
  9
$TDINDWG
 40
0.7387917824
  9
$TDUSRTIMER
 40
0.7387917824
  9
$USRTIMER
 70
     1
  9
$ANGBASE
 50
0.0
  9
$ANGDIR
 70
     0
  9
$PDMODE
 70
     0
  9
$PDSIZE
 40
0.3125
  9
$PLINEWID
 40
0.0
  9
$COORDS
 70
     1
  9
$SPLFRAME
 70
     0
  9
$SPLINETYPE
 70
     6
  9
$SPLINESEGS
 70
     8
  9
$ATTDIA
 70
     1
  9
$ATTREQ
 70
     1
  9
$HANDLING
 70
     1
  9
$HANDSEED
  5
2E211
  9
$SURFTAB1
 70
     6
  9
$SURFTAB2
 70
     6
  9
$SURFTYPE
 70
     6
  9
$SURFU
 70
     6
  9
$SURFV
 70
     6
  9
$UCSNAME
  2

  9
$UCSORG
 10
0.0
 20
0.0
 30
0.0
  9
$UCSXDIR
 10
1.0
 20
0.0
 30
0.0
  9
$UCSYDIR
 10
0.0
 20
1.0
 30
0.0
  9
$PUCSNAME
  2

  9
$PUCSORG
 10
0.0
 20
0.0
 30
0.0
  9
$PUCSXDIR
 10
1.0
 20
0.0
 30
0.0
  9
$PUCSYDIR
 10
0.0
 20
1.0
 30
0.0
  9
$USERI1
 70
     0
  9
$USERI2
 70
     0
  9
$USERI3
 70
     0
  9
$USERI4
 70
     0
  9
$USERI5
 70
     0
  9
$USERR1
 40
0.0
  9
$USERR2
 40
0.0
  9
$USERR3
 40
0.0
  9
$USERR4
 40
0.0
  9
$USERR5
 40
0.0
  9
$WORLDVIEW
 70
     1
  9
$SHADEDGE
 70
     3
  9
$SHADEDIF
 70
    70
  9
$TILEMODE
 70
     1
  9
$MAXACTVP
 70
    64
  9
$PLIMCHECK
 70
     0
  9
$PEXTMIN
 10
1.0000000000000000E+20
 20
1.0000000000000000E+20
 30
1.0000000000000000E+20
  9
$PEXTMAX
 10
-1.0000000000000000E+20
 20
-1.0000000000000000E+20
 30
-1.0000000000000000E+20
  9
$PLIMMIN
 10
0.0
 20
0.0
  9
$PLIMMAX
 10
12.0
 20
9.0
  9
$UNITMODE
 70
     0
  9
$VISRETAIN
 70
     1
  9
$PLINEGEN
 70
     0
  9
$PSLTSCALE
 70
     1
  0
ENDSEC
  0
SECTION
  2
TABLES
  0
TABLE
  2
VPORT
 70
     1
  0
VPORT
  2
*ACTIVE
 70
     0
 10
0.0
 20
0.0
 11
1.0
 21
1.0
 12
1713.8980566843529232
 22
287.5843100047944176
 13
0.0
 23
0.0
 14
1.0
 24
1.0
 15
0.0
 25
0.0
 16
0.0
 26
0.0
 36
60.4960186965801583
 17
3911.3653564453120453
 27
132.5796051025390057
 37
0.0
 40
8.1888687576908978
 41
2.2399527186761219
 42
50.0
 43
0.0
 44
0.0
 50
0.0
 51
0.0
 71
     0
 72
   100
 73
     1
 74
     1
 75
     0
 76
     0
 77
     0
 78
     1
  0
ENDTAB
  0
TABLE
  2
LTYPE
 70
     2
  0
LTYPE
  2
CONTINUOUS
 70
     0
  3
Solid line
 72
    65
 73
     0
 40
0.0
  0
LTYPE
  2
PHANTOM2
 70
     0
  3
___ _ _ ___ _ _ ___ _ _ ___ _ _
 72
    65
 73
     6
 40
1.25
 49
0.625
 49
-0.125
 49
0.125
 49
-0.125
 49
0.125
 49
-0.125
  0
ENDTAB
  0
TABLE
  2
LAYER
 70
     2
  0
LAYER
  2
0
 70
     0
 62
   255
  6
CONTINUOUS
  0
LAYER
  2
DEFPOINTS
 70
     0
 62
     7
  6
CONTINUOUS
  0
ENDTAB
  0
TABLE
  2
STYLE
 70
     1
  0
STYLE
  2
STANDARD
 70
     0
 40
0.0
 41
0.8
 50
0.0
 71
     0
 42
0.2
  3
txt
  4

  0
ENDTAB
  0
TABLE
  2
VIEW
 70
     0
  0
ENDTAB
  0
TABLE
  2
UCS
 70
     0
  0
ENDTAB
  0
TABLE
  2
APPID
 70
    11
  0
APPID
  2
ACAD
 70
     0
  0
APPID
  2
ACAD_MLEADERVER
 70
     0
  0
APPID
  2
ACAD_EXEMPT_FROM_CAD_STANDARDS
 70
     0
  0
APPID
  2
ACAD_NAV_VCDISPLAY
 70
     0
  0
APPID
  2
ACAECLAYERSTANDARD
 70
     0
  0
APPID
  2
ACCMTRANSPARENCY
 70
     0
  0
APPID
  2
ACAD_DSTYLE_DIMJAG
 70
     0
  0
APPID
  2
ACAD_DSTYLE_DIMTALN
 70
     0
  0
APPID
  2
ACDBATTR
 70
     0
  0
APPID
  2
ACADANNOTATIVE
 70
     0
  0
APPID
  2
DCO15
 70
     0
  0
ENDTAB
  0
TABLE
  2
DIMSTYLE
 70
     1
  0
DIMSTYLE
  2
STANDARD
 70
     0
  3

  4

  5

  6

  7

 40
1.0
 41
0.1875
 42
0.0625
 43
0.38
 44
0.125
 45
0.0
 46
0.0
 47
0.01
 48
0.01
140
0.15625
141
0.09
142
0.0
143
25.3999999999999986
144
1.0
145
0.0
146
1.0
147
0.09
 71
     1
 72
     0
 73
     1
 74
     1
 75
     0
 76
     0
 77
     0
 78
     4
170
     0
171
     2
172
     0
173
     0
174
     0
175
     0
176
     0
177
     0
178
     0
  0
ENDTAB
  0
ENDSEC
  0
SECTION
  2
BLOCKS
  0
BLOCK
  8
0
  2
$MODEL_SPACE
 70
     0
 10
0.0
 20
0.0
 30
0.0
  3
$MODEL_SPACE
  1

  0
ENDBLK
  5
21
  8
0
  0
BLOCK
 67
     1
  8
0
  2
$PAPER_SPACE
 70
     0
 10
0.0
 20
0.0
 30
0.0
  3
$PAPER_SPACE
  1

  0
ENDBLK
  5
1D
 67
     1
  8
0
  0
ENDSEC
  0
SECTION
  2
ENTITIES
  0
LINE
  5
2DF8A
  8
0
 10
5621.2862978040047892
 20
424.2160894943065159
 30
0.0
 11
5628.7888299964079124
 21
424.2160894943065159
 31
0.0
  0
LINE
  5
2DF9C
  8
0
 10
5628.8085150358083411
 20
423.5664831951065139
 30
0.0
 11
5628.8085150358083411
 21
424.1964044549064852
 31
0.0
  0
LINE
  5
2DF9D
  8
0
 10
5628.8085150358083411
 20
423.5369556360064962
 30
0.0
 11
5628.8085150358583633
 21
416.4247509355698185
 31
0.0
  0
LINE
  5
2DF9E
  8
0
 10
5627.6864677916582878
 20
416.4247509355698185
 30
0.0
 11
5627.6864677916082655
 21
423.5369556360064962
 31
0.0
  0
LINE
  5
2DF9F
  8
0
 10
5628.7986725161081267
 20
423.5467981557064832
 30
0.0
 11
5622.4172567591449479
 21
423.5467972380454853
 31
0.0
  0
ARC
  5
2DFA0
  8
0
 10
5628.7888299964079124
 20
423.5664831951065139
 30
0.0
 40
0.0196850394000041
 50
270.0
 51
0.0000000000065138
  0
ARC
  5
2DFA1
  8
0
 10
5628.7986725161081267
 20
423.5369556360064962
 30
0.0
 40
0.0098425197000021
 50
0.0000000000162844
 51
90.0
  0
ARC
  5
2DFA2
  8
0
 10
5627.6963103114776459
 20
423.5369556358356817
 30
0.0
 40
0.0098425198707108
 50
90.0000004116185437
 51
179.9999990062289896
  0
ARC
  5
2DFA3
  8
0
 10
5621.2864005398078007
 20
424.196398125506505
 30
0.0
 40
0.0196916367999964
 50
90.2989266335414271
 51
169.9846715490043891
  0
LINE
  5
2DFA4
  8
0
 10
5621.2670089787161487
 20
424.1998227303366207
 30
0.0
 11
5621.0681492008889109
 21
423.0720327472255917
 31
0.0
  0
ARC
  5
2DFA5
  8
0
 10
5621.0875351807890183
 20
423.0686144763474772
 30
0.0
 40
0.01968503981416
 50
170.0000012203956032
 51
259.9999985528468187
  0
LINE
  5
2DFA6
  8
0
 10
5621.0841169090081166
 20
423.0492284966064744
 30
0.0
 11
5622.2084878510995622
 21
422.8509715339088757
 31
0.0
  0
ARC
  5
2DFA7
  8
0
 10
5622.2119089199823065
 20
422.8703733767948165
 30
0.0
 40
0.019701147673807
 50
259.9999985528468187
 51
349.9532370364527765
  0
LINE
  5
2DFA8
  8
0
 10
5622.2313079643272431
 20
422.8669364743873871
 30
0.0
 11
5622.3397128414089821
 21
423.4817310831065242
 31
0.0
  0
ARC
  5
2DFA9
  8
0
 10
5622.4172755718664121
 20
423.4680344670605905
 30
0.0
 40
0.0787627732316473
 50
90.0136852660448881
 51
169.9855187954738085
  0
LINE
  5
2DFAA
  8
0
 10
5621.8660674344082508
 20
424.1964044563064817
 30
0.0
 11
5621.754994793406695
 21
423.5664831708064071
 31
0.0
  0
LINE
  5
2DFAB
  8
0
 10
5621.8660674344082508
 20
424.1964044563064817
 30
0.0
 11
5621.8660674344082508
 21
424.2160894943065159
 31
0.0
  0
LINE
  5
2DFAC
  8
0
 10
5621.754994793406695
 20
423.5664831708064071
 30
0.0
 11
5628.8085150358083411
 21
423.5664831708064071
 31
0.0
  0
LINE
  5
2DFAD
  8
0
 10
5622.3397128414089821
 20
423.4817310831065242
 30
0.0
 11
5622.0523862049067247
 21
423.4752058843836835
 31
0.0
  0
ARC
  5
2DFAE
  8
0
 10
5622.0464151284913896
 20
423.7381326358350861
 30
0.0
 40
0.26299454439649
 50
258.5391119523105772
 51
271.3009656828130005
  0
ARC
  5
2DFAF
  8
0
 10
5622.2870533692521349
 20
424.6691718345375079
 30
0.0
 40
1.2243400741828689
 50
244.2422147056757922
 51
256.1590888133284238
  0
ARC
  5
2DFB0
  8
0
 10
5622.4994692686259441
 20
423.546623097545023
 30
0.0
 40
0.0393794296874002
 50
180.0033905661427127
 51
235.9668465342521131
  0
ARC
  5
2DFB1
  8
0
 10
5622.6090924516993255
 20
423.7256677033583969
 30
0.0
 40
0.2492850473683067
 50
238.1186803714385007
 51
265.2379598539150152
  0
ARC
  5
2DFB2
  8
0
 10
5622.7621426367368258
 20
425.1945554596002808
 30
0.0
 40
1.726079057743114
 50
264.2228852743095899
 51
270.3289325071258986
  0
ARC
  5
2DFB3
  8
0
 10
5622.9027949457104114
 20
441.6058955925655027
 30
0.0
 40
18.1378619693520911
 50
269.5869916655307179
 51
270.0939327166556723
  0
LINE
  5
2DFB4
  8
0
 10
5622.9325307814078769
 20
423.4680579982065183
 30
0.0
 11
5623.2081213385081355
 21
423.4680579982065183
 31
0.0
  0
ARC
  5
2DFB5
  8
0
 10
5623.6411828512891589
 20
423.546623097545023
 30
0.0
 40
0.0393794296874002
 50
304.0331534657477732
 51
359.996609433857202
  0
ARC
  5
2DFB6
  8
0
 10
5623.5315596682175965
 20
423.7256677033583969
 30
0.0
 40
0.2492850473683067
 50
274.7620401460849848
 51
301.8813196285615277
  0
ARC
  5
2DFB7
  8
0
 10
5623.3785094831782772
 20
425.1945554596002808
 30
0.0
 40
1.726079057743114
 50
269.6710674928742151
 51
275.7771147256904101
  0
ARC
  5
2DFB8
  8
0
 10
5623.237857174205601
 20
441.6058955925655027
 30
0.0
 40
18.1378619693520911
 50
269.9060672833443277
 51
270.4130083344692821
  0
ARC
  5
2DFB9
  8
0
 10
5627.7061528310578069
 20
416.4247509355698185
 30
0.0
 40
0.0196850394000001
 50
180.0
 51
270.0
  0
LINE
  5
2DFBA
  8
0
 10
5627.684499287757717
 20
416.4050658961697877
 30
0.0
 11
5628.8104835396579801
 21
416.4050658961697877
 31
0.0
  0
LINE
  5
2DFBB
  8
0
 10
5627.684499287757717
 20
416.4050658961697877
 30
0.0
 11
5627.0816745035072017
 21
416.2668385571698195
 31
0.0
  0
ARC
  5
2DFBC
  8
0
 10
5627.0860740909147353
 20
416.2476514676262127
 30
0.0
 40
0.019685039358006
 50
102.9146320365667009
 51
180.0000001641145957
  0
LINE
  5
2DFBD
  8
0
 10
5627.0663890515579624
 20
416.247651467569824
 30
0.0
 11
5627.0663890519081178
 21
416.1255383371698144
 31
0.0
  0
ARC
  5
2DFBE
  8
0
 10
5627.0860740913640257
 20
416.1255383372262031
 30
0.0
 40
0.0196850394563847
 50
180.0000001641145957
 51
269.9999988178278159
  0
LINE
  5
2DFBF
  8
0
 10
5627.086074090958391
 20
416.1058532977697837
 30
0.0
 11
5629.4089087364582156
 21
416.1058532498432214
 31
0.0
  0
ARC
  5
2DFC0
  8
0
 10
5628.7888299964579346
 20
416.4247509355698185
 30
0.0
 40
0.0196850394000001
 50
270.0
 51
0.0
  0
LINE
  5
2DFC1
  8
0
 10
5628.8104835397580246
 20
416.4050658961697877
 30
0.0
 11
5629.4133083240103588
 21
416.2668385571698195
 31
0.0
  0
ARC
  5
2DFC2
  8
0
 10
5629.4089087366000967
 20
416.2476514676262127
 30
0.0
 40
0.019685039358006
 50
359.9999998358853759
 51
77.0853679634332138
  0
LINE
  5
2DFC3
  8
0
 10
5629.4285937759577791
 20
416.247651467569824
 30
0.0
 11
5629.4285937756094427
 21
416.1255383371698144
 31
0.0
  0
ARC
  5
2DFC4
  8
0
 10
5629.4089086549902277
 20
416.1255383704619817
 30
0.0
 40
0.0196851206190162
 50
270.0002371240618118
 51
359.9999030991826885
  0
LINE
  5
2DFC5
  8
0
 10
5627.0816745035072017
 20
416.2668385571698195
 30
0.0
 11
5629.4133083240103588
 21
416.2668385571698195
 31
0.0
  0
ARC
  5
2E0FB
  8
0
 10
5628.7888299964079124
 20
424.1964044549064852
 30
0.0
 40
0.0196850394000059
 50
0.0000000000162844
 51
90.0
  0
ATTDEF
  5
2E102
  8
DEFPOINTS
 10
5628.2475030211753619
 20
416.1091988285048728
 30
0.0
 40
0.001
  1
K-106M36-SANA
  3

  2
MODELNUMBER
 70
     0
1001
ACDBATTR
1070
     0
1070
     1
  0
ATTDEF
  5
2E103
  8
DEFPOINTS
 10
5628.2473772115181418
 20
416.107531988125686
 30
0.0
 40
0.001
  1
COMPONENTS
  3

  2
TRADENAME
 70
     0
1001
ACDBATTR
1070
     0
1070
     1
  0
ATTDEF
  5
2E104
  8
DEFPOINTS
 10
5628.2475030211753619
 20
416.1058654951714857
 30
0.0
 40
0.001
  1
BATHROOM SINK FAUCET
  3

  2
PRODUCT
 70
     0
1001
ACDBATTR
1070
     0
1070
     1
  0
ENDSEC
  0
EOF
