  0
SECTION
  2
HEADER
  9
$ACADVER
  1
AC1009
  9
$INSBASE
 10
3699.984016460814928
 20
105.9900063362910032
 30
0.0
  9
$EXTMIN
 10
3699.0392151825271867
 20
105.9852719896969973
 30
0.0
  9
$EXTMAX
 10
3700.9288177391022145
 20
113.0430130318909931
 30
0.0
  9
$LIMMIN
 10
0.0
 20
0.0
  9
$LIMMAX
 10
11.6929133858000007
 20
8.2677165353999982
  9
$ORTHOMODE
 70
     0
  9
$REGENMODE
 70
     1
  9
$FILLMODE
 70
     1
  9
$QTEXTMODE
 70
     0
  9
$MIRRTEXT
 70
     0
  9
$DRAGMODE
 70
     2
  9
$LTSCALE
 40
0.6431102362
  9
$OSMODE
 70
  3839
  9
$ATTMODE
 70
     1
  9
$TEXTSIZE
 40
0.2
  9
$TRACEWID
 40
0.05
  9
$TEXTSTYLE
  7
STANDARD
  9
$CLAYER
  8
0
  9
$CELTYPE
  6
BYLAYER
  9
$CECOLOR
 62
   256
  9
$DIMSCALE
 40
1.0
  9
$DIMASZ
 40
0.1875
  9
$DIMEXO
 40
0.0625
  9
$DIMDLI
 40
0.4443307087
  9
$DIMRND
 40
0.0
  9
$DIMDLE
 40
0.0
  9
$DIMEXE
 40
0.125
  9
$DIMTP
 40
0.01
  9
$DIMTM
 40
0.01
  9
$DIMTXT
 40
2.0
  9
$DIMCEN
 40
0.1052362205
  9
$DIMTSZ
 40
0.0
  9
$DIMTOL
 70
     1
  9
$DIMLIM
 70
     0
  9
$DIMTIH
 70
     1
  9
$DIMTOH
 70
     1
  9
$DIMSE1
 70
     0
  9
$DIMSE2
 70
     0
  9
$DIMTAD
 70
     0
  9
$DIMZIN
 70
     0
  9
$DIMBLK
  1

  9
$DIMASO
 70
     1
  9
$DIMSHO
 70
     1
  9
$DIMPOST
  1
\X
  9
$DIMAPOST
  1

  9
$DIMALT
 70
     1
  9
$DIMALTD
 70
     2
  9
$DIMALTF
 40
25.3999999999999986
  9
$DIMLFAC
 40
1.0
  9
$DIMTOFL
 70
     0
  9
$DIMTVP
 40
0.0
  9
$DIMTIX
 70
     0
  9
$DIMSOXD
 70
     0
  9
$DIMSAH
 70
     0
  9
$DIMBLK1
  1

  9
$DIMBLK2
  1

  9
$DIMSTYLE
  2
STANDARD
  9
$DIMCLRD
 70
     0
  9
$DIMCLRE
 70
     0
  9
$DIMCLRT
 70
     0
  9
$DIMTFAC
 40
1.0
  9
$DIMGAP
 40
0.09
  9
$LUNITS
 70
     2
  9
$LUPREC
 70
     4
  9
$SKETCHINC
 40
0.1
  9
$FILLETRAD
 40
0.0
  9
$AUNITS
 70
     0
  9
$AUPREC
 70
     0
  9
$MENU
  1
.
  9
$ELEVATION
 40
0.0
  9
$PELEVATION
 40
0.0
  9
$THICKNESS
 40
0.0
  9
$LIMCHECK
 70
     0
  9
$BLIPMODE
 70
     0
  9
$CHAMFERA
 40
0.0
  9
$CHAMFERB
 40
0.0
  9
$SKPOLY
 70
     0
  9
$TDCREATE
 40
2458060.468368056230247
  9
$TDUPDATE
 40
2459034.4121874999254942
  9
$TDINDWG
 40
0.3582478009
  9
$TDUSRTIMER
 40
0.3582478009
  9
$USRTIMER
 70
     1
  9
$ANGBASE
 50
0.0
  9
$ANGDIR
 70
     0
  9
$PDMODE
 70
     0
  9
$PDSIZE
 40
0.3125
  9
$PLINEWID
 40
0.0
  9
$COORDS
 70
     1
  9
$SPLFRAME
 70
     0
  9
$SPLINETYPE
 70
     6
  9
$SPLINESEGS
 70
     8
  9
$ATTDIA
 70
     1
  9
$ATTREQ
 70
     1
  9
$HANDLING
 70
     1
  9
$HANDSEED
  5
6E26
  9
$SURFTAB1
 70
     6
  9
$SURFTAB2
 70
     6
  9
$SURFTYPE
 70
     6
  9
$SURFU
 70
     6
  9
$SURFV
 70
     6
  9
$UCSNAME
  2

  9
$UCSORG
 10
0.0
 20
0.0
 30
0.0
  9
$UCSXDIR
 10
1.0
 20
0.0
 30
0.0
  9
$UCSYDIR
 10
0.0
 20
1.0
 30
0.0
  9
$PUCSNAME
  2

  9
$PUCSORG
 10
0.0
 20
0.0
 30
0.0
  9
$PUCSXDIR
 10
1.0
 20
0.0
 30
0.0
  9
$PUCSYDIR
 10
0.0
 20
1.0
 30
0.0
  9
$USERI1
 70
     0
  9
$USERI2
 70
     0
  9
$USERI3
 70
     0
  9
$USERI4
 70
     0
  9
$USERI5
 70
     0
  9
$USERR1
 40
0.0
  9
$USERR2
 40
0.0
  9
$USERR3
 40
0.0
  9
$USERR4
 40
0.0
  9
$USERR5
 40
0.0
  9
$WORLDVIEW
 70
     1
  9
$SHADEDGE
 70
     3
  9
$SHADEDIF
 70
    70
  9
$TILEMODE
 70
     1
  9
$MAXACTVP
 70
    64
  9
$PLIMCHECK
 70
     0
  9
$PEXTMIN
 10
1.0000000000000000E+20
 20
1.0000000000000000E+20
 30
1.0000000000000000E+20
  9
$PEXTMAX
 10
-1.0000000000000000E+20
 20
-1.0000000000000000E+20
 30
-1.0000000000000000E+20
  9
$PLIMMIN
 10
0.0
 20
0.0
  9
$PLIMMAX
 10
12.0
 20
9.0
  9
$UNITMODE
 70
     0
  9
$VISRETAIN
 70
     1
  9
$PLINEGEN
 70
     0
  9
$PSLTSCALE
 70
     1
  0
ENDSEC
  0
SECTION
  2
TABLES
  0
TABLE
  2
VPORT
 70
     1
  0
VPORT
  2
*ACTIVE
 70
     0
 10
0.0
 20
0.0
 11
1.0
 21
1.0
 12
0.0
 22
0.0
 13
0.0
 23
0.0
 14
1.0
 24
1.0
 15
0.0
 25
0.0
 16
0.0
 26
0.0
 36
30.3323277020030098
 17
3699.9840087890620453
 27
109.5141432580321066
 37
0.0
 40
7.3062697945650124
 41
3.314341846758349
 42
50.0
 43
0.0
 44
0.0
 50
0.0
 51
0.0
 71
     0
 72
   100
 73
     1
 74
     1
 75
     0
 76
     0
 77
     0
 78
     0
  0
ENDTAB
  0
TABLE
  2
LTYPE
 70
     2
  0
LTYPE
  2
CONTINUOUS
 70
     0
  3
Solid line
 72
    65
 73
     0
 40
0.0
  0
LTYPE
  2
PHANTOM2
 70
     0
  3
___ _ _ ___ _ _ ___ _ _ ___ _ _
 72
    65
 73
     6
 40
1.25
 49
0.625
 49
-0.125
 49
0.125
 49
-0.125
 49
0.125
 49
-0.125
  0
ENDTAB
  0
TABLE
  2
LAYER
 70
     2
  0
LAYER
  2
0
 70
     0
 62
   255
  6
CONTINUOUS
  0
LAYER
  2
DEFPOINTS
 70
     0
 62
     7
  6
CONTINUOUS
  0
ENDTAB
  0
TABLE
  2
STYLE
 70
     1
  0
STYLE
  2
STANDARD
 70
     0
 40
0.0
 41
0.8
 50
0.0
 71
     0
 42
0.2
  3
txt
  4

  0
ENDTAB
  0
TABLE
  2
VIEW
 70
     0
  0
ENDTAB
  0
TABLE
  2
UCS
 70
     0
  0
ENDTAB
  0
TABLE
  2
APPID
 70
     9
  0
APPID
  2
ACAD
 70
     0
  0
APPID
  2
ACAD_MLEADERVER
 70
     0
  0
APPID
  2
ACAD_EXEMPT_FROM_CAD_STANDARDS
 70
     0
  0
APPID
  2
ACAD_NAV_VCDISPLAY
 70
     0
  0
APPID
  2
ACAECLAYERSTANDARD
 70
     0
  0
APPID
  2
ACCMTRANSPARENCY
 70
     0
  0
APPID
  2
ACAD_DSTYLE_DIMJAG
 70
     0
  0
APPID
  2
ACAD_DSTYLE_DIMTALN
 70
     0
  0
APPID
  2
ACDBATTR
 70
     0
  0
ENDTAB
  0
TABLE
  2
DIMSTYLE
 70
     1
  0
DIMSTYLE
  2
STANDARD
 70
     0
  3

  4

  5

  6

  7

 40
1.0
 41
0.1875
 42
0.0625
 43
0.38
 44
0.125
 45
0.0
 46
0.0
 47
0.01
 48
0.01
140
0.15625
141
0.09
142
0.0
143
25.3999999999999986
144
1.0
145
0.0
146
1.0
147
0.09
 71
     1
 72
     0
 73
     1
 74
     1
 75
     0
 76
     0
 77
     0
 78
     4
170
     0
171
     2
172
     0
173
     0
174
     0
175
     0
176
     0
177
     0
178
     0
  0
ENDTAB
  0
ENDSEC
  0
SECTION
  2
BLOCKS
  0
BLOCK
  8
0
  2
$MODEL_SPACE
 70
     0
 10
0.0
 20
0.0
 30
0.0
  3
$MODEL_SPACE
  1

  0
ENDBLK
  5
21
  8
0
  0
BLOCK
 67
     1
  8
0
  2
$PAPER_SPACE
 70
     0
 10
0.0
 20
0.0
 30
0.0
  3
$PAPER_SPACE
  1

  0
ENDBLK
  5
1D
 67
     1
  8
0
  0
BLOCK
  8
0
  2
_FILLED
 70
     0
 10
0.0
 20
0.0
 30
0.0
  3
_FILLED
  1

  0
SOLID
  5
677F
  8
0
  6
BYBLOCK
 62
     0
 10
0.0
 20
0.0
 30
0.0
 11
-1.0
 21
0.1666666667
 31
0.0
 12
-1.0
 22
-0.1666666667
 32
0.0
 13
-1.0
 23
-0.1666666667
 33
0.0
  0
ENDBLK
  5
6780
  8
0
  6
BYBLOCK
 62
     0
  0
ENDSEC
  0
SECTION
  2
ENTITIES
  0
ATTDEF
  5
3930
  8
DEFPOINTS
 10
3699.9845306855258968
 20
105.9886053230302991
 30
0.0
 40
0.001
  1
K-10860A-4ND
  3

  2
MODELNUMBER
 70
     0
1001
ACDBATTR
1070
     0
1070
     1
  0
ATTDEF
  5
3931
  8
DEFPOINTS
 10
3699.9845306855258968
 20
105.986938656363705
 30
0.0
 40
0.001
  1
SINGULIER
  3

  2
TRADENAME
 70
     0
1001
ACDBATTR
1070
     0
1070
     1
  0
ATTDEF
  5
3932
  8
DEFPOINTS
 10
3699.9845306855258968
 20
105.9852719896969973
 30
0.0
 40
0.001
  1
BATHROOM SINK FAUCET
  3

  2
PRODUCT
 70
     0
1001
ACDBATTR
1070
     0
1070
     1
  0
LINE
  5
67DA
  8
0
 10
3699.758037025610065
 20
109.9096918312041993
 30
0.0
 11
3699.7412350780150518
 21
109.9023986469424017
 31
0.0
  0
LINE
  5
67DB
  8
0
 10
3699.9134646961128965
 20
109.9231280204042065
 30
0.0
 11
3699.9106090459149527
 21
109.9181998766424044
 31
0.0
  0
LINE
  5
67DC
  8
0
 10
3699.9106090459149527
 20
109.8810685855423941
 30
0.0
 11
3699.9177360018147738
 21
109.8933679433423976
 31
0.0
  0
LINE
  5
67DD
  8
0
 10
3699.0392151825271867
 20
105.9900063362910032
 30
0.0
 11
3699.0392151825271867
 21
111.8325115040910021
 31
0.0
  0
LINE
  5
67DE
  8
0
 10
3699.0707050557139155
 20
112.9667635268910004
 30
0.0
 11
3699.0392151825271867
 21
111.970306781990999
 31
0.0
  0
LINE
  5
67DF
  8
0
 10
3699.4301668328139385
 20
111.8325115173909978
 30
0.0
 11
3699.4301668328139385
 21
111.4644972260376932
 31
0.0
  0
LINE
  5
67E0
  8
0
 10
3699.4301669300780304
 20
105.9900063362910032
 30
0.0
 11
3699.4301668401840288
 21
109.3385126441209962
 31
0.0
  0
LINE
  5
67E1
  8
0
 10
3699.4525448988138123
 20
109.7802652443424023
 30
0.0
 11
3699.4525448988138123
 21
111.0227628003424059
 31
0.0
  0
LINE
  5
67E2
  8
0
 10
3699.4776441354620147
 20
112.7571181708910046
 30
0.0
 11
3699.4714998217150423
 21
112.5721467657514978
 31
0.0
  0
LINE
  5
67E3
  8
0
 10
3699.4839915975139775
 20
112.9667664394909963
 30
0.0
 11
3699.4776441354620147
 21
112.7571181708910046
 31
0.0
  0
LINE
  5
67E4
  8
0
 10
3699.9106090459149527
 20
109.9181998766424044
 30
0.0
 11
3699.9106090459149527
 21
109.8810685855423941
 31
0.0
  0
LINE
  5
67E5
  8
0
 10
3699.9177360018147738
 20
109.8933679433423976
 30
0.0
 11
3699.9177360018147738
 21
109.9228729868433021
 31
0.0
  0
LINE
  5
67E6
  8
0
 10
3699.5312842678149536
 20
109.8700090064424018
 30
0.0
 11
3700.4367486538149024
 21
109.8700090064424018
 31
0.0
  0
LINE
  5
67E7
  8
0
 10
3700.4367480367150165
 20
110.9330011599424068
 30
0.0
 11
3699.5312848849148395
 21
110.9330011599424068
 31
0.0
  0
LINE
  5
67E8
  8
0
 10
3699.058915163113852
 20
111.8521965433910026
 30
0.0
 11
3700.9091177585150945
 21
111.8521965433910026
 31
0.0
  0
LINE
  5
67E9
  8
0
 10
3699.0392151825271867
 20
111.970306781990999
 30
0.0
 11
3700.9288177391022145
 21
111.970306781990999
 31
0.0
  0
ARC
  5
67EA
  8
0
 10
3699.9853332930338183
 20
111.2915569994322027
 30
0.0
 40
1.4124663814848371
 50
266.9674438536059142
 51
269.9465835502858795
  0
ARC
  5
67EB
  8
0
 10
3699.9089235603150883
 20
110.6898787782424023
 30
0.0
 40
0.8051362520000001
 50
257.3636697683571128
 51
257.9788104741019197
  0
ARC
  5
67EC
  8
0
 10
3699.5367728469032045
 20
109.9542368849305944
 30
0.0
 40
0.0844065164251575
 50
183.7275927843037095
 51
266.2716805710929862
  0
ARC
  5
67ED
  8
0
 10
3699.5464385079048952
 20
110.8391075452791057
 30
0.0
 40
0.0951085861754789
 50
99.1679920631779481
 51
170.8319868684486096
  0
ARC
  5
67EE
  8
0
 10
3699.0607855833150097
 20
111.998306912090996
 30
0.0
 40
0.1181102362
 50
312.0773620824032832
 51
346.2864579574250001
  0
ARC
  5
67EF
  8
0
 10
3699.1927016084141542
 20
111.8521965433910026
 30
0.0
 40
0.0787401575
 50
132.0773620822984071
 51
180.0
  0
ARC
  5
67F0
  8
0
 10
3699.984048280308798
 20
111.1395624284983938
 30
0.0
 40
1.247957536582184
 50
266.9540598982358119
 51
269.9985391147610017
  0
ARC
  5
67F1
  8
0
 10
3699.0610531708980488
 20
111.8303569265645052
 30
0.0
 40
0.021944018328679
 50
95.5912029952896347
 51
174.3653250106962957
  0
ARC
  5
67F2
  8
0
 10
3699.162689900265832
 20
112.9505613918690017
 30
0.0
 40
0.093400860844393
 50
98.1754998090808044
 51
170.0104361058143922
  0
ARC
  5
67F3
  8
0
 10
3699.5629135676040278
 20
112.9642874125808021
 30
0.0
 40
0.0789608949871306
 50
94.4241313346499709
 51
178.200867356805702
  0
ARC
  5
67F4
  8
0
 10
3717.3333767319909384
 20
111.0310406803923939
 30
0.0
 40
17.9282362413089196
 50
175.068785485189693
 51
176.9968806898739899
  0
ARC
  5
67F5
  8
0
 10
3699.5599942853791617
 20
112.7582207791674023
 30
0.0
 40
0.0823575311455234
 50
180.7671027435208941
 51
267.2603636676694805
  0
ARC
  5
67F6
  8
0
 10
3710.4150476828172032
 20
109.0034897403253069
 30
0.0
 40
10.98998851104637
 50
175.9469386215263
 51
178.2531034777724983
  0
ARC
  5
67F7
  8
0
 10
3709.8624557027051196
 20
111.771558212524198
 30
0.0
 40
10.4368068638957503
 50
181.6859407196679967
 51
184.1142573114767913
  0
ARC
  5
67F8
  8
0
 10
3699.4524707033619961
 20
111.8299999734181966
 30
0.0
 40
0.0224448322452776
 50
98.529742814070346
 51
173.575230286235012
  0
ARC
  5
67F9
  8
0
 10
3699.5362663543169219
 20
110.3279832175869046
 30
0.0
 40
0.459531826543424
 50
274.7188122429021178
 51
285.9977954779608922
  0
ARC
  5
67FA
  8
0
 10
3700.0066778296518351
 20
108.6961255840272997
 30
0.0
 40
1.238775720508672
 50
91.0481907253101781
 51
106.111249416083794
  0
ARC
  5
67FB
  8
0
 10
3699.9791540828650795
 20
111.0987171799620938
 30
0.0
 40
1.2211772750101431
 50
258.1857316920406902
 51
270.2281359772590008
  0
ARC
  5
67FC
  8
0
 10
3699.8750115813268167
 20
110.586755702569107
 30
0.0
 40
0.731912998421454
 50
253.1548598708131124
 51
258.3158015079376923
  0
ARC
  5
67FD
  8
0
 10
3699.9829482695481602
 20
111.0509444345026964
 30
0.0
 40
1.1299547915236561
 50
264.0992451245539883
 51
270.0541639903348141
  0
ARC
  5
67FE
  8
0
 10
3699.9777728462809137
 20
111.1839389133249938
 30
0.0
 40
1.267519737543243
 50
263.8143386817457099
 51
266.9625677049638739
  0
LINE
  5
67FF
  8
0
 10
3700.05456822551605
 20
109.9231280204042065
 30
0.0
 11
3700.0574238757149033
 21
109.9181998766424044
 31
0.0
  0
LINE
  5
6800
  8
0
 10
3700.0574238757149033
 20
109.8810685855423941
 30
0.0
 11
3700.0502969198150822
 21
109.8933679433423976
 31
0.0
  0
LINE
  5
6801
  8
0
 10
3700.0574238757149033
 20
109.9181998766424044
 30
0.0
 11
3700.0574238757149033
 21
109.8810685855423941
 31
0.0
  0
LINE
  5
6802
  8
0
 10
3700.0502969198150822
 20
109.8933679433423976
 30
0.0
 11
3700.0502969198150822
 21
109.9228729868433021
 31
0.0
  0
ARC
  5
6803
  8
0
 10
3699.9826996285951282
 20
111.2915569994322027
 30
0.0
 40
1.4124663814848371
 50
270.0534164497141205
 51
273.0325561463939721
  0
ARC
  5
6804
  8
0
 10
3699.9839846413201485
 20
111.1395624284983938
 30
0.0
 40
1.247957536582184
 50
270.0014608852389983
 51
273.0459401017641881
  0
ARC
  5
6805
  8
0
 10
3699.9613550919762019
 20
108.6961255840272997
 30
0.0
 40
1.238775720508672
 50
73.8887505839161776
 51
88.9518092746898361
  0
ARC
  5
6806
  8
0
 10
3699.988878838763867
 20
111.0987171799620938
 30
0.0
 40
1.2211772750101431
 50
269.7718640227408855
 51
281.8142683079593098
  0
ARC
  5
6807
  8
0
 10
3699.9850846520821506
 20
111.0509444345026964
 30
0.0
 40
1.1299547915236561
 50
269.9458360096651859
 51
275.9007548754460117
  0
ARC
  5
6808
  8
0
 10
3699.9902600753480328
 20
111.1839389133249938
 30
0.0
 40
1.267519737543243
 50
273.0374322950360124
 51
276.1856613182544038
  0
LINE
  5
6809
  8
0
 10
3699.0392151825271867
 20
105.9900063362910032
 30
0.0
 11
3700.9288177391022145
 21
105.9900063362910032
 31
0.0
  0
LINE
  5
680A
  8
0
 10
3699.1494077670149636
 20
113.0430130318909931
 30
0.0
 11
3700.8186251546139829
 21
113.0430130318909931
 31
0.0
  0
LINE
  5
680B
  8
0
 10
3699.5560578049139622
 20
112.6759573786909954
 30
0.0
 11
3700.4119751167149843
 21
112.6759573786909954
 31
0.0
  0
LINE
  5
680C
  8
0
 10
3700.9288177391022145
 20
105.9900063362910032
 30
0.0
 11
3700.9288177391022145
 21
111.8325115040910021
 31
0.0
  0
LINE
  5
680D
  8
0
 10
3700.897327865915031
 20
112.9667635268910004
 30
0.0
 11
3700.9288177391022145
 21
111.970306781990999
 31
0.0
  0
LINE
  5
680E
  8
0
 10
3700.537866088815008
 20
111.8325115173909978
 30
0.0
 11
3700.537866088815008
 21
111.4644972260376932
 31
0.0
  0
LINE
  5
680F
  8
0
 10
3700.5378659915518256
 20
105.9900063362910032
 30
0.0
 11
3700.5378660814449177
 21
109.3385126441209962
 31
0.0
  0
LINE
  5
6810
  8
0
 10
3700.5154880228151342
 20
109.7802652443424023
 30
0.0
 11
3700.5154880228151342
 21
111.0227628003424059
 31
0.0
  0
LINE
  5
6811
  8
0
 10
3700.4903887861669318
 20
112.7571181708910046
 30
0.0
 11
3700.4965330999139042
 21
112.5721467657514978
 31
0.0
  0
LINE
  5
6812
  8
0
 10
3700.484041324114969
 20
112.9667664394909963
 30
0.0
 11
3700.4903887861669318
 21
112.7571181708910046
 31
0.0
  0
ARC
  5
6813
  8
0
 10
3700.4312600747261968
 20
109.9542368849305944
 30
0.0
 40
0.0844065164251575
 50
273.7283194289070138
 51
356.2724072156963189
  0
ARC
  5
6814
  8
0
 10
3700.4215944137240513
 20
110.8391075452791057
 30
0.0
 40
0.0951085861754789
 50
9.1680131315513744
 51
80.8320079368220519
  0
ARC
  5
6815
  8
0
 10
3700.9072473383139368
 20
111.998306912090996
 30
0.0
 40
0.1181102362
 50
193.7135420425751136
 51
227.9226379175966883
  0
ARC
  5
6816
  8
0
 10
3700.7753313132147923
 20
111.8521965433910026
 30
0.0
 40
0.0787401575
 50
0.0
 51
47.9226379177016213
  0
ARC
  5
6817
  8
0
 10
3700.9069797507308976
 20
111.8303569265645052
 30
0.0
 40
0.021944018328679
 50
5.634674989303698
 51
84.4087970047103653
  0
ARC
  5
6818
  8
0
 10
3700.8053430213631145
 20
112.9505613918690017
 30
0.0
 40
0.093400860844393
 50
9.9895638941856095
 51
81.8245001909191956
  0
ARC
  5
6819
  8
0
 10
3700.4051193540258282
 20
112.9642874125808021
 30
0.0
 40
0.0789608949871306
 50
1.799132643194274
 51
85.5758686653500149
  0
ARC
  5
681A
  8
0
 10
3682.6346561896380081
 20
111.0310406803923939
 30
0.0
 40
17.9282362413089196
 50
3.0031193101260372
 51
4.9312145148102351
  0
ARC
  5
681B
  8
0
 10
3700.408038636251149
 20
112.7582207791674023
 30
0.0
 40
0.0823575311455234
 50
272.7396363323305195
 51
359.2328972564790774
  0
ARC
  5
681C
  8
0
 10
3689.5529852388121981
 20
109.0034897403253069
 30
0.0
 40
10.98998851104637
 50
1.7468965222275341
 51
4.0530613784736387
  0
ARC
  5
681D
  8
0
 10
3690.1055772189251911
 20
111.771558212524198
 30
0.0
 40
10.4368068638957503
 50
355.8857426885231803
 51
358.3140592803320033
  0
ARC
  5
681E
  8
0
 10
3700.5155622182678599
 20
111.8299999734181966
 30
0.0
 40
0.0224448322452776
 50
6.4247697137650359
 51
81.4702571859296683
  0
ARC
  5
681F
  8
0
 10
3700.4317665673120246
 20
110.3279832175869046
 30
0.0
 40
0.459531826543424
 50
254.0022045220391078
 51
265.2811877570978822
  0
ARC
  5
6820
  8
0
 10
3700.0930213403021298
 20
110.586755702569107
 30
0.0
 40
0.731912998421454
 50
281.6841984920623077
 51
286.8451401291869161
  0
ENDSEC
  0
EOF
