  0
SECTION
  2
HEADER
  9
$ACADVER
  1
AC1009
  9
$INSBASE
 10
3716.1603183869251552
 20
106.2500247249021044
 30
0.0
  9
$EXTMIN
 10
3711.4853382920450713
 20
106.2453510066380034
 30
0.0
  9
$EXTMAX
 10
3717.528693286385078
 20
113.3030314205020943
 30
0.0
  9
$LIMMIN
 10
0.0
 20
0.0
  9
$LIMMAX
 10
11.6929133858000007
 20
8.2677165353999982
  9
$ORTHOMODE
 70
     0
  9
$REGENMODE
 70
     1
  9
$FILLMODE
 70
     1
  9
$QTEXTMODE
 70
     0
  9
$MIRRTEXT
 70
     0
  9
$DRAGMODE
 70
     2
  9
$LTSCALE
 40
0.6431102362
  9
$OSMODE
 70
  3839
  9
$ATTMODE
 70
     1
  9
$TEXTSIZE
 40
0.2
  9
$TRACEWID
 40
0.05
  9
$TEXTSTYLE
  7
STANDARD
  9
$CLAYER
  8
0
  9
$CELTYPE
  6
BYLAYER
  9
$CECOLOR
 62
   256
  9
$DIMSCALE
 40
1.0
  9
$DIMASZ
 40
0.1875
  9
$DIMEXO
 40
0.0625
  9
$DIMDLI
 40
0.4443307087
  9
$DIMRND
 40
0.0
  9
$DIMDLE
 40
0.0
  9
$DIMEXE
 40
0.125
  9
$DIMTP
 40
0.01
  9
$DIMTM
 40
0.01
  9
$DIMTXT
 40
2.0
  9
$DIMCEN
 40
0.1052362205
  9
$DIMTSZ
 40
0.0
  9
$DIMTOL
 70
     1
  9
$DIMLIM
 70
     0
  9
$DIMTIH
 70
     1
  9
$DIMTOH
 70
     1
  9
$DIMSE1
 70
     0
  9
$DIMSE2
 70
     0
  9
$DIMTAD
 70
     0
  9
$DIMZIN
 70
     0
  9
$DIMBLK
  1

  9
$DIMASO
 70
     1
  9
$DIMSHO
 70
     1
  9
$DIMPOST
  1
\X
  9
$DIMAPOST
  1

  9
$DIMALT
 70
     1
  9
$DIMALTD
 70
     2
  9
$DIMALTF
 40
25.3999999999999986
  9
$DIMLFAC
 40
1.0
  9
$DIMTOFL
 70
     0
  9
$DIMTVP
 40
0.0
  9
$DIMTIX
 70
     0
  9
$DIMSOXD
 70
     0
  9
$DIMSAH
 70
     0
  9
$DIMBLK1
  1

  9
$DIMBLK2
  1

  9
$DIMSTYLE
  2
STANDARD
  9
$DIMCLRD
 70
     0
  9
$DIMCLRE
 70
     0
  9
$DIMCLRT
 70
     0
  9
$DIMTFAC
 40
1.0
  9
$DIMGAP
 40
0.09
  9
$LUNITS
 70
     2
  9
$LUPREC
 70
     4
  9
$SKETCHINC
 40
0.1
  9
$FILLETRAD
 40
0.0
  9
$AUNITS
 70
     0
  9
$AUPREC
 70
     0
  9
$MENU
  1
.
  9
$ELEVATION
 40
0.0
  9
$PELEVATION
 40
0.0
  9
$THICKNESS
 40
0.0
  9
$LIMCHECK
 70
     0
  9
$BLIPMODE
 70
     0
  9
$CHAMFERA
 40
0.0
  9
$CHAMFERB
 40
0.0
  9
$SKPOLY
 70
     0
  9
$TDCREATE
 40
2458060.468368056230247
  9
$TDUPDATE
 40
2459034.3950694450177252
  9
$TDINDWG
 40
0.355296412
  9
$TDUSRTIMER
 40
0.355296412
  9
$USRTIMER
 70
     1
  9
$ANGBASE
 50
0.0
  9
$ANGDIR
 70
     0
  9
$PDMODE
 70
     0
  9
$PDSIZE
 40
0.3125
  9
$PLINEWID
 40
0.0
  9
$COORDS
 70
     1
  9
$SPLFRAME
 70
     0
  9
$SPLINETYPE
 70
     6
  9
$SPLINESEGS
 70
     8
  9
$ATTDIA
 70
     1
  9
$ATTREQ
 70
     1
  9
$HANDLING
 70
     1
  9
$HANDSEED
  5
6DD1
  9
$SURFTAB1
 70
     6
  9
$SURFTAB2
 70
     6
  9
$SURFTYPE
 70
     6
  9
$SURFU
 70
     6
  9
$SURFV
 70
     6
  9
$UCSNAME
  2

  9
$UCSORG
 10
0.0
 20
0.0
 30
0.0
  9
$UCSXDIR
 10
1.0
 20
0.0
 30
0.0
  9
$UCSYDIR
 10
0.0
 20
1.0
 30
0.0
  9
$PUCSNAME
  2

  9
$PUCSORG
 10
0.0
 20
0.0
 30
0.0
  9
$PUCSXDIR
 10
1.0
 20
0.0
 30
0.0
  9
$PUCSYDIR
 10
0.0
 20
1.0
 30
0.0
  9
$USERI1
 70
     0
  9
$USERI2
 70
     0
  9
$USERI3
 70
     0
  9
$USERI4
 70
     0
  9
$USERI5
 70
     0
  9
$USERR1
 40
0.0
  9
$USERR2
 40
0.0
  9
$USERR3
 40
0.0
  9
$USERR4
 40
0.0
  9
$USERR5
 40
0.0
  9
$WORLDVIEW
 70
     1
  9
$SHADEDGE
 70
     3
  9
$SHADEDIF
 70
    70
  9
$TILEMODE
 70
     1
  9
$MAXACTVP
 70
    64
  9
$PLIMCHECK
 70
     0
  9
$PEXTMIN
 10
1.0000000000000000E+20
 20
1.0000000000000000E+20
 30
1.0000000000000000E+20
  9
$PEXTMAX
 10
-1.0000000000000000E+20
 20
-1.0000000000000000E+20
 30
-1.0000000000000000E+20
  9
$PLIMMIN
 10
0.0
 20
0.0
  9
$PLIMMAX
 10
12.0
 20
9.0
  9
$UNITMODE
 70
     0
  9
$VISRETAIN
 70
     1
  9
$PLINEGEN
 70
     0
  9
$PSLTSCALE
 70
     1
  0
ENDSEC
  0
SECTION
  2
TABLES
  0
TABLE
  2
VPORT
 70
     1
  0
VPORT
  2
*ACTIVE
 70
     0
 10
0.0
 20
0.0
 11
1.0
 21
1.0
 12
0.0
 22
0.0
 13
0.0
 23
0.0
 14
1.0
 24
1.0
 15
0.0
 25
0.0
 16
0.0
 26
0.0
 36
38.5746106462001705
 17
3714.507080078125
 27
109.7741914640124037
 37
0.0
 40
9.2916216444156028
 41
3.314341846758349
 42
50.0
 43
0.0
 44
0.0
 50
0.0
 51
0.0
 71
     0
 72
   100
 73
     1
 74
     1
 75
     0
 76
     0
 77
     0
 78
     0
  0
ENDTAB
  0
TABLE
  2
LTYPE
 70
     2
  0
LTYPE
  2
CONTINUOUS
 70
     0
  3
Solid line
 72
    65
 73
     0
 40
0.0
  0
LTYPE
  2
PHANTOM2
 70
     0
  3
___ _ _ ___ _ _ ___ _ _ ___ _ _
 72
    65
 73
     6
 40
1.25
 49
0.625
 49
-0.125
 49
0.125
 49
-0.125
 49
0.125
 49
-0.125
  0
ENDTAB
  0
TABLE
  2
LAYER
 70
     2
  0
LAYER
  2
0
 70
     0
 62
   255
  6
CONTINUOUS
  0
LAYER
  2
DEFPOINTS
 70
     0
 62
     7
  6
CONTINUOUS
  0
ENDTAB
  0
TABLE
  2
STYLE
 70
     1
  0
STYLE
  2
STANDARD
 70
     0
 40
0.0
 41
0.8
 50
0.0
 71
     0
 42
0.2
  3
txt
  4

  0
ENDTAB
  0
TABLE
  2
VIEW
 70
     0
  0
ENDTAB
  0
TABLE
  2
UCS
 70
     0
  0
ENDTAB
  0
TABLE
  2
APPID
 70
     9
  0
APPID
  2
ACAD
 70
     0
  0
APPID
  2
ACAD_MLEADERVER
 70
     0
  0
APPID
  2
ACAD_EXEMPT_FROM_CAD_STANDARDS
 70
     0
  0
APPID
  2
ACAD_NAV_VCDISPLAY
 70
     0
  0
APPID
  2
ACAECLAYERSTANDARD
 70
     0
  0
APPID
  2
ACCMTRANSPARENCY
 70
     0
  0
APPID
  2
ACAD_DSTYLE_DIMJAG
 70
     0
  0
APPID
  2
ACAD_DSTYLE_DIMTALN
 70
     0
  0
APPID
  2
ACDBATTR
 70
     0
  0
ENDTAB
  0
TABLE
  2
DIMSTYLE
 70
     1
  0
DIMSTYLE
  2
STANDARD
 70
     0
  3

  4

  5

  6

  7

 40
1.0
 41
0.1875
 42
0.0625
 43
0.38
 44
0.125
 45
0.0
 46
0.0
 47
0.01
 48
0.01
140
0.15625
141
0.09
142
0.0
143
25.3999999999999986
144
1.0
145
0.0
146
1.0
147
0.09
 71
     1
 72
     0
 73
     1
 74
     1
 75
     0
 76
     0
 77
     0
 78
     4
170
     0
171
     2
172
     0
173
     0
174
     0
175
     0
176
     0
177
     0
178
     0
  0
ENDTAB
  0
ENDSEC
  0
SECTION
  2
BLOCKS
  0
BLOCK
  8
0
  2
$MODEL_SPACE
 70
     0
 10
0.0
 20
0.0
 30
0.0
  3
$MODEL_SPACE
  1

  0
ENDBLK
  5
21
  8
0
  0
BLOCK
 67
     1
  8
0
  2
$PAPER_SPACE
 70
     0
 10
0.0
 20
0.0
 30
0.0
  3
$PAPER_SPACE
  1

  0
ENDBLK
  5
1D
 67
     1
  8
0
  0
BLOCK
  8
0
  2
_FILLED
 70
     0
 10
0.0
 20
0.0
 30
0.0
  3
_FILLED
  1

  0
SOLID
  5
677F
  8
0
  6
BYBLOCK
 62
     0
 10
0.0
 20
0.0
 30
0.0
 11
-1.0
 21
0.1666666667
 31
0.0
 12
-1.0
 22
-0.1666666667
 32
0.0
 13
-1.0
 23
-0.1666666667
 33
0.0
  0
ENDBLK
  5
6780
  8
0
  6
BYBLOCK
 62
     0
  0
ENDSEC
  0
SECTION
  2
ENTITIES
  0
ATTDEF
  5
3930
  8
DEFPOINTS
 10
3716.1491872346518903
 20
106.2486843399714047
 30
0.0
 40
0.001
  1
K-10860IN-4
  3

  2
MODELNUMBER
 70
     0
1001
ACDBATTR
1070
     0
1070
     1
  0
ATTDEF
  5
3931
  8
DEFPOINTS
 10
3716.1491872346518903
 20
106.2470176733046969
 30
0.0
 40
0.001
  1
SINGULIER
  3

  2
TRADENAME
 70
     0
1001
ACDBATTR
1070
     0
1070
     1
  0
ATTDEF
  5
3932
  8
DEFPOINTS
 10
3716.1491872346518903
 20
106.2453510066380034
 30
0.0
 40
0.001
  1
BATHROOM SINK FAUCET
  3

  2
PRODUCT
 70
     0
1001
ACDBATTR
1070
     0
1070
     1
  0
LINE
  5
6A74
  8
0
 10
3715.2214807006030242
 20
106.2500247249021044
 30
0.0
 11
3717.099156073245922
 21
106.2500247249021044
 31
0.0
  0
LINE
  5
6A75
  8
0
 10
3717.0855281063459188
 20
112.6422536248578012
 30
0.0
 11
3716.1603190772461858
 21
112.2303251706021001
 31
0.0
  0
LINE
  5
6A76
  8
0
 10
3715.2214791333490211
 20
111.7245583080294011
 30
0.0
 11
3715.2214807746458973
 21
112.0925289692576996
 31
0.0
  0
LINE
  5
6A77
  8
0
 10
3715.2214807006030242
 20
106.2500247249021044
 30
0.0
 11
3715.2214806551369293
 21
109.5985313521536
 31
0.0
  0
LINE
  5
6A78
  8
0
 10
3712.0163145578248987
 20
110.1300273950536024
 30
0.0
 11
3714.6899845895368344
 21
110.1300273950536024
 31
0.0
  0
LINE
  5
6A79
  8
0
 10
3717.0708845416470467
 20
113.1437380584576999
 30
0.0
 11
3717.0684652073459802
 21
113.2265909436576976
 31
0.0
  0
LINE
  5
6A7A
  8
0
 10
3717.0823825498459883
 20
112.7499764189577007
 30
0.0
 11
3717.0855281063459188
 21
112.6422536248578012
 31
0.0
  0
LINE
  5
6A7B
  8
0
 10
3714.6899845901371009
 20
111.1930195485535933
 30
0.0
 11
3712.0163142835281178
 21
111.1930195485535933
 31
0.0
  0
LINE
  5
6A7C
  8
0
 10
3717.0797779159470338
 20
112.1122149320021038
 30
0.0
 11
3715.2409678975459428
 21
112.1122149320021038
 31
0.0
  0
LINE
  5
6A7D
  8
0
 10
3715.2193720527220648
 20
112.2303251706021001
 30
0.0
 11
3716.1603190772461858
 21
112.2303251706021001
 31
0.0
  0
LINE
  5
6A7E
  8
0
 10
3713.0943138503848786
 20
112.9359757673020965
 30
0.0
 11
3714.6878734476458703
 21
112.9359757673020965
 31
0.0
  0
LINE
  5
6A7F
  8
0
 10
3716.9897572133459107
 20
113.3030314205020943
 30
0.0
 11
3713.1126846016218224
 21
113.3030314205020943
 31
0.0
  0
ARC
  5
6A80
  8
0
 10
3716.1603191482458897
 20
112.198406575457696
 30
0.0
 40
0.8070866141999999
 50
3.7131996796996609
 51
26.0704101786754983
  0
ARC
  5
6A81
  8
0
 10
3714.655206906469175
 20
109.5637536449007001
 30
0.0
 40
0.5673406801488513
 50
3.514406687747671
 51
86.485595759330721
  0
ARC
  5
6A82
  8
0
 10
3714.6890854404650781
 20
111.7254131684800029
 30
0.0
 40
0.5323943792044693
 50
270.0967656831466002
 51
359.908000687360925
  0
ARC
  5
6A83
  8
0
 10
3717.0835737559459631
 20
112.2583243628577065
 30
0.0
 40
0.1181102362
 50
183.7131996796996134
 51
227.9226379175966883
  0
ARC
  5
6A84
  8
0
 10
3715.2370645404462266
 20
112.2583243628577065
 30
0.0
 40
0.1181102362
 50
312.0773620824032832
 51
346.2869262591194115
  0
ARC
  5
6A85
  8
0
 10
3715.3689805655458258
 20
112.1122139941577984
 30
0.0
 40
0.0787401575
 50
132.0773620821940142
 51
179.9993175715347888
  0
ARC
  5
6A86
  8
0
 10
3716.9516577309459535
 20
112.1122139941577984
 30
0.0
 40
0.0787401575
 50
0.0006824284668366
 51
47.9226379178060071
  0
LINE
  5
6A87
  8
0
 10
3717.099156073245922
 20
106.2500247249021044
 30
0.0
 11
3717.099156073245922
 21
108.0605542493679962
 31
0.0
  0
LINE
  5
6A88
  8
0
 10
3717.099156073245922
 20
108.5067393226107981
 30
0.0
 11
3717.099156073245922
 21
112.0925589959800988
 31
0.0
  0
ARC
  5
6A89
  8
0
 10
3717.0783975203730733
 20
112.0914739241604963
 30
0.0
 40
0.0207868924619072
 50
2.9921886695469939
 51
86.1923559989771775
  0
ARC
  5
6A8A
  8
0
 10
3715.2431852799468288
 20
112.0905318193727993
 30
0.0
 40
0.0217961959526967
 50
95.838946642352937
 51
174.7427071054374039
  0
ARC
  5
6A8B
  8
0
 10
3712.01683462336905
 20
110.661523471937798
 30
0.0
 40
0.5314963313245931
 50
90.0560931087794074
 51
269.9439364610158236
  0
ARC
  5
6A8C
  8
0
 10
3712.9699346321258417
 20
113.1195472479146957
 30
0.0
 40
0.169373002149464
 50
151.2545277097204064
 51
209.6910090871454884
  0
ARC
  5
6A8D
  8
0
 10
3712.975226663687863
 20
113.1017890738894067
 30
0.0
 40
0.1830171706399094
 50
100.0680814613419045
 51
147.1735351315109881
  0
ARC
  5
6A8E
  8
0
 10
3713.1574736513139214
 20
112.2495880556702019
 30
0.0
 40
1.0543950786497369
 50
92.4345674134570743
 51
101.7235190516002064
  0
ARC
  5
6A8F
  8
0
 10
3713.1203040948848866
 20
113.6708670733409008
 30
0.0
 40
0.7353507493030054
 50
257.9523584396554838
 51
267.9745155205040987
  0
ARC
  5
6A90
  8
0
 10
3712.9870112395619799
 20
113.1518789041760016
 30
0.0
 40
0.2011820152908991
 50
215.2899958071234039
 51
264.2393641255515035
  0
ARC
  5
6A91
  8
0
 10
3714.6684023858820183
 20
112.4044541753174968
 30
0.0
 40
0.5318781110292714
 50
44.6023058461954491
 51
87.9020400152530783
  0
ARC
  5
6A92
  8
0
 10
3714.1957901347009283
 20
112.2092114625402957
 30
0.0
 40
1.023799654018364
 50
1.181688354404812
 51
33.7449643457735178
  0
ARC
  5
6A93
  8
0
 10
3716.97727306721481
 20
113.2114353211884037
 30
0.0
 40
0.0924429516735492
 50
9.4359922950576962
 51
82.2386605470756678
  0
ARC
  5
6A94
  8
0
 10
3717.9642222212942215
 20
112.9727752074633003
 30
0.0
 40
0.9095496172828273
 50
169.1659935417499128
 51
194.1791784135936894
  0
ARC
  5
6A95
  8
0
 10
3717.5039102826572162
 20
108.4741576127078986
 30
0.0
 40
0.0247830037285172
 50
359.3159714599527206
 51
74.1056039399776409
  0
ARC
  5
6A96
  8
0
 10
3717.3727552807440588
 20
108.0161080040057016
 30
0.0
 40
0.5012397746406757
 50
74.0259458694075505
 51
88.0506460700128599
  0
ARC
  5
6A97
  8
0
 10
3717.7020979726121368
 20
178.3865960751942055
 30
0.0
 40
69.8702362869625233
 50
269.569675035817113
 51
269.7439095449734054
  0
ARC
  5
6A98
  8
0
 10
3717.2043661876027727
 20
108.0665655530729055
 30
0.0
 40
0.4525727737637793
 50
93.4240147123258424
 51
136.1226562161629943
  0
ARC
  5
6A99
  8
0
 10
3717.4498027296631335
 20
107.9379123693332048
 30
0.0
 40
0.722815131945687
 50
142.2681347237449927
 51
168.2141398140520892
  0
LINE
  5
6A9A
  8
0
 10
3716.7422261122578675
 20
108.0855505943021058
 30
0.0
 11
3716.6731724087940165
 21
107.7995506224757065
 31
0.0
  0
LINE
  5
6A9B
  8
0
 10
3716.6731724087940165
 20
107.7995506224757065
 30
0.0
 11
3716.6731133714611133
 21
107.2957306566708979
 31
0.0
  0
ARC
  5
6A9C
  8
0
 10
3716.6927983846881034
 20
107.295748174876806
 30
0.0
 40
0.0196850210220685
 50
180.0509889927010931
 51
270.0146945142793129
  0
LINE
  5
6A9D
  8
0
 10
3716.6928034332590869
 20
107.2760631545020971
 30
0.0
 11
3716.8884173266010293
 21
107.2760371992854971
 31
0.0
  0
ARC
  5
6A9E
  8
0
 10
3716.8884216893297889
 20
107.2957208569282983
 30
0.0
 40
0.0196836581263581
 50
269.987300838321687
 51
346.3750302454178041
  0
LINE
  5
6A9F
  8
0
 10
3716.9075514184578424
 20
107.2910840627020974
 30
0.0
 11
3717.0796448641372081
 21
107.9979615153269066
 31
0.0
  0
ARC
  5
6AA0
  8
0
 10
3717.4853238010409768
 20
107.9058419132741022
 30
0.0
 40
0.4160065154899464
 50
119.4162978143367013
 51
167.2064991852423077
  0
ARC
  5
6AA1
  8
0
 10
3717.4407849246890692
 20
109.1819816009159041
 30
0.0
 40
0.9276320214999604
 50
260.0814135233625279
 51
272.1015372176659071
  0
ARC
  5
6AA2
  8
0
 10
3717.4712547317431017
 20
108.3053983506101048
 30
0.0
 40
0.0505494494677231
 50
274.0236229352108239
 51
328.0968513721325053
  0
LINE
  5
6AA3
  8
0
 10
3717.5141683151591678
 20
108.2786837254021037
 30
0.0
 11
3717.5286915202577802
 21
108.4738617466020969
 31
0.0
  0
ARC
  5
6AA4
  8
0
 10
3717.4975569410630669
 20
108.5054809485047969
 30
0.0
 40
0.015124202814294
 50
279.2505820186087249
 51
330.3243504791475971
  0
ARC
  5
6AA5
  8
0
 10
3717.4499472852089639
 20
109.3270209967974012
 30
0.0
 40
0.8379630459352942
 50
259.2572559282880889
 51
273.4235875273766965
  0
ARC
  5
6AA6
  8
0
 10
3717.1613340129138123
 20
107.918762253624493
 30
0.0
 40
0.5997816900312839
 50
77.2453965716120337
 51
88.4711484590351063
  0
ARC
  5
6AA7
  8
0
 10
3717.180220543023097
 20
107.8913737342968062
 30
0.0
 40
0.3900842506386041
 50
75.0274029243649068
 51
101.9942028607470945
  0
ARC
  5
6AA8
  8
0
 10
3717.2409621851461452
 20
107.910507184459405
 30
0.0
 40
0.3891887783519778
 50
111.3684050351700989
 51
166.9547360661242124
  0
LINE
  5
6AA9
  8
0
 10
3716.8618175719639112
 20
107.9983551638888031
 30
0.0
 11
3716.6731133714611133
 21
107.2957306566708979
 31
0.0
  0
ARC
  5
6AAA
  8
0
 10
3716.6851751702088222
 20
107.2853444059393979
 30
0.0
 40
0.1496441437582985
 50
303.2747969929563965
 51
356.4368963176385137
  0
ARC
  5
6AAB
  8
0
 10
3716.8597367976699388
 20
107.2963560893524999
 30
0.0
 40
0.1645528869310682
 50
187.0840132686662969
 51
235.8142449224453117
  0
ENDSEC
  0
EOF
