  0
SECTION
  2
HEADER
  9
$ACADVER
  1
AC1009
  9
$INSBASE
 10
3695.3350308035419403
 20
105.9442521412969
 30
0.0
  9
$EXTMIN
 10
3694.390229525254199
 20
105.9387176263824983
 30
0.0
  9
$EXTMAX
 10
3696.2798320818292268
 20
118.9657775628969034
 30
0.0
  9
$LIMMIN
 10
0.0
 20
0.0
  9
$LIMMAX
 10
11.6929133858000007
 20
8.2677165353999982
  9
$ORTHOMODE
 70
     1
  9
$REGENMODE
 70
     1
  9
$FILLMODE
 70
     1
  9
$QTEXTMODE
 70
     0
  9
$MIRRTEXT
 70
     0
  9
$DRAGMODE
 70
     2
  9
$LTSCALE
 40
0.6431102362
  9
$OSMODE
 70
  3839
  9
$ATTMODE
 70
     1
  9
$TEXTSIZE
 40
0.2
  9
$TRACEWID
 40
0.05
  9
$TEXTSTYLE
  7
STANDARD
  9
$CLAYER
  8
0
  9
$CELTYPE
  6
BYLAYER
  9
$CECOLOR
 62
   256
  9
$DIMSCALE
 40
1.0
  9
$DIMASZ
 40
0.1875
  9
$DIMEXO
 40
0.0625
  9
$DIMDLI
 40
0.4443307087
  9
$DIMRND
 40
0.0
  9
$DIMDLE
 40
0.0
  9
$DIMEXE
 40
0.125
  9
$DIMTP
 40
0.01
  9
$DIMTM
 40
0.01
  9
$DIMTXT
 40
2.0
  9
$DIMCEN
 40
0.1052362205
  9
$DIMTSZ
 40
0.0
  9
$DIMTOL
 70
     1
  9
$DIMLIM
 70
     0
  9
$DIMTIH
 70
     1
  9
$DIMTOH
 70
     1
  9
$DIMSE1
 70
     0
  9
$DIMSE2
 70
     0
  9
$DIMTAD
 70
     0
  9
$DIMZIN
 70
     0
  9
$DIMBLK
  1

  9
$DIMASO
 70
     1
  9
$DIMSHO
 70
     1
  9
$DIMPOST
  1
\X
  9
$DIMAPOST
  1

  9
$DIMALT
 70
     1
  9
$DIMALTD
 70
     2
  9
$DIMALTF
 40
25.3999999999999986
  9
$DIMLFAC
 40
1.0
  9
$DIMTOFL
 70
     0
  9
$DIMTVP
 40
0.0
  9
$DIMTIX
 70
     0
  9
$DIMSOXD
 70
     0
  9
$DIMSAH
 70
     0
  9
$DIMBLK1
  1

  9
$DIMBLK2
  1

  9
$DIMSTYLE
  2
STANDARD
  9
$DIMCLRD
 70
     0
  9
$DIMCLRE
 70
     0
  9
$DIMCLRT
 70
     0
  9
$DIMTFAC
 40
1.0
  9
$DIMGAP
 40
0.09
  9
$LUNITS
 70
     2
  9
$LUPREC
 70
     4
  9
$SKETCHINC
 40
0.1
  9
$FILLETRAD
 40
0.0
  9
$AUNITS
 70
     0
  9
$AUPREC
 70
     0
  9
$MENU
  1
.
  9
$ELEVATION
 40
0.0
  9
$PELEVATION
 40
0.0
  9
$THICKNESS
 40
0.0
  9
$LIMCHECK
 70
     0
  9
$BLIPMODE
 70
     0
  9
$CHAMFERA
 40
0.0
  9
$CHAMFERB
 40
0.0
  9
$SKPOLY
 70
     0
  9
$TDCREATE
 40
2458060.468368056230247
  9
$TDUPDATE
 40
2459044.7060532411560416
  9
$TDINDWG
 40
0.3440579861
  9
$TDUSRTIMER
 40
0.3440579861
  9
$USRTIMER
 70
     1
  9
$ANGBASE
 50
0.0
  9
$ANGDIR
 70
     0
  9
$PDMODE
 70
     0
  9
$PDSIZE
 40
0.3125
  9
$PLINEWID
 40
0.0
  9
$COORDS
 70
     1
  9
$SPLFRAME
 70
     0
  9
$SPLINETYPE
 70
     6
  9
$SPLINESEGS
 70
     8
  9
$ATTDIA
 70
     1
  9
$ATTREQ
 70
     1
  9
$HANDLING
 70
     1
  9
$HANDSEED
  5
6993
  9
$SURFTAB1
 70
     6
  9
$SURFTAB2
 70
     6
  9
$SURFTYPE
 70
     6
  9
$SURFU
 70
     6
  9
$SURFV
 70
     6
  9
$UCSNAME
  2

  9
$UCSORG
 10
0.0
 20
0.0
 30
0.0
  9
$UCSXDIR
 10
1.0
 20
0.0
 30
0.0
  9
$UCSYDIR
 10
0.0
 20
1.0
 30
0.0
  9
$PUCSNAME
  2

  9
$PUCSORG
 10
0.0
 20
0.0
 30
0.0
  9
$PUCSXDIR
 10
1.0
 20
0.0
 30
0.0
  9
$PUCSYDIR
 10
0.0
 20
1.0
 30
0.0
  9
$USERI1
 70
     0
  9
$USERI2
 70
     0
  9
$USERI3
 70
     0
  9
$USERI4
 70
     0
  9
$USERI5
 70
     0
  9
$USERR1
 40
0.0
  9
$USERR2
 40
0.0
  9
$USERR3
 40
0.0
  9
$USERR4
 40
0.0
  9
$USERR5
 40
0.0
  9
$WORLDVIEW
 70
     1
  9
$SHADEDGE
 70
     3
  9
$SHADEDIF
 70
    70
  9
$TILEMODE
 70
     1
  9
$MAXACTVP
 70
    64
  9
$PLIMCHECK
 70
     0
  9
$PEXTMIN
 10
1.0000000000000000E+20
 20
1.0000000000000000E+20
 30
1.0000000000000000E+20
  9
$PEXTMAX
 10
-1.0000000000000000E+20
 20
-1.0000000000000000E+20
 30
-1.0000000000000000E+20
  9
$PLIMMIN
 10
0.0
 20
0.0
  9
$PLIMMAX
 10
12.0
 20
9.0
  9
$UNITMODE
 70
     0
  9
$VISRETAIN
 70
     1
  9
$PLINEGEN
 70
     0
  9
$PSLTSCALE
 70
     1
  0
ENDSEC
  0
SECTION
  2
TABLES
  0
TABLE
  2
VPORT
 70
     1
  0
VPORT
  2
*ACTIVE
 70
     0
 10
0.0
 20
0.0
 11
1.0
 21
1.0
 12
0.0
 22
0.0
 13
0.0
 23
0.0
 14
1.0
 24
1.0
 15
0.0
 25
0.0
 16
0.0
 26
0.0
 36
54.6484648588451805
 17
3695.3349609375009095
 27
112.4522460812576981
 37
0.0
 40
13.1633955705668306
 41
3.314341846758349
 42
50.0
 43
0.0
 44
0.0
 50
0.0
 51
0.0
 71
     0
 72
   100
 73
     1
 74
     1
 75
     0
 76
     0
 77
     0
 78
     0
  0
ENDTAB
  0
TABLE
  2
LTYPE
 70
     2
  0
LTYPE
  2
CONTINUOUS
 70
     0
  3
Solid line
 72
    65
 73
     0
 40
0.0
  0
LTYPE
  2
PHANTOM2
 70
     0
  3
___ _ _ ___ _ _ ___ _ _ ___ _ _
 72
    65
 73
     6
 40
1.25
 49
0.625
 49
-0.125
 49
0.125
 49
-0.125
 49
0.125
 49
-0.125
  0
ENDTAB
  0
TABLE
  2
LAYER
 70
     2
  0
LAYER
  2
0
 70
     0
 62
   255
  6
CONTINUOUS
  0
LAYER
  2
DEFPOINTS
 70
     0
 62
     7
  6
CONTINUOUS
  0
ENDTAB
  0
TABLE
  2
STYLE
 70
     1
  0
STYLE
  2
STANDARD
 70
     0
 40
0.0
 41
0.8
 50
0.0
 71
     0
 42
0.2
  3
txt
  4

  0
ENDTAB
  0
TABLE
  2
VIEW
 70
     0
  0
ENDTAB
  0
TABLE
  2
UCS
 70
     0
  0
ENDTAB
  0
TABLE
  2
APPID
 70
     9
  0
APPID
  2
ACAD
 70
     0
  0
APPID
  2
ACAD_MLEADERVER
 70
     0
  0
APPID
  2
ACAD_EXEMPT_FROM_CAD_STANDARDS
 70
     0
  0
APPID
  2
ACAD_NAV_VCDISPLAY
 70
     0
  0
APPID
  2
ACAECLAYERSTANDARD
 70
     0
  0
APPID
  2
ACCMTRANSPARENCY
 70
     0
  0
APPID
  2
ACAD_DSTYLE_DIMJAG
 70
     0
  0
APPID
  2
ACAD_DSTYLE_DIMTALN
 70
     0
  0
APPID
  2
ACDBATTR
 70
     0
  0
ENDTAB
  0
TABLE
  2
DIMSTYLE
 70
     1
  0
DIMSTYLE
  2
STANDARD
 70
     0
  3

  4

  5

  6

  7

 40
1.0
 41
0.1875
 42
0.0625
 43
0.38
 44
0.125
 45
0.0
 46
0.0
 47
0.01
 48
0.01
140
0.15625
141
0.09
142
0.0
143
25.3999999999999986
144
1.0
145
0.0
146
1.0
147
0.09
 71
     1
 72
     0
 73
     1
 74
     1
 75
     0
 76
     0
 77
     0
 78
     4
170
     0
171
     2
172
     0
173
     0
174
     0
175
     0
176
     0
177
     0
178
     0
  0
ENDTAB
  0
ENDSEC
  0
SECTION
  2
BLOCKS
  0
BLOCK
  8
0
  2
$MODEL_SPACE
 70
     0
 10
0.0
 20
0.0
 30
0.0
  3
$MODEL_SPACE
  1

  0
ENDBLK
  5
21
  8
0
  0
BLOCK
 67
     1
  8
0
  2
$PAPER_SPACE
 70
     0
 10
0.0
 20
0.0
 30
0.0
  3
$PAPER_SPACE
  1

  0
ENDBLK
  5
1D
 67
     1
  8
0
  0
ENDSEC
  0
SECTION
  2
ENTITIES
  0
ATTDEF
  5
3930
  8
DEFPOINTS
 10
3695.3290791704521325
 20
105.9420509597158002
 30
0.0
 40
0.001
  1
K-10861A-4ND
  3

  2
MODELNUMBER
 70
     0
1001
ACDBATTR
1070
     0
1070
     1
  0
ATTDEF
  5
3931
  8
DEFPOINTS
 10
3695.3290791704521325
 20
105.9403842930492061
 30
0.0
 40
0.001
  1
SINGULIER
  3

  2
TRADENAME
 70
     0
1001
ACDBATTR
1070
     0
1070
     1
  0
ATTDEF
  5
3932
  8
DEFPOINTS
 10
3695.3290791704521325
 20
105.9387176263824983
 30
0.0
 40
0.001
  1
BATHROOM SINK FAUCET
  3

  2
PRODUCT
 70
     0
1001
ACDBATTR
1070
     0
1070
     1
  0
LINE
  5
6597
  8
0
 10
3695.1090513683370773
 20
115.4327570378585932
 30
0.0
 11
3695.0922494207420641
 21
115.4254638535968951
 31
0.0
  0
LINE
  5
6598
  8
0
 10
3695.2644790388399088
 20
115.4461932270586004
 30
0.0
 11
3695.261623388641965
 21
115.4412650832968978
 31
0.0
  0
LINE
  5
6599
  8
0
 10
3695.261623388641965
 20
115.4041337921969017
 30
0.0
 11
3695.2687503445408765
 21
115.4164331499969052
 31
0.0
  0
LINE
  5
659A
  8
0
 10
3694.390229525254199
 20
105.9442521412969
 30
0.0
 11
3694.390229525254199
 21
117.7552760350968981
 31
0.0
  0
LINE
  5
659B
  8
0
 10
3694.4217193984409278
 20
118.8895280578968965
 30
0.0
 11
3694.390229525254199
 21
117.893071312996895
 31
0.0
  0
LINE
  5
659C
  8
0
 10
3694.7811811755409508
 20
117.7552760483968939
 30
0.0
 11
3694.7811811755409508
 21
116.9875624326969046
 31
0.0
  0
LINE
  5
659D
  8
0
 10
3694.781181433032998
 20
105.9442521412969
 30
0.0
 11
3694.7811811936408048
 21
114.8615782025969025
 31
0.0
  0
LINE
  5
659E
  8
0
 10
3694.8035592415421888
 20
115.3033304509968957
 30
0.0
 11
3694.8035592415421888
 21
116.5458280069968993
 31
0.0
  0
LINE
  5
659F
  8
0
 10
3694.8283692254408379
 20
118.6798827018969007
 30
0.0
 11
3694.8225141644420546
 21
118.4949112967573939
 31
0.0
  0
LINE
  5
65A0
  8
0
 10
3694.8350059402409897
 20
118.8895309704969065
 30
0.0
 11
3694.8283692254408379
 21
118.6798827018969007
 31
0.0
  0
LINE
  5
65A1
  8
0
 10
3695.261623388641965
 20
115.4412650832968978
 30
0.0
 11
3695.261623388641965
 21
115.4041337921969017
 31
0.0
  0
LINE
  5
65A2
  8
0
 10
3695.2687503445408765
 20
115.4164331499969052
 30
0.0
 11
3695.2687503445408765
 21
115.445938193497696
 31
0.0
  0
LINE
  5
65A3
  8
0
 10
3694.8822986105419659
 20
115.3930742130968952
 30
0.0
 11
3695.7877629965419146
 21
115.3930742130968952
 31
0.0
  0
LINE
  5
65A4
  8
0
 10
3695.7877623794420288
 20
116.4560663665969003
 30
0.0
 11
3694.8822992276409423
 21
116.4560663665969003
 31
0.0
  0
LINE
  5
65A5
  8
0
 10
3694.4099295058408643
 20
117.7749610743968987
 30
0.0
 11
3696.2601321012421067
 21
117.7749610743968987
 31
0.0
  0
LINE
  5
65A6
  8
0
 10
3694.390229525254199
 20
117.893071312996895
 30
0.0
 11
3696.2798320818292268
 21
117.893071312996895
 31
0.0
  0
ARC
  5
65A7
  8
0
 10
3695.3363476357608306
 20
116.8146222060865966
 30
0.0
 40
1.4124663814848371
 50
266.9674438536059142
 51
269.9465835502858795
  0
ARC
  5
65A8
  8
0
 10
3695.259937903041191
 20
116.2129439848968957
 30
0.0
 40
0.8051362520000001
 50
257.3636697683575107
 51
257.9788104741019197
  0
ARC
  5
65A9
  8
0
 10
3694.8877871896311262
 20
115.4773020915850026
 30
0.0
 40
0.0844065164251575
 50
183.7275927843053012
 51
266.2716805710928725
  0
ARC
  5
65AA
  8
0
 10
3694.897452850632817
 20
116.3621727519335991
 30
0.0
 40
0.0951085861754789
 50
99.1679920631776923
 51
170.8319868684502012
  0
ARC
  5
65AB
  8
0
 10
3694.4117999260411125
 20
117.9210714430969063
 30
0.0
 40
0.1181102362
 50
312.0773620824016916
 51
346.2864579574304003
  0
ARC
  5
65AC
  8
0
 10
3694.5437159511411664
 20
117.7749610743968987
 30
0.0
 40
0.0787401575
 50
132.0773620822988903
 51
180.0
  0
ARC
  5
65AD
  8
0
 10
3695.3350626230358102
 20
116.662627635152802
 30
0.0
 40
1.247957536582184
 50
266.9540598982359256
 51
269.9985391147610017
  0
ARC
  5
65AE
  8
0
 10
3694.4120675136259706
 20
117.7531214575704013
 30
0.0
 40
0.021944018328679
 50
95.5912029952895352
 51
174.3653250106947041
  0
ARC
  5
65AF
  8
0
 10
3694.5137042429928442
 20
118.8733259228748977
 30
0.0
 40
0.093400860844393
 50
98.175499809081046
 51
170.0104361058126869
  0
ARC
  5
65B0
  8
0
 10
3694.91392791033104
 20
118.8870519435866981
 30
0.0
 40
0.0789608949871306
 50
94.4241313346499282
 51
178.200867356805702
  0
ARC
  5
65B1
  8
0
 10
3712.6843910747188602
 20
116.9538052113983042
 30
0.0
 40
17.9282362413089196
 50
175.068785485191313
 51
176.9968806898739899
  0
ARC
  5
65B2
  8
0
 10
3694.9112464123941209
 20
118.6815099004075051
 30
0.0
 40
0.082893159501411
 50
181.1247923993662994
 51
267.1135259908936064
  0
ARC
  5
65B3
  8
0
 10
3705.766062025537849
 20
114.5265549469803972
 30
0.0
 40
10.9899885110390194
 50
175.9469386215272095
 51
178.2531016427176098
  0
ARC
  5
65B4
  8
0
 10
3705.2134700454321319
 20
117.294623419178393
 30
0.0
 40
10.4368068638957503
 50
181.6859407196679967
 51
184.114257311475086
  0
ARC
  5
65B5
  8
0
 10
3694.8034850460890084
 20
117.7527645044239932
 30
0.0
 40
0.0224448322452776
 50
98.529742814070346
 51
173.5752302862366037
  0
ARC
  5
65B6
  8
0
 10
3694.8872806970439342
 20
115.8510484242412986
 30
0.0
 40
0.459531826543424
 50
274.7188122429021178
 51
285.9977954779603238
  0
ARC
  5
65B7
  8
0
 10
3695.3576921723788473
 20
114.2191907906817931
 30
0.0
 40
1.238775720508672
 50
91.0481907253101781
 51
106.1112494160835951
  0
ARC
  5
65B8
  8
0
 10
3695.3301684255920918
 20
116.621782386616502
 30
0.0
 40
1.2211772750101431
 50
258.1857316920405196
 51
270.2281359772590008
  0
ARC
  5
65B9
  8
0
 10
3695.2260259240551932
 20
116.109820909223501
 30
0.0
 40
0.731912998421454
 50
253.1548598708129134
 51
258.3158015079372944
  0
ARC
  5
65BA
  8
0
 10
3695.3339626122751724
 20
116.5740096411571045
 30
0.0
 40
1.1299547915236561
 50
264.0992451245539883
 51
270.0541639903348141
  0
ARC
  5
65BB
  8
0
 10
3695.3287871890088354
 20
116.7070041199794019
 30
0.0
 40
1.267519737543243
 50
263.8143386817457099
 51
266.9625677049639876
  0
LINE
  5
65BC
  8
0
 10
3695.5610102387458937
 20
115.4327570378585932
 30
0.0
 11
3695.5778121863418164
 21
115.4254638535968951
 31
0.0
  0
LINE
  5
65BD
  8
0
 10
3695.4055825682430623
 20
115.4461932270586004
 30
0.0
 11
3695.4084382184419155
 21
115.4412650832968978
 31
0.0
  0
LINE
  5
65BE
  8
0
 10
3695.4084382184419155
 20
115.4041337921969017
 30
0.0
 11
3695.401311262541185
 21
115.4164331499969052
 31
0.0
  0
LINE
  5
65BF
  8
0
 10
3696.2798320818292268
 20
105.9442521412969
 30
0.0
 11
3696.2798320818292268
 21
117.7552760350968981
 31
0.0
  0
LINE
  5
65C0
  8
0
 10
3696.2483422086420433
 20
118.8895280578968965
 30
0.0
 11
3696.2798320818292268
 21
117.893071312996895
 31
0.0
  0
LINE
  5
65C1
  8
0
 10
3695.8888804315411107
 20
117.7552760483968939
 30
0.0
 11
3695.8888804315411107
 21
116.9875624326969046
 31
0.0
  0
LINE
  5
65C2
  8
0
 10
3695.888880176623843
 20
105.9442521412969
 30
0.0
 11
3695.8888804134408019
 21
114.8615782025969025
 31
0.0
  0
LINE
  5
65C3
  8
0
 10
3695.8665023655421464
 20
115.3033304509968957
 30
0.0
 11
3695.8665023655421464
 21
116.5458280069968993
 31
0.0
  0
LINE
  5
65C4
  8
0
 10
3695.8416923816412236
 20
118.6798827018969007
 30
0.0
 11
3695.8475474426409164
 21
118.4949112967573939
 31
0.0
  0
LINE
  5
65C5
  8
0
 10
3695.8350556668419813
 20
118.8895309704969065
 30
0.0
 11
3695.8416923816412236
 21
118.6798827018969007
 31
0.0
  0
LINE
  5
65C6
  8
0
 10
3695.4084382184419155
 20
115.4412650832968978
 30
0.0
 11
3695.4084382184419155
 21
115.4041337921969017
 31
0.0
  0
LINE
  5
65C7
  8
0
 10
3695.401311262541185
 20
115.4164331499969052
 30
0.0
 11
3695.401311262541185
 21
115.445938193497696
 31
0.0
  0
ARC
  5
65C8
  8
0
 10
3695.3337139713221404
 20
116.8146222060865966
 30
0.0
 40
1.4124663814848371
 50
270.0534164497141205
 51
273.0325561463939721
  0
ARC
  5
65C9
  8
0
 10
3695.4101237040408705
 20
116.2129439848968957
 30
0.0
 40
0.8051362520000001
 50
282.021189525898194
 51
282.6363302316424893
  0
ARC
  5
65CA
  8
0
 10
3695.7822744174518448
 20
115.4773020915850026
 30
0.0
 40
0.0844065164251571
 50
273.7283194289071275
 51
356.2724072156955231
  0
ARC
  5
65CB
  8
0
 10
3695.772608756450154
 20
116.3621727519335991
 30
0.0
 40
0.0951085861754789
 50
9.168013131549765
 51
80.8320079368222935
  0
ARC
  5
65CC
  8
0
 10
3696.258261681040949
 20
117.9210714430969063
 30
0.0
 40
0.1181102362
 50
193.7135420425694861
 51
227.9226379175977115
  0
ARC
  5
65CD
  8
0
 10
3696.1263456559418046
 20
117.7749610743968987
 30
0.0
 40
0.0787401575
 50
0.0
 51
47.92263791770106
  0
ARC
  5
65CE
  8
0
 10
3695.3349989840471608
 20
116.662627635152802
 30
0.0
 40
1.247957536582184
 50
270.0014608852389983
 51
273.0459401017640744
  0
ARC
  5
65CF
  8
0
 10
3696.2579940934579099
 20
117.7531214575704013
 30
0.0
 40
0.021944018328679
 50
5.634674989305319
 51
84.4087970047104506
  0
ARC
  5
65D0
  8
0
 10
3696.1563573640901268
 20
118.8733259228748977
 30
0.0
 40
0.093400860844393
 50
9.9895638941872136
 51
81.8245001909189682
  0
ARC
  5
65D1
  8
0
 10
3695.7561336967528405
 20
118.8870519435866981
 30
0.0
 40
0.0789608949871306
 50
1.799132643194274
 51
85.575868665350086
  0
ARC
  5
65D2
  8
0
 10
3677.9856705323650203
 20
116.9538052113983042
 30
0.0
 40
17.9282362413089196
 50
3.0031193101260372
 51
4.9312145148086133
  0
ARC
  5
65D3
  8
0
 10
3695.7588151946888502
 20
118.6815099004075051
 30
0.0
 40
0.082893159501414
 50
272.8864740091065073
 51
358.8752076006318816
  0
ARC
  5
65D4
  8
0
 10
3684.9039995815451221
 20
114.5265549469803972
 30
0.0
 40
10.9899885110390194
 50
1.7468983572823491
 51
4.0530613784728269
  0
ARC
  5
65D5
  8
0
 10
3685.4565915616508391
 20
117.294623419178393
 30
0.0
 40
10.4368068638957503
 50
355.8857426885247719
 51
358.3140592803320033
  0
ARC
  5
65D6
  8
0
 10
3695.8665765609948721
 20
117.7527645044239932
 30
0.0
 40
0.0224448322452776
 50
6.4247697137634194
 51
81.4702571859296683
  0
ARC
  5
65D7
  8
0
 10
3695.7827809100399463
 20
115.8510484242412986
 30
0.0
 40
0.4595318265434274
 50
254.0022045220397047
 51
265.2811877570978822
  0
ARC
  5
65D8
  8
0
 10
3695.3123694347041237
 20
114.2191907906817931
 30
0.0
 40
1.238775720508672
 50
73.8887505839164049
 51
88.9518092746898361
  0
ARC
  5
65D9
  8
0
 10
3695.3398931814908792
 20
116.621782386616502
 30
0.0
 40
1.2211772750101431
 50
269.7718640227408855
 51
281.8142683079594804
  0
ARC
  5
65DA
  8
0
 10
3695.4440356830291421
 20
116.109820909223501
 30
0.0
 40
0.731912998421454
 50
281.6841984920625919
 51
286.8451401291870866
  0
ARC
  5
65DB
  8
0
 10
3695.3360989948077986
 20
116.5740096411571045
 30
0.0
 40
1.1299547915236561
 50
269.9458360096651859
 51
275.9007548754460117
  0
ARC
  5
65DC
  8
0
 10
3695.3412744180750451
 20
116.7070041199794019
 30
0.0
 40
1.267519737543243
 50
273.0374322950360124
 51
276.1856613182541764
  0
LINE
  5
65DD
  8
0
 10
3694.390229525254199
 20
105.9442521412969
 30
0.0
 11
3696.2798320818292268
 21
105.9442521412969
 31
0.0
  0
LINE
  5
65DE
  8
0
 10
3694.5004221097410664
 20
118.9657775628969034
 30
0.0
 11
3696.1696394973419046
 21
118.9657775628969034
 31
0.0
  0
LINE
  5
65DF
  8
0
 10
3694.9070721476418839
 20
118.5987219096969056
 30
0.0
 11
3695.7629894594419966
 21
118.5987219096969056
 31
0.0
  0
ENDSEC
  0
EOF
