  0
SECTION
  2
HEADER
  9
$ACADVER
  1
AC1009
  9
$INSBASE
 10
3703.0220365648351617
 20
111.7401878599957996
 30
0.0
  9
$EXTMIN
 10
3697.1574940336959116
 20
111.7401878599957996
 30
0.0
  9
$EXTMAX
 10
3703.9608742106361206
 20
124.761713281595803
 30
0.0
  9
$LIMMIN
 10
0.0
 20
0.0
  9
$LIMMAX
 10
11.6929133858000007
 20
8.2677165353999982
  9
$ORTHOMODE
 70
     1
  9
$REGENMODE
 70
     1
  9
$FILLMODE
 70
     1
  9
$QTEXTMODE
 70
     0
  9
$MIRRTEXT
 70
     0
  9
$DRAGMODE
 70
     2
  9
$LTSCALE
 40
0.6431102362
  9
$OSMODE
 70
  3839
  9
$ATTMODE
 70
     1
  9
$TEXTSIZE
 40
0.2
  9
$TRACEWID
 40
0.05
  9
$TEXTSTYLE
  7
STANDARD
  9
$CLAYER
  8
0
  9
$CELTYPE
  6
BYLAYER
  9
$CECOLOR
 62
     1
  9
$DIMSCALE
 40
1.0
  9
$DIMASZ
 40
0.1875
  9
$DIMEXO
 40
0.0625
  9
$DIMDLI
 40
0.4443307087
  9
$DIMRND
 40
0.0
  9
$DIMDLE
 40
0.0
  9
$DIMEXE
 40
0.125
  9
$DIMTP
 40
0.01
  9
$DIMTM
 40
0.01
  9
$DIMTXT
 40
2.0
  9
$DIMCEN
 40
0.1052362205
  9
$DIMTSZ
 40
0.0
  9
$DIMTOL
 70
     1
  9
$DIMLIM
 70
     0
  9
$DIMTIH
 70
     1
  9
$DIMTOH
 70
     1
  9
$DIMSE1
 70
     0
  9
$DIMSE2
 70
     0
  9
$DIMTAD
 70
     0
  9
$DIMZIN
 70
     0
  9
$DIMBLK
  1

  9
$DIMASO
 70
     1
  9
$DIMSHO
 70
     1
  9
$DIMPOST
  1
\X
  9
$DIMAPOST
  1

  9
$DIMALT
 70
     1
  9
$DIMALTD
 70
     2
  9
$DIMALTF
 40
25.3999999999999986
  9
$DIMLFAC
 40
1.0
  9
$DIMTOFL
 70
     0
  9
$DIMTVP
 40
0.0
  9
$DIMTIX
 70
     0
  9
$DIMSOXD
 70
     0
  9
$DIMSAH
 70
     0
  9
$DIMBLK1
  1

  9
$DIMBLK2
  1

  9
$DIMSTYLE
  2
STANDARD
  9
$DIMCLRD
 70
     0
  9
$DIMCLRE
 70
     0
  9
$DIMCLRT
 70
     0
  9
$DIMTFAC
 40
1.0
  9
$DIMGAP
 40
0.09
  9
$LUNITS
 70
     2
  9
$LUPREC
 70
     4
  9
$SKETCHINC
 40
0.1
  9
$FILLETRAD
 40
0.0
  9
$AUNITS
 70
     0
  9
$AUPREC
 70
     0
  9
$MENU
  1
.
  9
$ELEVATION
 40
0.0
  9
$PELEVATION
 40
0.0
  9
$THICKNESS
 40
0.0
  9
$LIMCHECK
 70
     0
  9
$BLIPMODE
 70
     0
  9
$CHAMFERA
 40
0.0
  9
$CHAMFERB
 40
0.0
  9
$SKPOLY
 70
     0
  9
$TDCREATE
 40
2458060.468368056230247
  9
$TDUPDATE
 40
2459016.7457638890482485
  9
$TDINDWG
 40
0.345134375
  9
$TDUSRTIMER
 40
0.345134375
  9
$USRTIMER
 70
     1
  9
$ANGBASE
 50
0.0
  9
$ANGDIR
 70
     0
  9
$PDMODE
 70
     0
  9
$PDSIZE
 40
0.3125
  9
$PLINEWID
 40
0.0
  9
$COORDS
 70
     1
  9
$SPLFRAME
 70
     0
  9
$SPLINETYPE
 70
     6
  9
$SPLINESEGS
 70
     8
  9
$ATTDIA
 70
     1
  9
$ATTREQ
 70
     1
  9
$HANDLING
 70
     1
  9
$HANDSEED
  5
6716
  9
$SURFTAB1
 70
     6
  9
$SURFTAB2
 70
     6
  9
$SURFTYPE
 70
     6
  9
$SURFU
 70
     6
  9
$SURFV
 70
     6
  9
$UCSNAME
  2

  9
$UCSORG
 10
0.0
 20
0.0
 30
0.0
  9
$UCSXDIR
 10
1.0
 20
0.0
 30
0.0
  9
$UCSYDIR
 10
0.0
 20
1.0
 30
0.0
  9
$PUCSNAME
  2

  9
$PUCSORG
 10
0.0
 20
0.0
 30
0.0
  9
$PUCSXDIR
 10
1.0
 20
0.0
 30
0.0
  9
$PUCSYDIR
 10
0.0
 20
1.0
 30
0.0
  9
$USERI1
 70
     0
  9
$USERI2
 70
     0
  9
$USERI3
 70
     0
  9
$USERI4
 70
     0
  9
$USERI5
 70
     0
  9
$USERR1
 40
0.0
  9
$USERR2
 40
0.0
  9
$USERR3
 40
0.0
  9
$USERR4
 40
0.0
  9
$USERR5
 40
0.0
  9
$WORLDVIEW
 70
     1
  9
$SHADEDGE
 70
     3
  9
$SHADEDIF
 70
    70
  9
$TILEMODE
 70
     1
  9
$MAXACTVP
 70
    64
  9
$PLIMCHECK
 70
     0
  9
$PEXTMIN
 10
1.0000000000000000E+20
 20
1.0000000000000000E+20
 30
1.0000000000000000E+20
  9
$PEXTMAX
 10
-1.0000000000000000E+20
 20
-1.0000000000000000E+20
 30
-1.0000000000000000E+20
  9
$PLIMMIN
 10
0.0
 20
0.0
  9
$PLIMMAX
 10
12.0
 20
9.0
  9
$UNITMODE
 70
     0
  9
$VISRETAIN
 70
     1
  9
$PLINEGEN
 70
     0
  9
$PSLTSCALE
 70
     1
  0
ENDSEC
  0
SECTION
  2
TABLES
  0
TABLE
  2
VPORT
 70
     1
  0
VPORT
  2
*ACTIVE
 70
     0
 10
0.0
 20
0.0
 11
1.0
 21
1.0
 12
-2.526030598451217
 22
1.4910428882809219
 13
0.0
 23
0.0
 14
1.0
 24
1.0
 15
0.0
 25
0.0
 16
0.0
 26
0.0
 36
50.5959397079597082
 17
3700.559326171875
 27
118.250949859619098
 37
0.0
 40
26.7906503383940091
 41
2.3528591352859132
 42
50.0
 43
0.0
 44
0.0
 50
0.0
 51
0.0
 71
     0
 72
   100
 73
     1
 74
     1
 75
     0
 76
     0
 77
     0
 78
     0
  0
ENDTAB
  0
TABLE
  2
LTYPE
 70
     2
  0
LTYPE
  2
CONTINUOUS
 70
     0
  3
Solid line
 72
    65
 73
     0
 40
0.0
  0
LTYPE
  2
PHANTOM2
 70
     0
  3
___ _ _ ___ _ _ ___ _ _ ___ _ _
 72
    65
 73
     6
 40
1.25
 49
0.625
 49
-0.125
 49
0.125
 49
-0.125
 49
0.125
 49
-0.125
  0
ENDTAB
  0
TABLE
  2
LAYER
 70
     2
  0
LAYER
  2
0
 70
     0
 62
   255
  6
CONTINUOUS
  0
LAYER
  2
DEFPOINTS
 70
     0
 62
     7
  6
CONTINUOUS
  0
ENDTAB
  0
TABLE
  2
STYLE
 70
     1
  0
STYLE
  2
STANDARD
 70
     0
 40
0.0
 41
0.8
 50
0.0
 71
     0
 42
0.2
  3
txt
  4

  0
ENDTAB
  0
TABLE
  2
VIEW
 70
     0
  0
ENDTAB
  0
TABLE
  2
UCS
 70
     0
  0
ENDTAB
  0
TABLE
  2
APPID
 70
     9
  0
APPID
  2
ACAD
 70
     0
  0
APPID
  2
ACAD_MLEADERVER
 70
     0
  0
APPID
  2
ACAD_EXEMPT_FROM_CAD_STANDARDS
 70
     0
  0
APPID
  2
ACAD_NAV_VCDISPLAY
 70
     0
  0
APPID
  2
ACAECLAYERSTANDARD
 70
     0
  0
APPID
  2
ACCMTRANSPARENCY
 70
     0
  0
APPID
  2
ACAD_DSTYLE_DIMJAG
 70
     0
  0
APPID
  2
ACAD_DSTYLE_DIMTALN
 70
     0
  0
APPID
  2
ACDBATTR
 70
     0
  0
ENDTAB
  0
TABLE
  2
DIMSTYLE
 70
     1
  0
DIMSTYLE
  2
STANDARD
 70
     0
  3

  4

  5

  6

  7

 40
1.0
 41
0.1875
 42
0.0625
 43
0.38
 44
0.125
 45
0.0
 46
0.0
 47
0.01
 48
0.01
140
0.15625
141
0.09
142
0.0
143
25.3999999999999986
144
1.0
145
0.0
146
1.0
147
0.09
 71
     1
 72
     0
 73
     1
 74
     1
 75
     0
 76
     0
 77
     0
 78
     4
170
     0
171
     2
172
     0
173
     0
174
     0
175
     0
176
     0
177
     0
178
     0
  0
ENDTAB
  0
ENDSEC
  0
SECTION
  2
BLOCKS
  0
BLOCK
  8
0
  2
$MODEL_SPACE
 70
     0
 10
0.0
 20
0.0
 30
0.0
  3
$MODEL_SPACE
  1

  0
ENDBLK
  5
21
  8
0
  0
BLOCK
 67
     1
  8
0
  2
$PAPER_SPACE
 70
     0
 10
0.0
 20
0.0
 30
0.0
  3
$PAPER_SPACE
  1

  0
ENDBLK
  5
1D
 67
     1
  8
0
  0
BLOCK
  8
0
 62
     1
  2
*U1
 70
     1
 10
0.0
 20
0.0
 30
0.0
  3
*U1
  1

  0
TEXT
  5
670F
  8
0
 62
     0
 10
3680.6133273670297967
 20
129.5299734786869124
 30
0.0
 40
2.0
  1
6.8034±0.0100
 41
0.8
  0
ENDBLK
  5
6711
  8
0
 62
     1
  0
BLOCK
  8
0
 62
     1
  2
*U2
 70
     1
 10
0.0
 20
0.0
 30
0.0
  3
*U2
  1

  0
TEXT
  5
6713
  8
0
 62
     0
 10
3680.8799940336962209
 20
127.3499734786869055
 30
0.0
 40
2.0
  1
[172.81±0.25]
 41
0.8
  0
ENDBLK
  5
6715
  8
0
 62
     1
  0
ENDSEC
  0
SECTION
  2
ENTITIES
  0
ATTDEF
  5
3930
  8
DEFPOINTS
 10
3703.018153737738885
 20
111.7516816531053934
 30
0.0
 40
0.001
  1
K-10861T-4
  3

  2
MODELNUMBER
 70
     0
1001
ACDBATTR
1070
     0
1070
     1
  0
ATTDEF
  5
3931
  8
DEFPOINTS
 10
3703.018153737738885
 20
111.7500149864387993
 30
0.0
 40
0.001
  1
SINGULIER
  3

  2
TRADENAME
 70
     0
1001
ACDBATTR
1070
     0
1070
     1
  0
ATTDEF
  5
3932
  8
DEFPOINTS
 10
3703.018153737738885
 20
111.7483483197721057
 30
0.0
 40
0.001
  1
BATHROOM SINK FAUCET
  3

  2
PRODUCT
 70
     0
1001
ACDBATTR
1070
     0
1070
     1
  0
LINE
  5
657A
  8
0
 10
3702.0831989190360218
 20
111.7401878599957996
 30
0.0
 11
3703.9608742106361206
 21
111.7401878599957996
 31
0.0
  0
LINE
  5
657B
  8
0
 10
3703.9472462437361173
 20
124.100936423795801
 30
0.0
 11
3703.0220372146359296
 21
123.6890070316957946
 31
0.0
  0
LINE
  5
657C
  8
0
 10
3702.0831988979361995
 20
122.7834981490957063
 30
0.0
 11
3702.0831989120360959
 21
123.5512117681957989
 31
0.0
  0
LINE
  5
657D
  8
0
 10
3702.0831989190360218
 20
111.7401878599957996
 30
0.0
 11
3702.0831988979361995
 21
120.6575138888958065
 31
0.0
  0
LINE
  5
657E
  8
0
 10
3697.6877979028358823
 20
121.1890099317956953
 30
0.0
 11
3701.5517028323361046
 21
121.1890099317957947
 31
0.0
  0
LINE
  5
657F
  8
0
 10
3703.932602679035881
 20
124.6024208573957992
 30
0.0
 11
3703.9301833447361787
 21
124.6852737425957969
 31
0.0
  0
LINE
  5
6580
  8
0
 10
3703.9441006872361868
 20
124.2086592178958
 30
0.0
 11
3703.9472462437361173
 21
124.100936423795801
 31
0.0
  0
LINE
  5
6581
  8
0
 10
3701.5517028329359164
 20
122.2520020852957998
 30
0.0
 11
3697.6877976285359182
 21
122.2520020852957998
 31
0.0
  0
LINE
  5
6582
  8
0
 10
3703.9414960533358681
 20
123.5708967930957982
 30
0.0
 11
3702.1026860349361414
 21
123.5708967930957982
 31
0.0
  0
LINE
  5
6583
  8
0
 10
3702.0810902094572157
 20
123.6890070316957946
 30
0.0
 11
3703.0220372146359296
 21
123.6890070316957946
 31
0.0
  0
LINE
  5
6584
  8
0
 10
3699.9560319877741676
 20
124.3946576283958052
 30
0.0
 11
3701.5495915850360689
 21
124.3946576283958052
 31
0.0
  0
LINE
  5
6585
  8
0
 10
3703.8514753507361092
 20
124.761713281595803
 30
0.0
 11
3699.9744027390120209
 21
124.761713281595803
 31
0.0
  0
ARC
  5
6586
  8
0
 10
3703.0220372856360882
 20
123.6570893743957953
 30
0.0
 40
0.8070866141999999
 50
3.7131996796996609
 51
26.0704101786820814
  0
ARC
  5
6587
  8
0
 10
3701.5169251492679905
 20
120.6227361816429067
 30
0.0
 40
0.5673406801488513
 50
3.514406687747671
 51
86.485595759330721
  0
ARC
  5
6588
  8
0
 10
3701.4903300823370955
 20
122.8448709010334028
 30
0.0
 40
0.596036951195352
 50
275.9101086525279811
 51
354.0898912181073115
  0
ARC
  5
658A
  8
0
 10
3703.9452918933361616
 20
123.7170071617958058
 30
0.0
 40
0.1181102362
 50
183.7131996796996134
 51
227.9226379175977115
  0
ARC
  5
658B
  8
0
 10
3702.0987826778359704
 20
123.7170071617958058
 30
0.0
 40
0.1181102362
 50
312.0773620824023169
 51
346.2864579574304003
  0
ARC
  5
658C
  8
0
 10
3702.2306987029360243
 20
123.5708967930957982
 30
0.0
 40
0.0787401575
 50
132.0773620821962027
 51
180.0
  0
ARC
  5
658D
  8
0
 10
3703.8133758683361521
 20
123.5708967930957982
 30
0.0
 40
0.0787401575
 50
0.0
 51
47.9226379178038187
  0
LINE
  5
658E
  8
0
 10
3703.9608742106361206
 20
111.7401878599957996
 30
0.0
 11
3703.9608742106361206
 21
123.5512417949180985
 31
0.0
  0
ARC
  5
658F
  8
0
 10
3703.9401174735180575
 20
123.5501575236365994
 30
0.0
 40
0.02078503740713
 50
2.9902461996665961
 51
86.1970320137146757
  0
ARC
  5
6590
  8
0
 10
3702.1049014459358659
 20
123.5492155368757068
 30
0.0
 40
0.0217941486913045
 50
95.8342873105790432
 51
174.7446369263732038
  0
ARC
  5
6591
  8
0
 10
3697.6889914508919901
 20
121.7205060088538033
 30
0.0
 40
0.5314974171950703
 50
90.1286949621270139
 51
269.8713346076766015
  0
ARC
  5
6592
  8
0
 10
3699.8316527695151308
 20
124.5782300468526955
 30
0.0
 40
0.169373002149464
 50
151.2545277097281939
 51
209.6910090871504053
  0
ARC
  5
6593
  8
0
 10
3699.8369448010780616
 20
124.5604718728274065
 30
0.0
 40
0.1830171706399094
 50
100.0680814613419045
 51
147.1735351315095954
  0
ARC
  5
6594
  8
0
 10
3700.019168466983956
 20
123.7084117101316991
 30
0.0
 40
1.0542524227383241
 50
92.433628427391838
 51
101.7238334567444014
  0
ARC
  5
6595
  8
0
 10
3699.982042580119014
 20
125.129670919733698
 30
0.0
 40
0.7354733777354042
 50
257.9527764649666892
 51
267.9732672233582207
  0
ARC
  5
6596
  8
0
 10
3699.8487293769521784
 20
124.6105617031140014
 30
0.0
 40
0.2011820152908991
 50
215.2899958071280935
 51
264.2393641255515035
  0
ARC
  5
6597
  8
0
 10
3701.5301243609610538
 20
123.8631425429635016
 30
0.0
 40
0.5318714683598021
 50
44.6021690191791791
 51
87.9024274933809551
  0
ARC
  5
6598
  8
0
 10
3701.0575082720911269
 20
123.6678942614782954
 30
0.0
 40
1.023799654018362
 50
1.1816358578493591
 51
33.7449643457694606
  0
ARC
  5
6599
  8
0
 10
3703.8389934252140847
 20
124.6701192828390958
 30
0.0
 40
0.0924405704925434
 50
9.4355070310566909
 51
82.2398484740645443
  0
ARC
  5
659A
  8
0
 10
3704.8259403586839653
 20
124.4314580064013001
 30
0.0
 40
0.9095496172828273
 50
169.1659935417532097
 51
194.1791784135889998
  0
ENDSEC
  0
EOF
