  0
SECTION
  2
HEADER
  9
$ACADVER
  1
AC1009
  9
$INSBASE
 10
2893.1845627008028714
 20
157.9103852821249063
 30
0.0
  9
$EXTMIN
 10
2892.2397038807030185
 20
153.9789202301288924
 30
0.0
  9
$EXTMAX
 10
2894.9203442405478199
 20
159.2718631648380949
 30
0.0
  9
$LIMMIN
 10
0.0
 20
0.0
  9
$LIMMAX
 10
11.6929133858000007
 20
8.2677165353999982
  9
$ORTHOMODE
 70
     0
  9
$REGENMODE
 70
     1
  9
$FILLMODE
 70
     1
  9
$QTEXTMODE
 70
     0
  9
$MIRRTEXT
 70
     0
  9
$DRAGMODE
 70
     2
  9
$LTSCALE
 40
0.6431102362
  9
$OSMODE
 70
  4095
  9
$ATTMODE
 70
     1
  9
$TEXTSIZE
 40
0.2
  9
$TRACEWID
 40
0.05
  9
$TEXTSTYLE
  7
STANDARD
  9
$CLAYER
  8
0
  9
$CELTYPE
  6
BYLAYER
  9
$CECOLOR
 62
   256
  9
$DIMSCALE
 40
1.0
  9
$DIMASZ
 40
0.1875
  9
$DIMEXO
 40
0.0625
  9
$DIMDLI
 40
0.4443307087
  9
$DIMRND
 40
0.0
  9
$DIMDLE
 40
0.0
  9
$DIMEXE
 40
0.125
  9
$DIMTP
 40
0.01
  9
$DIMTM
 40
0.01
  9
$DIMTXT
 40
2.0
  9
$DIMCEN
 40
0.1052362205
  9
$DIMTSZ
 40
0.0
  9
$DIMTOL
 70
     1
  9
$DIMLIM
 70
     0
  9
$DIMTIH
 70
     1
  9
$DIMTOH
 70
     1
  9
$DIMSE1
 70
     0
  9
$DIMSE2
 70
     0
  9
$DIMTAD
 70
     0
  9
$DIMZIN
 70
     0
  9
$DIMBLK
  1

  9
$DIMASO
 70
     1
  9
$DIMSHO
 70
     1
  9
$DIMPOST
  1
\X
  9
$DIMAPOST
  1

  9
$DIMALT
 70
     1
  9
$DIMALTD
 70
     2
  9
$DIMALTF
 40
25.3999999999999986
  9
$DIMLFAC
 40
1.0
  9
$DIMTOFL
 70
     0
  9
$DIMTVP
 40
0.0
  9
$DIMTIX
 70
     0
  9
$DIMSOXD
 70
     0
  9
$DIMSAH
 70
     0
  9
$DIMBLK1
  1

  9
$DIMBLK2
  1

  9
$DIMSTYLE
  2
STANDARD
  9
$DIMCLRD
 70
     0
  9
$DIMCLRE
 70
     0
  9
$DIMCLRT
 70
     0
  9
$DIMTFAC
 40
1.0
  9
$DIMGAP
 40
0.09
  9
$LUNITS
 70
     2
  9
$LUPREC
 70
     4
  9
$SKETCHINC
 40
0.1
  9
$FILLETRAD
 40
0.0
  9
$AUNITS
 70
     0
  9
$AUPREC
 70
     0
  9
$MENU
  1
.
  9
$ELEVATION
 40
0.0
  9
$PELEVATION
 40
0.0
  9
$THICKNESS
 40
0.0
  9
$LIMCHECK
 70
     0
  9
$BLIPMODE
 70
     0
  9
$CHAMFERA
 40
0.0
  9
$CHAMFERB
 40
0.0
  9
$SKPOLY
 70
     0
  9
$TDCREATE
 40
2458060.468368056230247
  9
$TDUPDATE
 40
2459223.8309143520891666
  9
$TDINDWG
 40
0.4013959491
  9
$TDUSRTIMER
 40
0.4013959491
  9
$USRTIMER
 70
     1
  9
$ANGBASE
 50
0.0
  9
$ANGDIR
 70
     0
  9
$PDMODE
 70
     0
  9
$PDSIZE
 40
0.3125
  9
$PLINEWID
 40
0.0
  9
$COORDS
 70
     1
  9
$SPLFRAME
 70
     0
  9
$SPLINETYPE
 70
     6
  9
$SPLINESEGS
 70
     8
  9
$ATTDIA
 70
     1
  9
$ATTREQ
 70
     1
  9
$HANDLING
 70
     1
  9
$HANDSEED
  5
7956
  9
$SURFTAB1
 70
     6
  9
$SURFTAB2
 70
     6
  9
$SURFTYPE
 70
     6
  9
$SURFU
 70
     6
  9
$SURFV
 70
     6
  9
$UCSNAME
  2

  9
$UCSORG
 10
0.0
 20
0.0
 30
0.0
  9
$UCSXDIR
 10
1.0
 20
0.0
 30
0.0
  9
$UCSYDIR
 10
0.0
 20
1.0
 30
0.0
  9
$PUCSNAME
  2

  9
$PUCSORG
 10
0.0
 20
0.0
 30
0.0
  9
$PUCSXDIR
 10
1.0
 20
0.0
 30
0.0
  9
$PUCSYDIR
 10
0.0
 20
1.0
 30
0.0
  9
$USERI1
 70
     0
  9
$USERI2
 70
     0
  9
$USERI3
 70
     0
  9
$USERI4
 70
     0
  9
$USERI5
 70
     0
  9
$USERR1
 40
0.0
  9
$USERR2
 40
0.0
  9
$USERR3
 40
0.0
  9
$USERR4
 40
0.0
  9
$USERR5
 40
0.0
  9
$WORLDVIEW
 70
     1
  9
$SHADEDGE
 70
     3
  9
$SHADEDIF
 70
    70
  9
$TILEMODE
 70
     1
  9
$MAXACTVP
 70
    64
  9
$PLIMCHECK
 70
     0
  9
$PEXTMIN
 10
1.0000000000000000E+20
 20
1.0000000000000000E+20
 30
1.0000000000000000E+20
  9
$PEXTMAX
 10
-1.0000000000000000E+20
 20
-1.0000000000000000E+20
 30
-1.0000000000000000E+20
  9
$PLIMMIN
 10
0.0
 20
0.0
  9
$PLIMMAX
 10
12.0
 20
9.0
  9
$UNITMODE
 70
     0
  9
$VISRETAIN
 70
     1
  9
$PLINEGEN
 70
     0
  9
$PSLTSCALE
 70
     1
  0
ENDSEC
  0
SECTION
  2
TABLES
  0
TABLE
  2
VPORT
 70
     1
  0
VPORT
  2
*ACTIVE
 70
     0
 10
0.0
 20
0.0
 11
1.0
 21
1.0
 12
3.4415963262506462
 22
0.0620600934796443
 13
0.0
 23
0.0
 14
1.0
 24
1.0
 15
0.0
 25
0.0
 16
0.0
 26
0.0
 36
20.9140234209481299
 17
2890.138427734375
 27
156.5633316040039063
 37
0.0
 40
5.3610924145552428
 41
2.9182795698924728
 42
50.0
 43
0.0
 44
0.0
 50
0.0
 51
0.0
 71
     0
 72
   100
 73
     1
 74
     1
 75
     0
 76
     0
 77
     0
 78
     0
  0
ENDTAB
  0
TABLE
  2
LTYPE
 70
     2
  0
LTYPE
  2
CONTINUOUS
 70
     0
  3
Solid line
 72
    65
 73
     0
 40
0.0
  0
LTYPE
  2
PHANTOM2
 70
     0
  3
___ _ _ ___ _ _ ___ _ _ ___ _ _
 72
    65
 73
     6
 40
1.25
 49
0.625
 49
-0.125
 49
0.125
 49
-0.125
 49
0.125
 49
-0.125
  0
ENDTAB
  0
TABLE
  2
LAYER
 70
     2
  0
LAYER
  2
0
 70
     0
 62
   255
  6
CONTINUOUS
  0
LAYER
  2
DEFPOINTS
 70
     0
 62
     7
  6
CONTINUOUS
  0
ENDTAB
  0
TABLE
  2
STYLE
 70
     1
  0
STYLE
  2
STANDARD
 70
     0
 40
0.0
 41
0.8
 50
0.0
 71
     0
 42
0.2
  3
txt
  4

  0
ENDTAB
  0
TABLE
  2
VIEW
 70
     0
  0
ENDTAB
  0
TABLE
  2
UCS
 70
     0
  0
ENDTAB
  0
TABLE
  2
APPID
 70
     9
  0
APPID
  2
ACAD
 70
     0
  0
APPID
  2
ACAD_MLEADERVER
 70
     0
  0
APPID
  2
ACAD_EXEMPT_FROM_CAD_STANDARDS
 70
     0
  0
APPID
  2
ACAD_NAV_VCDISPLAY
 70
     0
  0
APPID
  2
ACAECLAYERSTANDARD
 70
     0
  0
APPID
  2
ACCMTRANSPARENCY
 70
     0
  0
APPID
  2
ACAD_DSTYLE_DIMJAG
 70
     0
  0
APPID
  2
ACAD_DSTYLE_DIMTALN
 70
     0
  0
APPID
  2
ACDBATTR
 70
     0
  0
ENDTAB
  0
TABLE
  2
DIMSTYLE
 70
     1
  0
DIMSTYLE
  2
STANDARD
 70
     0
  3

  4

  5

  6

  7

 40
1.0
 41
0.1875
 42
0.0625
 43
0.38
 44
0.125
 45
0.0
 46
0.0
 47
0.01
 48
0.01
140
0.15625
141
0.09
142
0.0
143
25.3999999999999986
144
1.0
145
0.0
146
1.0
147
0.09
 71
     1
 72
     0
 73
     1
 74
     1
 75
     0
 76
     0
 77
     0
 78
     4
170
     0
171
     2
172
     0
173
     0
174
     0
175
     0
176
     0
177
     0
178
     0
  0
ENDTAB
  0
ENDSEC
  0
SECTION
  2
BLOCKS
  0
BLOCK
  8
0
  2
$MODEL_SPACE
 70
     0
 10
0.0
 20
0.0
 30
0.0
  3
$MODEL_SPACE
  1

  0
ENDBLK
  5
21
  8
0
  0
BLOCK
 67
     1
  8
0
  2
$PAPER_SPACE
 70
     0
 10
0.0
 20
0.0
 30
0.0
  3
$PAPER_SPACE
  1

  0
ENDBLK
  5
1D
 67
     1
  8
0
  0
ENDSEC
  0
SECTION
  2
ENTITIES
  0
ATTDEF
  5
3930
  8
DEFPOINTS
 10
2893.1804739128260735
 20
157.9081550476012126
 30
0.0
 40
0.001
  1
K-10865M-4
  3

  2
MODELNUMBER
 70
     0
1001
ACDBATTR
1070
     0
1070
     1
  0
ATTDEF
  5
3931
  8
DEFPOINTS
 10
2893.1804739128260735
 20
157.9064883809346043
 30
0.0
 40
0.001
  1
SINGULIER
  3

  2
TRADENAME
 70
     0
1001
ACDBATTR
1070
     0
1070
     1
  0
ATTDEF
  5
3932
  8
DEFPOINTS
 10
2893.1804739128260735
 20
157.9048217142679107
 30
0.0
 40
0.001
  1
BATHROOM SINK FAUCET
  3

  2
PRODUCT
 70
     0
1001
ACDBATTR
1070
     0
1070
     1
  0
LINE
  5
78A7
  8
0
 10
2894.8572776672508553
 20
159.011829385480894
 30
0.0
 11
2894.0052273596329542
 21
158.419083165680604
 31
0.0
  0
LINE
  5
78A8
  8
0
 10
2894.6927991910761193
 20
159.2431992695842951
 30
0.0
 11
2893.8457638454028711
 21
158.6471986325288981
 31
0.0
  0
ARC
  5
78A9
  8
0
 10
2893.8570423771038804
 20
158.6310649308873906
 30
0.0
 40
0.0196850604771334
 50
124.9561113209976071
 51
215.0239852961832128
  0
LINE
  5
78AA
  8
0
 10
2893.840922047604181
 20
158.6197672947270974
 30
0.0
 11
2893.934842872840818
 21
158.4847003989100926
 31
0.0
  0
ARC
  5
78AB
  8
0
 10
2893.9935923813191039
 20
158.4355989302464138
 30
0.0
 40
0.0202025542827444
 50
225.6332492311125861
 51
305.1638195939063962
  0
LINE
  5
78AC
  8
0
 10
2893.0370644623030785
 20
158.8332512082288872
 30
0.0
 11
2893.3320644623267981
 21
158.8332512082174048
 31
0.0
  0
ARC
  5
78AD
  8
0
 10
2893.1845644623031149
 20
158.7155381800290002
 30
0.0
 40
0.1887130281999991
 50
38.5917723444995602
 51
141.4082276555004967
  0
LINE
  5
78AE
  8
0
 10
2892.7598982679119217
 20
154.5561998430289918
 30
0.0
 11
2893.6092306622031174
 21
154.5561998430289918
 31
0.0
  0
ARC
  5
78AF
  8
0
 10
2892.7794222109578186
 20
153.9986163934875947
 30
0.0
 40
0.0118221501402787
 50
199.8730015412687919
 51
270.0371247219687234
  0
LINE
  5
78B0
  8
0
 10
2892.7794298711028205
 20
153.9867942458288894
 30
0.0
 11
2893.5897145265048493
 21
153.9867942459289907
 31
0.0
  0
ARC
  5
78B1
  8
0
 10
2893.5895812457652028
 20
153.9989609946140092
 30
0.0
 40
0.0121674786756189
 50
270.6276219431089203
 51
347.9955061785775001
  0
ARC
  5
78B2
  8
0
 10
2893.0212219142222239
 20
154.2034926680445892
 30
0.0
 40
0.6160984751406045
 50
340.3613802145504224
 51
359.98484237679952
  0
LINE
  5
78B3
  8
0
 10
2893.6373203678031132
 20
154.2033296789238079
 30
0.0
 11
2893.6373203678031132
 21
154.5613973258290059
 31
0.0
  0
ARC
  5
78B4
  8
0
 10
2893.3478916373787797
 20
154.2034913373082929
 30
0.0
 40
0.6160830417807115
 50
180.0150337400405078
 51
199.8200700018477107
  0
LINE
  5
78B5
  8
0
 10
2892.7318086168070295
 20
154.203329684345988
 30
0.0
 11
2892.7318086210948422
 21
154.561397331251186
 31
0.0
  0
ARC
  5
78B6
  8
0
 10
2893.6081829689360347
 20
154.637464444744495
 30
0.0
 40
0.0812713550551984
 50
270.7386372074366818
 51
3.6941447916247201
  0
ARC
  5
78B7
  8
0
 10
2894.2762797296632016
 20
156.8765022249068011
 30
0.0
 40
0.5603777136489838
 50
140.0472873862049994
 51
181.1802201594850033
  0
LINE
  5
78B8
  8
0
 10
2893.7160208980671996
 20
156.8649599732690945
 30
0.0
 11
2893.7160603824017926
 21
155.1797076578289989
 31
0.0
  0
ARC
  5
78B9
  8
0
 10
2893.6765540063170192
 20
155.1798000049487882
 30
0.0
 40
0.0395064840171378
 50
289.6538381076366022
 51
359.8660699361432762
  0
LINE
  5
78BA
  8
0
 10
2893.6892854590028037
 20
154.6427007848288895
 30
0.0
 11
2893.6912884411021878
 21
156.443482196128997
 31
0.0
  0
LINE
  5
78BB
  8
0
 10
2893.6912884411021878
 20
156.443482196128997
 30
0.0
 11
2893.691247162802938
 21
156.8621229349369059
 31
0.0
  0
ARC
  5
78BC
  8
0
 10
2894.0255320832920916
 20
156.8621229349369059
 30
0.0
 40
0.3342849204889413
 50
149.2739082601061114
 51
180.0
  0
ARC
  5
78BD
  8
0
 10
2892.7609459635750682
 20
154.6374644572339889
 30
0.0
 40
0.0812713550551984
 50
176.3058535191347005
 51
269.261361103322713
  0
ARC
  5
78BE
  8
0
 10
2892.0928530205119387
 20
156.8765028581694025
 30
0.0
 40
0.5603739751751745
 50
358.8197088060456963
 51
39.9507276000973022
  0
LINE
  5
78BF
  8
0
 10
2892.6531081001171515
 20
156.8649599889380113
 30
0.0
 11
2892.6530685660950439
 21
155.1797076734989957
 31
0.0
  0
ARC
  5
78C0
  8
0
 10
2892.6925749421830005
 20
155.1798000194540066
 30
0.0
 40
0.0395064840171378
 50
180.1339283746166018
 51
250.3461602031312054
  0
LINE
  5
78C1
  8
0
 10
2892.6798434736629133
 20
154.642700799709587
 30
0.0
 11
2892.6778405446548277
 21
156.4434822110686127
 31
0.0
  0
LINE
  5
78C2
  8
0
 10
2892.6778405446548277
 20
156.4434822110686127
 30
0.0
 11
2892.6778818352968301
 21
156.8621229498752996
 31
0.0
  0
ARC
  5
78C3
  8
0
 10
2892.3435969148081313
 20
156.8621229597310105
 30
0.0
 40
0.3342849204889414
 50
359.999998310759679
 51
30.7260900506724184
  0
LINE
  5
78C4
  8
0
 10
2893.0666511637032272
 20
158.8225427333289872
 30
0.0
 11
2893.067588033903121
 21
158.8332512082276935
 31
0.0
  0
LINE
  5
78C5
  8
0
 10
2893.3015408906039738
 20
158.8332512082185985
 30
0.0
 11
2893.3024778937679002
 21
158.8225429250666991
 31
0.0
  0
ARC
  5
78C6
  8
0
 10
2893.1881929780502105
 20
157.5736500658092041
 30
0.0
 40
1.2547929341605091
 50
90.1656810383196756
 51
95.558501686940474
  0
LINE
  5
78C7
  8
0
 10
2893.1550644623030166
 20
158.8332512082243113
 30
0.0
 11
2893.1550644623030166
 21
158.8280055996175122
 31
0.0
  0
ARC
  5
78C8
  8
0
 10
2893.1809381102330008
 20
157.5736500599107046
 30
0.0
 40
1.2547929341605091
 50
84.4415914811301462
 51
89.8344121297539857
  0
LINE
  5
78C9
  8
0
 10
2893.2140645777549253
 20
158.833251256194103
 30
0.0
 11
2893.2140645862850761
 21
158.8280056476052948
 31
0.0
  0
ARC
  5
78CA
  8
0
 10
2893.5408636749029938
 20
153.9867942458288894
 30
0.0
 40
0.0078740157000023
 50
270.0000000000259774
 51
359.9999999999869829
  0
LINE
  5
78CB
  8
0
 10
2893.5408636749029938
 20
153.9789202301288924
 30
0.0
 11
2892.8282664255029886
 21
153.9789202301288924
 31
0.0
  0
ARC
  5
78CC
  8
0
 10
2892.8282664255029886
 20
153.9867954217166925
 30
0.0
 40
0.0078751915877893
 50
180.0085551452021946
 51
270.0
  0
ARC
  5
78CD
  8
0
 10
2893.1845627008028714
 20
157.9103852821249063
 30
0.0
 40
0.9448588201000006
 50
98.3410491525652759
 51
225.5111866879396985
  0
ARC
  5
78CE
  8
0
 10
2893.1845627008028714
 20
157.9103852821249063
 30
0.0
 40
0.9448588201000006
 50
314.4902540668813913
 51
81.6587001459490409
  0
ARC
  5
78CF
  8
0
 10
2894.7783484952660729
 20
159.1298674195554952
 30
0.0
 40
0.1419957452826335
 50
303.7696869090364089
 51
127.0475739702272051
  0
LINE
  5
78D0
  8
0
 10
2893.8472456655968017
 20
158.5838906481712058
 30
0.0
 11
2893.8597993178300385
 21
158.5926200216441089
 31
0.0
  0
ENDSEC
  0
EOF
