  0
SECTION
  2
HEADER
  9
$ACADVER
  1
AC1009
  9
$INSBASE
 10
2907.4355971192821926
 20
146.9479306676221029
 30
0.0
  9
$EXTMIN
 10
2903.2916514635730891
 20
146.9456784863342023
 30
-0.0000000349181948
  9
$EXTMAX
 10
2908.8256908378298249
 20
154.0011851487157912
 30
0.0000000814935746
  9
$LIMMIN
 10
0.0
 20
0.0
  9
$LIMMAX
 10
11.6929133858000007
 20
8.2677165353999982
  9
$ORTHOMODE
 70
     0
  9
$REGENMODE
 70
     1
  9
$FILLMODE
 70
     1
  9
$QTEXTMODE
 70
     0
  9
$MIRRTEXT
 70
     0
  9
$DRAGMODE
 70
     2
  9
$LTSCALE
 40
0.6431102362
  9
$OSMODE
 70
  4095
  9
$ATTMODE
 70
     1
  9
$TEXTSIZE
 40
0.2
  9
$TRACEWID
 40
0.05
  9
$TEXTSTYLE
  7
STANDARD
  9
$CLAYER
  8
0
  9
$CELTYPE
  6
BYLAYER
  9
$CECOLOR
 62
   256
  9
$DIMSCALE
 40
1.0
  9
$DIMASZ
 40
0.1875
  9
$DIMEXO
 40
0.0625
  9
$DIMDLI
 40
0.4443307087
  9
$DIMRND
 40
0.0
  9
$DIMDLE
 40
0.0
  9
$DIMEXE
 40
0.125
  9
$DIMTP
 40
0.01
  9
$DIMTM
 40
0.01
  9
$DIMTXT
 40
2.0
  9
$DIMCEN
 40
0.1052362205
  9
$DIMTSZ
 40
0.0
  9
$DIMTOL
 70
     1
  9
$DIMLIM
 70
     0
  9
$DIMTIH
 70
     1
  9
$DIMTOH
 70
     1
  9
$DIMSE1
 70
     0
  9
$DIMSE2
 70
     0
  9
$DIMTAD
 70
     0
  9
$DIMZIN
 70
     0
  9
$DIMBLK
  1

  9
$DIMASO
 70
     1
  9
$DIMSHO
 70
     1
  9
$DIMPOST
  1
\X
  9
$DIMAPOST
  1

  9
$DIMALT
 70
     1
  9
$DIMALTD
 70
     2
  9
$DIMALTF
 40
25.3999999999999986
  9
$DIMLFAC
 40
1.0
  9
$DIMTOFL
 70
     0
  9
$DIMTVP
 40
0.0
  9
$DIMTIX
 70
     0
  9
$DIMSOXD
 70
     0
  9
$DIMSAH
 70
     0
  9
$DIMBLK1
  1

  9
$DIMBLK2
  1

  9
$DIMSTYLE
  2
STANDARD
  9
$DIMCLRD
 70
     0
  9
$DIMCLRE
 70
     0
  9
$DIMCLRT
 70
     0
  9
$DIMTFAC
 40
1.0
  9
$DIMGAP
 40
0.09
  9
$LUNITS
 70
     2
  9
$LUPREC
 70
     4
  9
$SKETCHINC
 40
0.1
  9
$FILLETRAD
 40
0.0
  9
$AUNITS
 70
     0
  9
$AUPREC
 70
     0
  9
$MENU
  1
.
  9
$ELEVATION
 40
0.0
  9
$PELEVATION
 40
0.0
  9
$THICKNESS
 40
0.0
  9
$LIMCHECK
 70
     0
  9
$BLIPMODE
 70
     0
  9
$CHAMFERA
 40
0.0
  9
$CHAMFERB
 40
0.0
  9
$SKPOLY
 70
     0
  9
$TDCREATE
 40
2458060.468368056230247
  9
$TDUPDATE
 40
2459223.8307638890109956
  9
$TDINDWG
 40
0.3991853009
  9
$TDUSRTIMER
 40
0.3991853009
  9
$USRTIMER
 70
     1
  9
$ANGBASE
 50
0.0
  9
$ANGDIR
 70
     0
  9
$PDMODE
 70
     0
  9
$PDSIZE
 40
0.3125
  9
$PLINEWID
 40
0.0
  9
$COORDS
 70
     1
  9
$SPLFRAME
 70
     0
  9
$SPLINETYPE
 70
     6
  9
$SPLINESEGS
 70
     8
  9
$ATTDIA
 70
     1
  9
$ATTREQ
 70
     1
  9
$HANDLING
 70
     1
  9
$HANDSEED
  5
7A71
  9
$SURFTAB1
 70
     6
  9
$SURFTAB2
 70
     6
  9
$SURFTYPE
 70
     6
  9
$SURFU
 70
     6
  9
$SURFV
 70
     6
  9
$UCSNAME
  2

  9
$UCSORG
 10
0.0
 20
0.0
 30
0.0
  9
$UCSXDIR
 10
1.0
 20
0.0
 30
0.0
  9
$UCSYDIR
 10
0.0
 20
1.0
 30
0.0
  9
$PUCSNAME
  2

  9
$PUCSORG
 10
0.0
 20
0.0
 30
0.0
  9
$PUCSXDIR
 10
1.0
 20
0.0
 30
0.0
  9
$PUCSYDIR
 10
0.0
 20
1.0
 30
0.0
  9
$USERI1
 70
     0
  9
$USERI2
 70
     0
  9
$USERI3
 70
     0
  9
$USERI4
 70
     0
  9
$USERI5
 70
     0
  9
$USERR1
 40
0.0
  9
$USERR2
 40
0.0
  9
$USERR3
 40
0.0
  9
$USERR4
 40
0.0
  9
$USERR5
 40
0.0
  9
$WORLDVIEW
 70
     1
  9
$SHADEDGE
 70
     3
  9
$SHADEDIF
 70
    70
  9
$TILEMODE
 70
     1
  9
$MAXACTVP
 70
    64
  9
$PLIMCHECK
 70
     0
  9
$PEXTMIN
 10
1.0000000000000000E+20
 20
1.0000000000000000E+20
 30
1.0000000000000000E+20
  9
$PEXTMAX
 10
-1.0000000000000000E+20
 20
-1.0000000000000000E+20
 30
-1.0000000000000000E+20
  9
$PLIMMIN
 10
0.0
 20
0.0
  9
$PLIMMAX
 10
12.0
 20
9.0
  9
$UNITMODE
 70
     0
  9
$VISRETAIN
 70
     1
  9
$PLINEGEN
 70
     0
  9
$PSLTSCALE
 70
     1
  0
ENDSEC
  0
SECTION
  2
TABLES
  0
TABLE
  2
VPORT
 70
     1
  0
VPORT
  2
*ACTIVE
 70
     0
 10
0.0
 20
0.0
 11
1.0
 21
1.0
 12
7.3610393147637314
 22
-0.6381726924949476
 13
0.0
 23
0.0
 14
1.0
 24
1.0
 15
0.0
 25
0.0
 16
0.0
 26
0.0
 36
31.1026959032569188
 17
2898.6976318359379547
 27
151.1116045100199017
 37
0.0
 40
7.1463500958028394
 41
2.9182795698924728
 42
50.0
 43
0.0
 44
0.0
 50
0.0
 51
0.0
 71
     0
 72
   100
 73
     1
 74
     1
 75
     0
 76
     0
 77
     0
 78
     0
  0
ENDTAB
  0
TABLE
  2
LTYPE
 70
     2
  0
LTYPE
  2
CONTINUOUS
 70
     0
  3
Solid line
 72
    65
 73
     0
 40
0.0
  0
LTYPE
  2
PHANTOM2
 70
     0
  3
___ _ _ ___ _ _ ___ _ _ ___ _ _
 72
    65
 73
     6
 40
1.25
 49
0.625
 49
-0.125
 49
0.125
 49
-0.125
 49
0.125
 49
-0.125
  0
ENDTAB
  0
TABLE
  2
LAYER
 70
     2
  0
LAYER
  2
0
 70
     0
 62
   255
  6
CONTINUOUS
  0
LAYER
  2
DEFPOINTS
 70
     0
 62
     7
  6
CONTINUOUS
  0
ENDTAB
  0
TABLE
  2
STYLE
 70
     1
  0
STYLE
  2
STANDARD
 70
     0
 40
0.0
 41
0.8
 50
0.0
 71
     0
 42
0.2
  3
txt
  4

  0
ENDTAB
  0
TABLE
  2
VIEW
 70
     0
  0
ENDTAB
  0
TABLE
  2
UCS
 70
     0
  0
ENDTAB
  0
TABLE
  2
APPID
 70
     9
  0
APPID
  2
ACAD
 70
     0
  0
APPID
  2
ACAD_MLEADERVER
 70
     0
  0
APPID
  2
ACAD_EXEMPT_FROM_CAD_STANDARDS
 70
     0
  0
APPID
  2
ACAD_NAV_VCDISPLAY
 70
     0
  0
APPID
  2
ACAECLAYERSTANDARD
 70
     0
  0
APPID
  2
ACCMTRANSPARENCY
 70
     0
  0
APPID
  2
ACAD_DSTYLE_DIMJAG
 70
     0
  0
APPID
  2
ACAD_DSTYLE_DIMTALN
 70
     0
  0
APPID
  2
ACDBATTR
 70
     0
  0
ENDTAB
  0
TABLE
  2
DIMSTYLE
 70
     1
  0
DIMSTYLE
  2
STANDARD
 70
     0
  3

  4

  5

  6

  7

 40
1.0
 41
0.1875
 42
0.0625
 43
0.38
 44
0.125
 45
0.0
 46
0.0
 47
0.01
 48
0.01
140
0.15625
141
0.09
142
0.0
143
25.3999999999999986
144
1.0
145
0.0
146
1.0
147
0.09
 71
     1
 72
     0
 73
     1
 74
     1
 75
     0
 76
     0
 77
     0
 78
     4
170
     0
171
     2
172
     0
173
     0
174
     0
175
     0
176
     0
177
     0
178
     0
  0
ENDTAB
  0
ENDSEC
  0
SECTION
  2
BLOCKS
  0
BLOCK
  8
0
  2
$MODEL_SPACE
 70
     0
 10
0.0
 20
0.0
 30
0.0
  3
$MODEL_SPACE
  1

  0
ENDBLK
  5
21
  8
0
  0
BLOCK
 67
     1
  8
0
  2
$PAPER_SPACE
 70
     0
 10
0.0
 20
0.0
 30
0.0
  3
$PAPER_SPACE
  1

  0
ENDBLK
  5
1D
 67
     1
  8
0
  0
ENDSEC
  0
SECTION
  2
ENTITIES
  0
ATTDEF
  5
6F66
  8
DEFPOINTS
 10
2907.4322472490789551
 20
146.9522093885898926
 30
0.0
 40
0.001
  1
K-10865M-4
  3

  2
MODELNUMBER
 70
     0
1001
ACDBATTR
1070
     0
1070
     1
  0
ATTDEF
  5
6F67
  8
DEFPOINTS
 10
2907.4322472490789551
 20
146.9505427219233127
 30
0.0
 40
0.001
  1
SINGULIER
  3

  2
TRADENAME
 70
     0
1001
ACDBATTR
1070
     0
1070
     1
  0
ATTDEF
  5
6F68
  8
DEFPOINTS
 10
2907.4322472490789551
 20
146.9488760552565907
 30
0.0
 40
0.001
  1
BATHROOM SINK FAUCET
  3

  2
PRODUCT
 70
     0
1001
ACDBATTR
1070
     0
1070
     1
  0
LINE
  5
7977
  8
0
 10
2906.4967464990231747
 20
152.8337421305841985
 30
0.0
 11
2906.4967582960089203
 21
152.4224412280740921
 31
0.0
  0
LINE
  5
7978
  8
0
 10
2904.6600064813760582
 20
151.8515259939821078
 30
0.0
 11
2904.6600062200818684
 21
150.8673039087221071
 31
0.0
  0
ARC
  5
7979
  8
0
 10
2904.6993762883298587
 20
150.867303898269995
 30
0.0
 40
0.0393700682479224
 50
179.9999847889554019
 51
270.0000089532110792
  0
LINE
  5
797A
  8
0
 10
2906.4967588009822066
 20
146.9479306676221029
 30
0.0
 11
2906.4967589176671936
 21
150.2959945302040978
 31
0.0
  0
ARC
  5
797B
  8
0
 10
2905.9652628532821836
 20
150.2964377786221064
 30
0.0
 40
0.5314962492110642
 50
359.9522174114935069
 51
89.9505674709274246
  0
ARC
  5
797C
  8
0
 10
2906.644258769480075
 20
152.8534428114224113
 30
0.0
 40
0.0787401574987526
 50
132.0773537965841911
 51
180.0000658837012111
  0
LINE
  5
797D
  8
0
 10
2907.4355956871509079
 20
152.9282453390221121
 30
0.0
 11
2908.3608062167818389
 21
153.3401753794221065
 31
0.0
  0
ARC
  5
797E
  8
0
 10
2908.2269359348269973
 20
152.8534425795317873
 30
0.0
 40
0.0787401574544981
 50
0.0000658079101775
 51
47.922629512458947
  0
ARC
  5
797F
  8
0
 10
2908.3588519814838946
 20
152.9995529288752891
 30
0.0
 40
0.1181102364050356
 50
183.7133131915115882
 51
227.9226294649652118
  0
ARC
  5
7980
  8
0
 10
2907.4356617143721451
 20
152.9396450114649042
 30
0.0
 40
0.8070217692392798
 50
3.7127796365658319
 51
23.2625077279502293
  0
LINE
  5
7981
  8
0
 10
2904.5609674432821521
 20
153.6338900561221124
 30
0.0
 11
2905.9631516864819787
 21
153.6338966130221024
 31
0.0
  0
ARC
  5
7982
  8
0
 10
2905.9713588867680301
 20
153.1596793503987897
 30
0.0
 40
0.4742882776397371
 50
20.0938228269764707
 51
90.9915096600917082
  0
ARC
  5
7983
  8
0
 10
2905.4505071992311969
 20
152.9269464471898914
 30
0.0
 40
1.044145855121003
 50
0.0712745627065358
 51
22.2686332274008798
  0
ARC
  5
7984
  8
0
 10
2904.4998399881260411
 20
155.6234517739436001
 30
0.0
 40
1.990500538757717
 50
262.5598601290710121
 51
271.7598065694330103
  0
ARC
  5
7985
  8
0
 10
2904.2616448464800669
 20
153.8483902455174928
 30
0.0
 40
0.1996404280866684
 50
214.2954108547469048
 51
264.378693571556596
  0
ARC
  5
7986
  8
0
 10
2904.2456673986421265
 20
153.8174130179046983
 30
0.0
 40
0.1697986375125145
 50
151.3117556361198979
 51
208.6887861723232049
  0
ARC
  5
7987
  8
0
 10
2904.5111923733729782
 20
151.0033201740396009
 30
0.0
 40
2.9980231447437959
 50
90.9339564265595754
 51
93.7717364939471736
  0
ARC
  5
7988
  8
0
 10
2904.2452145360571194
 20
153.8053299155548928
 30
0.0
 40
0.1755353999048459
 50
103.1753873683936007
 51
147.7787097328510981
  0
ARC
  5
7989
  8
0
 10
2904.353731926762066
 20
153.4351577518183944
 30
0.0
 40
0.5611020611933992
 50
94.0628598510277385
 51
105.3495426052234052
  0
ARC
  5
798A
  8
0
 10
2908.2650530587229696
 20
153.9222330884140035
 30
0.0
 40
0.0787232617178692
 50
1.655626952837284
 51
89.028126987418986
  0
ARC
  5
798B
  8
0
 10
2716.6062320943760824
 20
148.2881109430362869
 30
0.0
 40
191.8203384164357885
 50
1.6389254220088021
 51
1.68380595426766
  0
ARC
  5
798C
  8
0
 10
2909.2218297262261331
 20
153.6592874227937955
 30
0.0
 40
0.8812693075427954
 50
172.5000517815884109
 51
189.9584285851954917
  0
ARC
  5
798D
  8
0
 10
2905.4072464156502065
 20
153.3002243755232996
 30
0.0
 40
2.9538299852180021
 50
0.7749578399404758
 51
4.0119236824090008
  0
LINE
  5
798E
  8
0
 10
2908.3529201262817878
 20
153.7804702445220926
 30
0.0
 11
2908.3529201262817878
 21
153.5122102337331
 31
0.0
  0
LINE
  5
798F
  8
0
 10
2908.3529201262817878
 20
153.7461658384220868
 30
0.0
 11
2908.344925130044885
 21
153.7468883452376929
 31
0.0
  0
ARC
  5
7990
  8
0
 10
2908.2352070980819008
 20
153.632970278422107
 30
0.0
 40
0.1887130282000007
 50
309.4624609749340038
 51
51.4082111432187006
  0
LINE
  5
7991
  8
0
 10
2904.1993765497818458
 20
151.812184960422087
 30
0.0
 11
2904.4555431149428841
 21
151.812184960422087
 31
0.0
  0
ARC
  5
7992
  8
0
 10
2904.4555431149428841
 20
151.7730750701790043
 30
0.0
 40
0.0391098902430933
 50
359.6189525882712132
 51
90.0
  0
LINE
  5
7993
  8
0
 10
2904.4946521402821418
 20
151.7728149705220915
 30
0.0
 11
2904.4946521402821418
 21
150.946062377516995
 31
0.0
  0
ARC
  5
7994
  8
0
 10
2904.4552820585831796
 20
150.9460441009640022
 30
0.0
 40
0.0393700859419034
 50
270.0000043655065838
 51
0.0265980976006112
  0
LINE
  5
7995
  8
0
 10
2904.4552820615817836
 20
150.9066740150221051
 30
0.0
 11
2904.1993765497818458
 21
150.9066740150221051
 31
0.0
  0
LINE
  5
7996
  8
0
 10
2904.1993765497818458
 20
150.9066740150221051
 30
0.0
 11
2904.1993765497818458
 21
151.812184960422087
 31
0.0
  0
LINE
  5
7997
  8
0
 10
2904.1757545024820502
 20
151.8121858260221018
 30
0.0
 11
2904.1757545024820502
 21
150.9066740150221051
 31
0.0
  0
LINE
  5
7998
  8
0
 10
2904.1757545024820502
 20
150.9066740150221051
 30
0.0
 11
2903.7229985968078836
 21
150.9066740150221051
 31
0.0
  0
LINE
  5
7999
  8
0
 10
2904.1757545024820502
 20
151.8121858260221018
 30
0.0
 11
2903.7229985968710935
 21
151.8121858260221018
 31
0.0
  0
LINE
  5
799A
  8
0
 10
2903.5064631638820174
 20
151.7645725085220931
 30
0.0
 11
2903.5064631639820618
 21
150.954279856220694
 31
0.0
  0
ARC
  5
799B
  8
0
 10
2903.5182741875819374
 20
150.9542798562220867
 30
0.0
 40
0.0118110236000018
 50
180.0000000070658075
 51
250.1648637726752895
  0
ARC
  5
799C
  8
0
 10
2903.7229985968078836
 20
151.5218314948378975
 30
0.0
 40
0.615157479815778
 50
250.1648637726752895
 51
270.0000000162584115
  0
ARC
  5
799D
  8
0
 10
2903.5182741871958569
 20
151.764579982373192
 30
0.0
 40
0.0118110256785102
 50
109.8372612051679056
 51
180.0362559664725097
  0
ARC
  5
799E
  8
0
 10
2903.7229985968710935
 20
151.197028347580499
 30
0.0
 40
0.6151574784415823
 50
89.9999999895779439
 51
109.8351790200637055
  0
ARC
  5
799F
  8
0
 10
2903.5064655329279049
 20
151.7157235311688908
 30
0.0
 40
0.0078796180093812
 50
90.017226259855363
 51
181.6414226875915006
  0
LINE
  5
79A0
  8
0
 10
2903.4985891481819635
 20
151.715497824933891
 30
0.0
 11
2903.4985891481819635
 21
151.0032089105220905
 31
0.0
  0
ARC
  5
79A1
  8
0
 10
2903.5064634371451575
 20
151.0031313630223906
 30
0.0
 40
0.0078746708049969
 50
179.4357584749319869
 51
269.9980117499205789
  0
ARC
  5
79A2
  8
0
 10
2904.6720888354179806
 20
151.7923651930044002
 30
0.0
 40
0.0199568407760258
 50
127.2851210190391953
 51
179.6107098368393054
  0
LINE
  5
79A3
  8
0
 10
2904.6521324552818442
 20
151.7925007866220994
 30
0.0
 11
2904.6521324552818442
 21
150.9263597853220915
 31
0.0
  0
ARC
  5
79A4
  8
0
 10
2904.6718189575699398
 20
150.9263597853220915
 30
0.0
 40
0.0196865022879731
 50
179.9999999999984084
 51
233.1012123577573902
  0
LINE
  5
79A5
  8
0
 10
2904.6521324552818442
 20
151.6054929126221111
 30
0.0
 11
2904.6324474158818703
 21
151.5858078732221088
 31
0.0
  0
LINE
  5
79A6
  8
0
 10
2904.6324474158818703
 20
151.5858078732221088
 30
0.0
 11
2904.5537056170610413
 21
151.585806491309711
 31
0.0
  0
LINE
  5
79A7
  8
0
 10
2904.5537056170610413
 20
151.585806491309711
 30
0.0
 11
2904.5537072583820191
 21
151.1330519677221105
 31
0.0
  0
LINE
  5
79A8
  8
0
 10
2904.5537072583820191
 20
151.1330519677221105
 30
0.0
 11
2904.6324474158818703
 21
151.1330519677221105
 31
0.0
  0
LINE
  5
79A9
  8
0
 10
2904.6324474158818703
 20
151.1330519677221105
 30
0.0
 11
2904.632447415840943
 21
151.5858078732221088
 31
0.0
  0
LINE
  5
79AA
  8
0
 10
2904.6324474158818703
 20
151.1330519677221105
 30
0.0
 11
2904.6521324552818442
 21
151.1133669283221082
 31
0.0
  0
ARC
  5
79AB
  8
0
 10
2904.2813030727779733
 20
151.359624113598187
 30
0.0
 40
0.3540644208606802
 50
39.7036640089739166
 51
52.9457218851370328
  0
ARC
  5
79AC
  8
0
 10
2904.2810306287819913
 20
151.3595268933221973
 30
0.0
 40
0.3544621684001066
 50
307.0608706624150841
 51
320.2882565623914957
  0
LINE
  5
79AD
  8
0
 10
2904.4552820615817836
 20
151.4914811790220881
 30
0.0
 11
2904.3765419040819324
 21
151.4914811790220881
 31
0.0
  0
LINE
  5
79AE
  8
0
 10
2904.3765419040819324
 20
151.4914811790220881
 30
0.0
 11
2904.3765419040819324
 21
151.2273786620220903
 31
0.0
  0
LINE
  5
79AF
  8
0
 10
2904.3765419040819324
 20
151.2273786620220903
 30
0.0
 11
2904.4552820615817836
 21
151.2273786620220903
 31
0.0
  0
ARC
  5
79B0
  8
0
 10
2904.4550559399931444
 20
151.2405067314088001
 30
0.0
 40
0.0131300166334066
 50
270.9867811764244721
 51
303.6575668541253208
  0
ARC
  5
79B1
  8
0
 10
2904.4483262661437948
 20
151.250572291151002
 30
0.0
 40
0.0252380193404843
 50
303.7096168706917751
 51
325.3409563680875749
  0
ARC
  5
79B2
  8
0
 10
2904.416215465023015
 20
151.2727729218379125
 30
0.0
 40
0.0642760975651379
 50
325.3409563680875749
 51
341.2070802305856887
  0
ARC
  5
79B3
  8
0
 10
2904.290766425376205
 20
151.3154619604833044
 30
0.0
 40
0.1967895518598098
 50
341.2070802305856887
 51
357.7316931454585074
  0
ARC
  5
79B4
  8
0
 10
2903.8564336392500991
 20
151.3576759643713956
 30
0.0
 40
0.6329463415920931
 50
355.4689126271910027
 51
0.1587973583547991
  0
ARC
  5
79B5
  8
0
 10
2904.4550559400931888
 20
151.4783531095690137
 30
0.0
 40
0.0131300166334066
 50
56.3424330973865679
 51
89.0132187750536445
  0
ARC
  5
79B6
  8
0
 10
2904.4483262662361085
 20
151.4682875498324961
 30
0.0
 40
0.0252380193404843
 50
34.6590435834265165
 51
56.2903830807911376
  0
ARC
  5
79B7
  8
0
 10
2904.4162154650980483
 20
151.4460869191726999
 30
0.0
 40
0.0642760975651379
 50
18.7929197208995618
 51
34.6590435834278594
  0
ARC
  5
79B8
  8
0
 10
2904.2907664254130395
 20
151.4033978806334915
 30
0.0
 40
0.1967895518598098
 50
2.2683068060308829
 51
18.7929197208995618
  0
ARC
  5
79B9
  8
0
 10
2903.8564336392519181
 20
151.361183877113092
 30
0.0
 40
0.6329463415920931
 50
359.8412025931336871
 51
4.5310873242977268
  0
LINE
  5
79BA
  8
0
 10
2904.1757545024820502
 20
150.9617921252221038
 30
0.0
 11
2904.1796915103818719
 21
150.9657291331220961
 31
0.0
  0
LINE
  5
79BB
  8
0
 10
2904.1796915103818719
 20
150.9657291331220961
 30
0.0
 11
2904.1993765497818458
 21
150.9657291331220961
 31
0.0
  0
LINE
  5
79BC
  8
0
 10
2904.1757545024820502
 20
151.7570677157220871
 30
0.0
 11
2904.1796915103818719
 21
151.7531307079221108
 31
0.0
  0
LINE
  5
79BD
  8
0
 10
2904.1796915103818719
 20
151.7531307079221108
 30
0.0
 11
2904.1993765497818458
 21
151.7531307079221108
 31
0.0
  0
LINE
  5
79BE
  8
0
 10
2907.9548843060770196
 20
147.920007024727397
 30
0.0
 11
2908.150560583781953
 21
147.9199163538220887
 31
0.0
  0
ARC
  5
79BF
  8
0
 10
2908.1505697019260879
 20
147.9395916222956089
 30
0.0
 40
0.0196752705863388
 50
269.9734473184860235
 51
346.3465973585481947
  0
LINE
  5
79C0
  8
0
 10
2908.169688977181977
 20
147.9349473154221073
 30
0.0
 11
2908.3421685807820722
 21
148.6431616193220862
 31
0.0
  0
ARC
  5
79C1
  8
0
 10
2908.6303146737332099
 20
148.6626633271704065
 30
0.0
 40
0.2643703092797388
 50
109.3018497823589996
 51
153.0560203367327858
  0
ARC
  5
79C2
  8
0
 10
2908.8767061427338376
 20
148.5213255269887895
 30
0.0
 40
0.548246694958101
 50
151.5560756624979035
 51
167.1600371385835899
  0
ARC
  5
79C3
  8
0
 10
2907.9548862768151594
 20
147.9396926964249133
 30
0.0
 40
0.0196856717965105
 50
180.0399100163274966
 51
269.994266554850924
  0
LINE
  5
79C4
  8
0
 10
2907.9352006097951744
 20
147.9396789841511008
 30
0.0
 11
2907.9353727076818359
 21
148.4434988794560013
 31
0.0
  0
ARC
  5
79C5
  8
0
 10
2907.9550183116298285
 20
148.4434944822037039
 30
0.0
 40
0.0196456044400444
 50
166.2835227820555133
 51
179.987175553388596
  0
LINE
  5
79C6
  8
0
 10
2907.9359329807821268
 20
148.4481527995220915
 30
0.0
 11
2908.0044551546820912
 21
148.7295041726220859
 31
0.0
  0
ARC
  5
79C7
  8
0
 10
2908.7874383371549811
 20
148.5548081121544897
 30
0.0
 40
0.8022352383054137
 50
148.6567807129497965
 51
167.4224027753867858
  0
ARC
  5
79C8
  8
0
 10
2908.4334617737549706
 20
148.7771079948606996
 30
0.0
 40
0.384326122417805
 50
98.8346713097999157
 51
149.5115304991483924
  0
ARC
  5
79C9
  8
0
 10
2908.5395115777751016
 20
148.086358725477794
 30
0.0
 40
1.0831683920592929
 50
94.861676866578847
 51
98.7661006750037558
  0
ARC
  5
79CA
  8
0
 10
2908.7650891200150909
 20
149.1173229993858058
 30
0.0
 40
0.0256422002885593
 50
0.9872424518042249
 51
70.1051267546785652
  0
ARC
  5
79CB
  8
0
 10
2908.7291450065631579
 20
149.0276802468098936
 30
0.0
 40
0.1222109606427308
 50
68.5606708709193526
 51
78.1104405193968319
  0
ARC
  5
79CC
  8
0
 10
2908.5481987653661236
 20
148.1513744712536891
 30
0.0
 40
1.0170025013702451
 50
78.3063468074077917
 51
85.7879487890860162
  0
LINE
  5
79CD
  8
0
 10
2908.7907275138818477
 20
149.1177648088221019
 30
0.0
 11
2908.776175767929999
 21
148.9225487069888061
 31
0.0
  0
ARC
  5
79CE
  8
0
 10
2908.7534512134948272
 20
148.9247992689709008
 30
0.0
 40
0.0228357264722151
 50
286.5974823083460024
 51
354.3440658532617249
  0
ARC
  5
79CF
  8
0
 10
2908.7071417295428546
 20
149.3188369376102003
 30
0.0
 40
0.421010227405034
 50
270.7424928631610896
 51
274.0059483098879127
  0
ARC
  5
79D0
  8
0
 10
2908.7563114018907982
 20
150.4290265374847024
 30
0.0
 40
1.531788355689043
 50
261.992474205375288
 51
268.3646784841484987
  0
ARC
  5
79D1
  8
0
 10
2908.7324945570640011
 20
148.9918596946158971
 30
0.0
 40
0.093092903397724
 50
272.4989573746626093
 51
287.168610188933485
  0
LINE
  5
79D2
  8
0
 10
2907.9652660821820973
 20
147.9320046587220929
 30
0.0
 11
2908.1377502169079889
 21
148.6402316196459026
 31
0.0
  0
ARC
  5
79D3
  8
0
 10
2907.9431422479819958
 20
147.9370567661858047
 30
0.0
 40
0.0226933432868044
 50
325.6657449359761927
 51
347.1367362273837216
  0
ARC
  5
79D4
  8
0
 10
2907.9541996271477728
 20
147.9290203881523098
 30
0.0
 40
0.0090387466580231
 50
274.2952598603282013
 51
328.1992695595872078
  0
ARC
  5
79D5
  8
0
 10
2908.5850543743931667
 20
148.5484628249994898
 30
0.0
 40
0.4566207627503821
 50
140.0827029309317027
 51
168.4060919716735043
  0
ARC
  5
79D6
  8
0
 10
2908.4287531091481469
 20
148.6621030374292047
 30
0.0
 40
0.2641482291138948
 50
85.7720854198389162
 51
137.2320578538198959
  0
ARC
  5
79D7
  8
0
 10
2908.3893125983349819
 20
148.1655433626202125
 30
0.0
 40
0.762269190090319
 50
78.37388506649188
 51
85.5672779604644944
  0
ARC
  5
79D8
  8
0
 10
2908.1007607153987919
 20
147.95705045789569
 30
0.0
 40
0.11742423071617
 50
198.397971761104003
 51
234.2860306449190091
  0
ARC
  5
79D9
  8
0
 10
2908.0470022549511668
 20
147.8880542084177137
 30
0.0
 40
0.0302112824773322
 50
240.6961000487771969
 51
318.6280524207095937
  0
ARC
  5
79DA
  8
0
 10
2907.9727498416291382
 20
147.9532887270829065
 30
0.0
 40
0.1290493308087605
 50
318.6824295891714769
 51
345.0238430668809997
  0
LINE
  5
79DB
  8
0
 10
2906.4967588009822066
 20
146.9479306676221029
 30
0.0
 11
2908.3744354375821786
 21
146.9479306676221029
 31
0.0
  0
LINE
  5
79DC
  8
0
 10
2908.5382091061819665
 20
149.1281690477221105
 30
0.0
 11
2908.5236241621819318
 21
148.9329574456220939
 31
0.0
  0
ARC
  5
79DD
  8
0
 10
2908.5416569666967916
 20
148.9303494571117028
 30
0.0
 40
0.0182204182924928
 50
171.7706755526168081
 51
243.4933334257339936
  0
LINE
  5
79DE
  8
0
 10
2908.2663883288828401
 20
154.0009450251777992
 30
0.0
 11
2904.4623249173500881
 21
154.0009450251777992
 31
0.0
  0
LINE
  5
79DF
  8
0
 10
2908.3744354375821786
 20
146.9479306676221029
 30
0.0
 11
2908.3744347815108995
 21
148.7410934005008869
 31
0.0
  0
LINE
  5
79E0
  8
0
 10
2908.3744346293879062
 20
149.1568741921460912
 30
0.0
 11
2908.3744332841188225
 21
152.8337427028297952
 31
0.0
  0
ARC
  5
79E1
  8
0
 10
2908.5789882657400085
 20
149.1258366884815132
 30
0.0
 40
0.0408458046054863
 50
103.034359752956604
 51
176.7265409521567108
  0
LINE
  5
79E2
  8
0
 10
2904.6993762944821356
 20
150.82793383002209
 30
0.0
 11
2905.9657214071371527
 21
150.82793383002209
 31
0.0
  0
LINE
  5
79E3
  8
0
 10
2908.4477125325920497
 20
149.1656301004618115
 30
0.0
 11
2908.6228955284341282
 21
149.1656301004618115
 31
0.0
  0
LINE
  5
79E4
  8
0
 10
2904.6994064813761725
 20
151.8909259835220951
 30
0.0
 11
2905.9652582962271481
 21
151.8909259835220951
 31
0.0
  0
ARC
  5
79E5
  8
0
 10
2904.6994064813761725
 20
151.8515259835220945
 30
0.0
 40
0.0394
 50
90.0
 51
179.9999847889635021
  0
ARC
  5
79E6
  8
0
 10
2905.9652582962271481
 20
152.4224259835220892
 30
0.0
 40
0.5315
 50
270.0
 51
0.0016433649914272
  0
LINE
  5
79E7
  8
0
 10
2906.494652246457008
 20
152.9282453390221121
 30
0.0
 11
2907.4355956871509079
 21
152.9282453390221121
 31
0.0
  0
LINE
  5
79E8
  8
0
 10
2906.516446499014819
 20
152.8534426956221068
 30
0.0
 11
2908.3547332841189927
 21
152.8534426956221068
 31
0.0
  0
ARC
  5
79E9
  8
0
 10
2906.516446499014819
 20
152.8337426956221066
 30
0.0
 40
0.0197
 50
90.0
 51
180.0016433649865064
  0
ARC
  5
79EA
  8
0
 10
2908.3547332841189927
 20
152.8337426956221066
 30
0.0
 40
0.0197
 50
0.0000209630133109
 51
90.0
  0
ARC
  5
79EB
  8
0
 10
2906.5484995389601863
 20
152.9720606343335874
 30
0.0
 40
0.0739544024144179
 50
305.5450145758248937
 51
323.6679679978417994
  0
ENDSEC
  0
EOF
