  0
SECTION
  2
HEADER
  9
$ACADVER
  1
AC1009
  9
$INSBASE
 10
3632.6865726394858029
 20
168.1106209035513075
 30
0.0
  9
$EXTMIN
 10
3626.4309821048300364
 20
168.0975600327683139
 30
-0.0000000000000058
  9
$EXTMAX
 10
3633.9163865169712153
 20
178.069886479493789
 30
0.0000000000000104
  9
$LIMMIN
 10
0.0
 20
0.0
  9
$LIMMAX
 10
11.6929133858000007
 20
8.2677165353999982
  9
$ORTHOMODE
 70
     0
  9
$REGENMODE
 70
     1
  9
$FILLMODE
 70
     1
  9
$QTEXTMODE
 70
     0
  9
$MIRRTEXT
 70
     0
  9
$DRAGMODE
 70
     2
  9
$LTSCALE
 40
0.6431102362
  9
$OSMODE
 70
  4095
  9
$ATTMODE
 70
     1
  9
$TEXTSIZE
 40
0.2
  9
$TRACEWID
 40
0.05
  9
$TEXTSTYLE
  7
STANDARD
  9
$CLAYER
  8
0
  9
$CELTYPE
  6
BYLAYER
  9
$CECOLOR
 62
   256
  9
$DIMSCALE
 40
1.0
  9
$DIMASZ
 40
0.1875
  9
$DIMEXO
 40
0.0625
  9
$DIMDLI
 40
0.4443307087
  9
$DIMRND
 40
0.0
  9
$DIMDLE
 40
0.0
  9
$DIMEXE
 40
0.125
  9
$DIMTP
 40
0.01
  9
$DIMTM
 40
0.01
  9
$DIMTXT
 40
2.0
  9
$DIMCEN
 40
0.1052362205
  9
$DIMTSZ
 40
0.0
  9
$DIMTOL
 70
     1
  9
$DIMLIM
 70
     0
  9
$DIMTIH
 70
     1
  9
$DIMTOH
 70
     1
  9
$DIMSE1
 70
     0
  9
$DIMSE2
 70
     0
  9
$DIMTAD
 70
     0
  9
$DIMZIN
 70
     0
  9
$DIMBLK
  1

  9
$DIMASO
 70
     1
  9
$DIMSHO
 70
     1
  9
$DIMPOST
  1
\X
  9
$DIMAPOST
  1

  9
$DIMALT
 70
     1
  9
$DIMALTD
 70
     2
  9
$DIMALTF
 40
25.3999999999999986
  9
$DIMLFAC
 40
1.0
  9
$DIMTOFL
 70
     0
  9
$DIMTVP
 40
0.0
  9
$DIMTIX
 70
     0
  9
$DIMSOXD
 70
     0
  9
$DIMSAH
 70
     0
  9
$DIMBLK1
  1

  9
$DIMBLK2
  1

  9
$DIMSTYLE
  2
STANDARD
  9
$DIMCLRD
 70
     0
  9
$DIMCLRE
 70
     0
  9
$DIMCLRT
 70
     0
  9
$DIMTFAC
 40
1.0
  9
$DIMGAP
 40
0.09
  9
$LUNITS
 70
     2
  9
$LUPREC
 70
     4
  9
$SKETCHINC
 40
0.1
  9
$FILLETRAD
 40
0.0
  9
$AUNITS
 70
     0
  9
$AUPREC
 70
     0
  9
$MENU
  1
.
  9
$ELEVATION
 40
0.0
  9
$PELEVATION
 40
0.0
  9
$THICKNESS
 40
0.0
  9
$LIMCHECK
 70
     0
  9
$BLIPMODE
 70
     0
  9
$CHAMFERA
 40
0.0
  9
$CHAMFERB
 40
0.0
  9
$SKPOLY
 70
     0
  9
$TDCREATE
 40
2458060.468368056230247
  9
$TDUPDATE
 40
2459397.406111110933125
  9
$TDINDWG
 40
0.5583635417
  9
$TDUSRTIMER
 40
0.5583635417
  9
$USRTIMER
 70
     1
  9
$ANGBASE
 50
0.0
  9
$ANGDIR
 70
     0
  9
$PDMODE
 70
     0
  9
$PDSIZE
 40
0.3125
  9
$PLINEWID
 40
0.0
  9
$COORDS
 70
     1
  9
$SPLFRAME
 70
     0
  9
$SPLINETYPE
 70
     6
  9
$SPLINESEGS
 70
     8
  9
$ATTDIA
 70
     1
  9
$ATTREQ
 70
     1
  9
$HANDLING
 70
     1
  9
$HANDSEED
  5
DD22
  9
$SURFTAB1
 70
     6
  9
$SURFTAB2
 70
     6
  9
$SURFTYPE
 70
     6
  9
$SURFU
 70
     6
  9
$SURFV
 70
     6
  9
$UCSNAME
  2

  9
$UCSORG
 10
0.0
 20
0.0
 30
0.0
  9
$UCSXDIR
 10
1.0
 20
0.0
 30
0.0
  9
$UCSYDIR
 10
0.0
 20
1.0
 30
0.0
  9
$PUCSNAME
  2

  9
$PUCSORG
 10
0.0
 20
0.0
 30
0.0
  9
$PUCSXDIR
 10
1.0
 20
0.0
 30
0.0
  9
$PUCSYDIR
 10
0.0
 20
1.0
 30
0.0
  9
$USERI1
 70
     0
  9
$USERI2
 70
     0
  9
$USERI3
 70
     0
  9
$USERI4
 70
     0
  9
$USERI5
 70
     0
  9
$USERR1
 40
0.0
  9
$USERR2
 40
0.0
  9
$USERR3
 40
0.0
  9
$USERR4
 40
0.0
  9
$USERR5
 40
0.0
  9
$WORLDVIEW
 70
     1
  9
$SHADEDGE
 70
     3
  9
$SHADEDIF
 70
    70
  9
$TILEMODE
 70
     1
  9
$MAXACTVP
 70
    64
  9
$PLIMCHECK
 70
     0
  9
$PEXTMIN
 10
1.0000000000000000E+20
 20
1.0000000000000000E+20
 30
1.0000000000000000E+20
  9
$PEXTMAX
 10
-1.0000000000000000E+20
 20
-1.0000000000000000E+20
 30
-1.0000000000000000E+20
  9
$PLIMMIN
 10
0.0
 20
0.0
  9
$PLIMMAX
 10
12.0
 20
9.0
  9
$UNITMODE
 70
     0
  9
$VISRETAIN
 70
     1
  9
$PLINEGEN
 70
     0
  9
$PSLTSCALE
 70
     1
  0
ENDSEC
  0
SECTION
  2
TABLES
  0
TABLE
  2
VPORT
 70
     1
  0
VPORT
  2
*ACTIVE
 70
     0
 10
0.0
 20
0.0
 11
1.0
 21
1.0
 12
326.480569076525228
 22
-22.1777883197567007
 13
0.0
 23
0.0
 14
1.0
 24
1.0
 15
0.0
 25
0.0
 16
0.0
 26
0.0
 36
96.5995694866707311
 17
3303.693115234375
 27
195.2615115758877096
 37
0.0
 40
10.0542907736848299
 41
2.6159122085048012
 42
50.0
 43
0.0
 44
0.0
 50
0.0
 51
0.0
 71
     0
 72
   100
 73
     1
 74
     1
 75
     0
 76
     0
 77
     0
 78
     0
  0
ENDTAB
  0
TABLE
  2
LTYPE
 70
     2
  0
LTYPE
  2
CONTINUOUS
 70
     0
  3
Solid line
 72
    65
 73
     0
 40
0.0
  0
LTYPE
  2
PHANTOM2
 70
     0
  3
___ _ _ ___ _ _ ___ _ _ ___ _ _
 72
    65
 73
     6
 40
1.25
 49
0.625
 49
-0.125
 49
0.125
 49
-0.125
 49
0.125
 49
-0.125
  0
ENDTAB
  0
TABLE
  2
LAYER
 70
     2
  0
LAYER
  2
0
 70
     0
 62
   255
  6
CONTINUOUS
  0
LAYER
  2
DEFPOINTS
 70
     0
 62
     7
  6
CONTINUOUS
  0
ENDTAB
  0
TABLE
  2
STYLE
 70
     1
  0
STYLE
  2
STANDARD
 70
     0
 40
0.0
 41
0.8
 50
0.0
 71
     0
 42
0.2
  3
txt
  4

  0
ENDTAB
  0
TABLE
  2
VIEW
 70
     0
  0
ENDTAB
  0
TABLE
  2
UCS
 70
     0
  0
ENDTAB
  0
TABLE
  2
APPID
 70
     9
  0
APPID
  2
ACAD
 70
     0
  0
APPID
  2
ACAD_MLEADERVER
 70
     0
  0
APPID
  2
ACAD_EXEMPT_FROM_CAD_STANDARDS
 70
     0
  0
APPID
  2
ACAD_NAV_VCDISPLAY
 70
     0
  0
APPID
  2
ACAECLAYERSTANDARD
 70
     0
  0
APPID
  2
ACCMTRANSPARENCY
 70
     0
  0
APPID
  2
ACAD_DSTYLE_DIMJAG
 70
     0
  0
APPID
  2
ACAD_DSTYLE_DIMTALN
 70
     0
  0
APPID
  2
ACDBATTR
 70
     0
  0
ENDTAB
  0
TABLE
  2
DIMSTYLE
 70
     1
  0
DIMSTYLE
  2
STANDARD
 70
     0
  3

  4

  5

  6

  7

 40
1.0
 41
0.1875
 42
0.0625
 43
0.38
 44
0.125
 45
0.0
 46
0.0
 47
0.01
 48
0.01
140
0.15625
141
0.09
142
0.0
143
25.3999999999999986
144
1.0
145
0.0
146
1.0
147
0.09
 71
     1
 72
     0
 73
     1
 74
     1
 75
     0
 76
     0
 77
     0
 78
     4
170
     0
171
     2
172
     0
173
     0
174
     0
175
     0
176
     0
177
     0
178
     0
  0
ENDTAB
  0
ENDSEC
  0
SECTION
  2
BLOCKS
  0
BLOCK
  8
0
  2
$MODEL_SPACE
 70
     0
 10
0.0
 20
0.0
 30
0.0
  3
$MODEL_SPACE
  1

  0
ENDBLK
  5
21
  8
0
  0
BLOCK
 67
     1
  8
0
  2
$PAPER_SPACE
 70
     0
 10
0.0
 20
0.0
 30
0.0
  3
$PAPER_SPACE
  1

  0
ENDBLK
  5
1D
 67
     1
  8
0
  0
ENDSEC
  0
SECTION
  2
ENTITIES
  0
ATTDEF
  5
B784
  8
DEFPOINTS
 10
3632.6842312530179697
 20
168.1155005761501968
 30
0.0
 40
0.001
  1
K-10873IN-4
  3

  2
MODELNUMBER
 70
     0
1001
ACDBATTR
1070
     0
1070
     1
  0
ATTDEF
  5
B785
  8
DEFPOINTS
 10
3632.6842312530179697
 20
168.1138339094835885
 30
0.0
 40
0.001
  1
SINGULIER
  3

  2
TRADENAME
 70
     0
1001
ACDBATTR
1070
     0
1070
     1
  0
ATTDEF
  5
B786
  8
DEFPOINTS
 10
3632.6842312530179697
 20
168.1121672428168949
 30
0.0
 40
0.001
  1
BATH FAUCET
  3

  2
PRODUCT
 70
     0
1001
ACDBATTR
1070
     0
1070
     1
  0
LINE
  5
D8B9
  8
0
 10
3631.6826356316360034
 20
168.1106209035513075
 30
0.0
 11
3633.6905096473360572
 21
168.1106209035513075
 31
0.0
  0
LINE
  5
D8BA
  8
0
 10
3631.694446655235879
 20
168.5830618484511092
 30
0.0
 11
3633.6786986237361816
 21
168.5830618484511092
 31
0.0
  0
LINE
  5
D8BB
  8
0
 10
3633.6905096473360572
 20
168.1106209035513075
 30
0.0
 11
3633.6905096473360572
 21
168.5948728720512975
 31
0.0
  0
ARC
  5
D8BC
  8
0
 10
3633.6786986237361816
 20
168.5712508248512904
 30
0.0
 40
0.0118110236
 50
0.0
 51
89.9997115382120541
  0
ARC
  5
D8BD
  8
0
 10
3634.6833489525361074
 20
168.756290194901311
 30
0.0
 40
1.005875458526412
 50
170.7655632554296972
 51
189.2344367445701891
  0
LINE
  5
D8BE
  8
0
 10
3633.6905096473360572
 20
168.9177075177512961
 30
0.0
 11
3633.6905096473360572
 21
170.8665264153511885
 31
0.0
  0
LINE
  5
D8BF
  8
0
 10
3633.6905096473360572
 20
170.8665264153511885
 30
0.0
 11
3633.1565731958999095
 21
170.8665264153511885
 31
0.0
  0
LINE
  5
D8C0
  8
0
 10
3632.2165731959207733
 20
170.8665264153511885
 30
0.0
 11
3631.6826356316360034
 21
170.8665264153511885
 31
0.0
  0
LINE
  5
D8C1
  8
0
 10
3631.6826356316360034
 20
170.8644165511653057
 30
0.0
 11
3629.804351841398784
 21
170.8644073867843076
 31
0.0
  0
ARC
  5
D8C2
  8
0
 10
3629.8043834976228936
 20
164.3763124235800035
 30
0.0
 40
6.4880949632816041
 50
90.000279553261322
 51
91.7926793795039657
  0
ARC
  5
D8C3
  8
0
 10
3629.6235736648131933
 20
170.1532849782456935
 30
0.0
 40
0.7082935745657544
 50
91.7926793795039657
 51
104.4627895131643953
  0
ARC
  5
D8C4
  8
0
 10
3629.4941077882290301
 20
170.6552369714094084
 30
0.0
 40
0.1899141607765301
 50
104.4627895131643953
 51
128.1655704038014107
  0
ARC
  5
D8C5
  8
0
 10
3629.4685993659959422
 20
170.6876925059297889
 30
0.0
 40
0.1486341253373006
 50
128.1655704038014107
 51
149.8238185458081091
  0
ARC
  5
D8C6
  8
0
 10
3629.4890033539550132
 20
170.6808903943916107
 30
0.0
 40
0.1697486103250272
 50
151.3010155561914019
 51
208.6854048441686018
  0
ARC
  5
D8C7
  8
0
 10
3629.4706714830231249
 20
170.675298246456606
 30
0.0
 40
0.1510326004000275
 50
210.1626018545379111
 51
243.3160722506289062
  0
ARC
  5
D8C8
  8
0
 10
3629.5360428754538589
 20
170.8053656740279109
 30
0.0
 40
0.2966037330585392
 50
243.3160722506289062
 51
260.1847871046937826
  0
ARC
  5
D8C9
  8
0
 10
3629.6512701239807939
 20
171.4714058813231929
 30
0.0
 40
0.9725378101229122
 50
260.1847871046937826
 51
269.6022770011529133
  0
ARC
  5
D8CA
  8
0
 10
3629.7824746323731233
 20
176.5494443604956132
 30
0.0
 40
6.0521253773470622
 50
268.693856075945007
 51
270.2071284624457803
  0
LINE
  5
D8CB
  8
0
 10
3629.8043534636631193
 20
170.4973585299848082
 30
0.0
 11
3631.2309231089470813
 21
170.4973626656567944
 31
0.0
  0
LINE
  5
D8CC
  8
0
 10
3629.6747616158368146
 20
177.2444791712512995
 30
0.0
 11
3630.8558639780358135
 21
177.2444791712512995
 31
0.0
  0
ARC
  5
D8CD
  8
0
 10
3630.8558639780358135
 20
174.7641642105512858
 30
0.0
 40
2.480314960699999
 50
0.000000002310762
 51
21.9381802764508613
  0
ARC
  5
D8CE
  8
0
 10
3630.8558639780358135
 20
174.7641642105512858
 30
0.0
 40
2.480314960699999
 50
56.824890737022443
 51
90.0
  0
LINE
  5
D8CF
  8
0
 10
3633.336178938735884
 20
174.7641642106513018
 30
0.0
 11
3633.3361789388932266
 21
170.8665264153511885
 31
0.0
  0
LINE
  5
D8D0
  8
0
 10
3632.0369663402361766
 20
170.8665264153511885
 30
0.0
 11
3632.0369663402361766
 21
174.7641642106513018
 31
0.0
  0
ARC
  5
D8D1
  8
0
 10
3630.8558639780358135
 20
174.7641642106513018
 30
0.0
 40
1.1811023622000001
 50
0.0
 51
90.0
  0
LINE
  5
D8D2
  8
0
 10
3630.8558639780358135
 20
175.9452665728512102
 30
0.0
 11
3629.6747616158368146
 21
175.9452665728512102
 31
0.0
  0
ARC
  5
D8D3
  8
0
 10
3629.6747616158368146
 20
174.7641642106869142
 30
0.0
 40
1.1811023621642951
 50
90.0
 51
164.999999998483986
  0
LINE
  5
D8D4
  8
0
 10
3628.5339043407379904
 20
175.0698559962609124
 30
0.0
 11
3628.1059358409220295
 21
173.4726558110745032
 31
0.0
  0
ARC
  5
D8D5
  8
0
 10
3629.6749448280402248
 20
174.7640623885851028
 30
0.0
 40
2.480518283926346
 50
136.8739454541093039
 51
164.9988235171418864
  0
ARC
  5
D8D6
  8
0
 10
3629.6749661465128156
 20
174.7636923904044863
 30
0.0
 40
2.480786789278087
 50
90.0047238016073976
 51
136.8680451608211115
  0
LINE
  5
D8D7
  8
0
 10
3631.6826356316360034
 20
168.1106209035513075
 30
0.0
 11
3631.6826356316360034
 21
170.8665264153511885
 31
0.0
  0
ARC
  5
D8D8
  8
0
 10
3631.694446655235879
 20
168.5712508248514041
 30
0.0
 40
0.0118110235997446
 50
89.9999999987493453
 51
180.0000000005128982
  0
LINE
  5
D8D9
  8
0
 10
3633.1565731958999095
 20
169.4907246500320923
 30
0.0
 11
3632.2165731959207733
 21
169.490724650032206
 31
0.0
  0
LINE
  5
D8DA
  8
0
 10
3633.1565731958999095
 20
169.4907246500320923
 30
0.0
 11
3633.1565731958999095
 21
173.8957246499942073
 31
0.0
  0
LINE
  5
D8DB
  8
0
 10
3633.1565731958999095
 20
174.0557246500034125
 30
0.0
 11
3633.1565731958999095
 21
174.2406996436511974
 31
0.0
  0
LINE
  5
D8DC
  8
0
 10
3633.1565731958999095
 20
174.2406996436511974
 30
0.0
 11
3632.2165731959207733
 21
174.2406996436513964
 31
0.0
  0
LINE
  5
D8DD
  8
0
 10
3632.2165731959207733
 20
174.2406996436513964
 30
0.0
 11
3632.2165731959207733
 21
169.490724650032206
 31
0.0
  0
LINE
  5
D8DE
  8
0
 10
3633.1465731959160621
 20
174.2466996436513114
 30
0.0
 11
3633.146573195846031
 21
174.2867075176380922
 31
0.0
  0
LINE
  5
D8DF
  8
0
 10
3633.146573195846031
 20
174.2867075176380922
 30
0.0
 11
3632.2265731958341348
 21
174.2867075160116883
 31
0.0
  0
LINE
  5
D8E0
  8
0
 10
3632.2265731958341348
 20
174.2867075160116883
 30
0.0
 11
3632.2265731959050754
 21
174.2466996436513114
 31
0.0
  0
LINE
  5
D8E1
  8
0
 10
3632.304073195915862
 20
174.2946996436513984
 30
0.0
 11
3632.3040731959072218
 21
174.2917075176436867
 31
0.0
  0
ARC
  5
D8E2
  8
0
 10
3632.3090778544419663
 20
174.2917075176297033
 30
0.0
 40
0.0050046585343561
 50
179.9999998393751071
 51
267.5280476580650202
  0
LINE
  5
D8E3
  8
0
 10
3633.0690731959048208
 20
174.2946996436513132
 30
0.0
 11
3633.0690731959139157
 21
174.2917075176436015
 31
0.0
  0
ARC
  5
D8E4
  8
0
 10
3633.0640704152519902
 20
174.2917075176295896
 30
0.0
 40
0.0050027806616812
 50
271.9103607285459248
 51
0.0000001606785692
  0
LINE
  5
D8E5
  8
0
 10
3633.1445731959338445
 20
174.2946996436513132
 30
0.0
 11
3632.2285731958868382
 21
174.2946996436513984
 31
0.0
  0
ARC
  5
D8E6
  8
0
 10
3632.2285731958868382
 20
174.3066996436168949
 30
0.0
 40
0.0119999999657197
 50
179.9999999999901945
 51
270.0
  0
LINE
  5
D8E7
  8
0
 10
3632.2165731959207733
 20
174.3066996436170939
 30
0.0
 11
3632.2165731959207733
 21
174.8473945517096979
 31
0.0
  0
LINE
  5
D8E8
  8
0
 10
3632.2191650354088779
 20
177.2875469519186993
 30
0.0
 11
3632.190474324727802
 21
177.2941707243425924
 31
0.0
  0
LINE
  5
D8E9
  8
0
 10
3632.2326229132700064
 20
177.2941814032784862
 30
0.0
 11
3632.2784866779870754
 21
177.2835668725792004
 31
0.0
  0
LINE
  5
D8EA
  8
0
 10
3632.2117295161260699
 20
177.400580352528209
 30
0.0
 11
3632.2384510590518403
 21
177.3941612852518972
 31
0.0
  0
LINE
  5
D8EB
  8
0
 10
3632.240406109309788
 20
177.375013067638605
 30
0.0
 11
3632.2733016753959419
 21
177.3761794848645081
 31
0.0
  0
LINE
  5
D8EC
  8
0
 10
3632.2185520976440785
 20
177.3757168197629994
 30
0.0
 11
3632.1982580823028002
 21
177.3750081371271108
 31
0.0
  0
LINE
  5
D8ED
  8
0
 10
3632.2202182578880638
 20
177.4813453354495039
 30
0.0
 11
3632.2360171733121206
 21
177.4817611661331966
 31
0.0
  0
ARC
  5
D8EE
  8
0
 10
3632.2205200555690681
 20
177.4705615485499948
 30
0.0
 40
0.0107880091647284
 50
91.6030751747153431
 51
150.1524942240675955
  0
ARC
  5
D8EF
  8
0
 10
3632.2601942299711482
 20
177.4566306211463882
 30
0.0
 40
0.0526929708073733
 50
158.514013255495712
 51
176.0595150480820905
  0
ARC
  5
D8F0
  8
0
 10
3632.5498181533648676
 20
177.4080764664286107
 30
0.0
 40
0.346147140248042
 50
171.3306879025691103
 51
179.8579614932488084
  0
ARC
  5
D8F1
  8
0
 10
3632.2142948840578356
 20
177.4111172961339946
 30
0.0
 40
0.0108447357354948
 50
191.6112250346994017
 51
256.3167439434209882
  0
ARC
  5
D8F2
  8
0
 10
3632.4323431410521152
 20
177.4179051029697121
 30
0.0
 40
0.2275273118415689
 50
170.1832792263917042
 51
177.494732910699895
  0
ARC
  5
D8F3
  8
0
 10
3629.63171299017813
 20
177.1465591785635922
 30
0.0
 40
2.588648734686104
 50
6.2099368730641951
 51
6.2382732792188582
  0
ARC
  5
D8F4
  8
0
 10
3632.2009808426610107
 20
177.4288785111151867
 30
0.0
 40
0.0047811573803493
 50
331.2372618752656876
 51
352.6941809271324928
  0
ARC
  5
D8F5
  8
0
 10
3631.9574902330300574
 20
177.4668759794951995
 30
0.0
 40
0.2512169980914007
 50
351.1601120050240183
 51
357.6549653537247195
  0
ARC
  5
D8F6
  8
0
 10
3632.1949031229128195
 20
177.4557922622203137
 30
0.0
 40
0.0136175176560398
 50
3.3874740288887191
 51
6.1107614241966166
  0
ARC
  5
D8F7
  8
0
 10
3632.2095330876891239
 20
177.4585638272174037
 30
0.0
 40
0.0017132759757246
 50
228.5816214867207066
 51
230.4980601149597135
  0
ARC
  5
D8F8
  8
0
 10
3632.2094818767368452
 20
177.4564636086566054
 30
0.0
 40
0.001355032999736
 50
143.0023524993194997
 51
170.0457489441201062
  0
ARC
  5
D8F9
  8
0
 10
3632.2258964227430624
 20
177.3201807445707061
 30
0.0
 40
0.000201328117545
 50
180.6706358956353995
 51
326.7048217641097949
  0
ARC
  5
D8FA
  8
0
 10
3632.2288552865647944
 20
177.3507401399079129
 30
0.0
 40
0.0002127056461698
 50
14.2093363629598208
 51
147.0866545959142115
  0
ARC
  5
D8FB
  8
0
 10
3632.2261145470952215
 20
177.3496212790936113
 30
0.0
 40
0.0031710962831817
 50
6.4471046508460628
 51
21.6721967736486789
  0
ARC
  5
D8FC
  8
0
 10
3632.1259856039628175
 20
177.3459062972148104
 30
0.0
 40
0.1033601896516577
 50
345.5247636471999044
 51
2.2572947001301968
  0
ARC
  5
D8FD
  8
0
 10
3632.3246413816218592
 20
177.3260450908555015
 30
0.0
 40
0.0991200443019192
 50
165.5042093526010945
 51
183.3931973940075011
  0
ARC
  5
D8FE
  8
0
 10
3632.2410857913300788
 20
177.3632111402619955
 30
0.0
 40
0.0118214828784833
 50
93.2960669444516668
 51
166.9375521194843941
  0
ARC
  5
D8FF
  8
0
 10
3632.4617301271277938
 20
177.312018014921108
 30
0.0
 40
0.2383268007015241
 50
166.9375521194843941
 51
180.7668192520725086
  0
ARC
  5
D900
  8
0
 10
3632.2487541460268403
 20
177.3091674762692946
 30
0.0
 40
0.0253317441940126
 50
180.7668192520725086
 51
198.653760326574286
  0
ARC
  5
D901
  8
0
 10
3632.2346089021689295
 20
177.304392295495802
 30
0.0
 40
0.0104022339800426
 50
198.6537603265396967
 51
258.9935522847724769
  0
ARC
  5
D902
  8
0
 10
3632.1986433531760667
 20
177.364354833281908
 30
0.0
 40
0.0106602681233143
 50
92.0711677221714666
 51
174.4289426812011925
  0
ARC
  5
D903
  8
0
 10
3656.3051044821058895
 20
175.0129893777753125
 30
0.0
 40
24.2315270500124811
 50
174.4289426812011925
 51
174.5710572981298867
  0
ARC
  5
D904
  8
0
 10
3632.1928852427258789
 20
177.304554769028897
 30
0.0
 40
0.0106602490420025
 50
174.5710572981315067
 51
256.9289219560720881
  0
ARC
  5
D905
  8
0
 10
3632.4708960005277731
 20
177.4032144102887116
 30
0.0
 40
0.2538376701666257
 50
180.8851723719990048
 51
186.2189100387242036
  0
ARC
  5
D906
  8
0
 10
3631.5440208278678256
 20
177.326940560674899
 30
0.0
 40
0.6762925087470874
 50
355.1197999100834863
 51
4.1359357017253569
  0
ARC
  5
D907
  8
0
 10
3632.2809266006679536
 20
177.3625536628989892
 30
0.0
 40
0.0400405492446033
 50
147.6119115518183946
 51
161.736907683419787
  0
ARC
  5
D908
  8
0
 10
3632.2578421124621855
 20
177.3781215815153871
 30
0.0
 40
0.0122330766389615
 50
95.4601893442266345
 51
151.2720118847527999
  0
ARC
  5
D909
  8
0
 10
3632.2551986101011607
 20
177.375170889479989
 30
0.0
 40
0.0152004325530588
 50
41.7484871967711371
 51
84.4144955840321671
  0
ARC
  5
D90A
  8
0
 10
3632.2316453108378482
 20
177.352332730408591
 30
0.0
 40
0.0479991708910077
 50
25.3866793808455604
 51
43.3670166885708568
  0
ARC
  5
D90B
  8
0
 10
3632.1643720117431258
 20
177.3238654056540895
 30
0.0
 40
0.1210211916156669
 50
335.2160753898486973
 51
23.9077972294929211
  0
ARC
  5
D90C
  8
0
 10
3632.2504721388299913
 20
177.2817480208493919
 30
0.0
 40
0.0252869680022534
 50
284.2082714271580812
 51
340.0826156204324775
  0
ARC
  5
D90D
  8
0
 10
3632.2586482390747733
 20
177.2709684552451961
 30
0.0
 40
0.0138743685194886
 50
202.2760590094704867
 51
261.8392385697782743
  0
ARC
  5
D90E
  8
0
 10
3632.3238171767129643
 20
177.3016855731785881
 30
0.0
 40
0.085904184394576
 50
185.9023982786046929
 51
204.7586996793791911
  0
ARC
  5
D90F
  8
0
 10
3632.3171392187391575
 20
177.4689543923691133
 30
0.0
 40
0.0970997760997298
 50
166.2551693654937992
 51
172.6588071253706005
  0
ARC
  5
D910
  8
0
 10
3632.2361266305429126
 20
177.4887682995916975
 30
0.0
 40
0.0136993544045622
 50
146.5404802595589047
 51
166.2470427170179903
  0
ARC
  5
D911
  8
0
 10
3632.2275815679117841
 20
177.4944154751644021
 30
0.0
 40
0.0034568602107274
 50
100.4203571484188018
 51
146.5404802595629121
  0
ARC
  5
D912
  8
0
 10
3632.2263050567080427
 20
177.493742785472989
 30
0.0
 40
0.0041242834315691
 50
38.4123061720530927
 51
80.9142793564272722
  0
ARC
  5
D913
  8
0
 10
3632.1911200374138389
 20
177.4704719368880887
 30
0.0
 40
0.0462947028154723
 50
12.6810142711326108
 51
33.9189214382485886
  0
ARC
  5
D914
  8
0
 10
3632.0403270568240259
 20
177.4324634050080931
 30
0.0
 40
0.201792416977821
 50
342.4303709458243929
 51
13.8108291987927192
  0
ARC
  5
D915
  8
0
 10
3632.2262112242251533
 20
177.3690749527106902
 30
0.0
 40
0.0043879237851265
 50
279.7766771232497831
 51
322.8821710236123863
  0
ARC
  5
D916
  8
0
 10
3632.2277662580208926
 20
177.3685545935884136
 30
0.0
 40
0.0038891099447568
 50
201.60305165317979
 51
257.9798738972880869
  0
ARC
  5
D917
  8
0
 10
3632.3286240788538635
 20
177.3985844707434865
 30
0.0
 40
0.1091082280453352
 50
179.9341353740522891
 51
196.7594120506024069
  0
LINE
  5
D918
  8
0
 10
3632.2191855763471722
 20
177.0759419168489899
 30
0.0
 11
3632.1904948656660963
 21
177.0825656892729114
 31
0.0
  0
LINE
  5
D919
  8
0
 10
3632.2326434542078459
 20
177.0825763682092031
 30
0.0
 11
3632.2785072189249149
 21
177.0719618375094058
 31
0.0
  0
LINE
  5
D91A
  8
0
 10
3632.2117500570639095
 20
177.1889753174588122
 30
0.0
 11
3632.2384715999901346
 21
177.1825562501821878
 31
0.0
  0
LINE
  5
D91B
  8
0
 10
3632.2404266502471728
 20
177.1634080325688103
 30
0.0
 11
3632.2733222163337814
 21
177.1645744497947135
 31
0.0
  0
LINE
  5
D91C
  8
0
 10
3632.218572638581918
 20
177.1641117846932048
 30
0.0
 11
3632.198278623240185
 21
177.1634031020572877
 31
0.0
  0
LINE
  5
D91D
  8
0
 10
3632.2202387988259034
 20
177.2697403003799934
 30
0.0
 11
3632.2360377142499601
 21
177.2701561310634872
 31
0.0
  0
ARC
  5
D91E
  8
0
 10
3632.2205405965069076
 20
177.2589565134803138
 30
0.0
 40
0.0107880091647284
 50
91.6030751747153431
 51
150.1524942240675955
  0
ARC
  5
D91F
  8
0
 10
3632.2602147709089877
 20
177.2450255860767072
 30
0.0
 40
0.0526929708073733
 50
158.514013255495712
 51
176.0595150480820905
  0
ARC
  5
D920
  8
0
 10
3632.5498386943017977
 20
177.1964714313589013
 30
0.0
 40
0.346147140248042
 50
171.3306879025691103
 51
179.8579614932488084
  0
ARC
  5
D921
  8
0
 10
3632.2143154249961299
 20
177.1995122610641999
 30
0.0
 40
0.0108447357354948
 50
191.6112250346994017
 51
256.3167439434209882
  0
ARC
  5
D922
  8
0
 10
3632.4323636819899548
 20
177.2063000679000027
 30
0.0
 40
0.2275273118415689
 50
170.1832792263917042
 51
177.494732910699895
  0
ARC
  5
D923
  8
0
 10
3629.6317335311159695
 20
176.9349541434937976
 30
0.0
 40
2.588648734686104
 50
6.2099368730641951
 51
6.2382732792188582
  0
ARC
  5
D924
  8
0
 10
3632.2010013835988502
 20
177.217273476045392
 30
0.0
 40
0.0047811573803493
 50
331.2372618752656876
 51
352.6941809271324928
  0
ARC
  5
D925
  8
0
 10
3631.9575107739669875
 20
177.2552709444254901
 30
0.0
 40
0.2512169980914007
 50
351.1601120050240183
 51
357.6549653537247195
  0
ARC
  5
D926
  8
0
 10
3632.1949236638511138
 20
177.2441872271506043
 30
0.0
 40
0.0136175176560398
 50
3.3874740288887191
 51
6.1107614241966166
  0
ARC
  5
D927
  8
0
 10
3632.209553628626054
 20
177.2469587921476091
 30
0.0
 40
0.0017132759757246
 50
228.5816214867207066
 51
230.4980601149597135
  0
ARC
  5
D928
  8
0
 10
3632.2095024176737752
 20
177.2448585735872086
 30
0.0
 40
0.001355032999736
 50
143.0023524993194997
 51
170.0457489441201062
  0
ARC
  5
D929
  8
0
 10
3632.2259169636799925
 20
177.1085757095009114
 30
0.0
 40
0.000201328117545
 50
180.6706358956353995
 51
326.7048217641097949
  0
ARC
  5
D92A
  8
0
 10
3632.2288758275021792
 20
177.1391351048382035
 30
0.0
 40
0.0002127056461698
 50
14.2093363629598208
 51
147.0866545959142115
  0
ARC
  5
D92B
  8
0
 10
3632.226135088033061
 20
177.1380162440237882
 30
0.0
 40
0.0031710962831817
 50
6.4471046508460628
 51
21.6721967736486789
  0
ARC
  5
D92C
  8
0
 10
3632.1260061449011118
 20
177.134301262145101
 30
0.0
 40
0.1033601896516577
 50
345.5247636471999044
 51
2.2572947001301968
  0
ARC
  5
D92D
  8
0
 10
3632.3246619225601535
 20
177.1144400557857068
 30
0.0
 40
0.0991200443019192
 50
165.5042093526010945
 51
183.3931973940075011
  0
ARC
  5
D92E
  8
0
 10
3632.2411063322679183
 20
177.1516061051925988
 30
0.0
 40
0.0118214828784833
 50
93.2960669444516668
 51
166.9375521194843941
  0
ARC
  5
D92F
  8
0
 10
3632.4617506680660881
 20
177.1004129798517113
 30
0.0
 40
0.2383268007015241
 50
166.9375521194843941
 51
180.7668192520725086
  0
ARC
  5
D930
  8
0
 10
3632.2487746869651346
 20
177.0975624411996137
 30
0.0
 40
0.0253317441940126
 50
180.7668192520725086
 51
198.653760326574286
  0
ARC
  5
D931
  8
0
 10
3632.2346294431058595
 20
177.0927872604260926
 30
0.0
 40
0.0104022339800426
 50
198.6537603265396967
 51
258.9935522847724769
  0
ARC
  5
D932
  8
0
 10
3632.1986638941129968
 20
177.1527497982125112
 30
0.0
 40
0.0106602681233143
 50
92.0711677221714666
 51
174.4289426812011925
  0
ARC
  5
D933
  8
0
 10
3656.3051250230441838
 20
174.8013843427054894
 30
0.0
 40
24.2315270500124811
 50
174.4289426812011925
 51
174.5710572981298867
  0
ARC
  5
D934
  8
0
 10
3632.192905783662809
 20
177.0929497339591023
 30
0.0
 40
0.0106602490420025
 50
174.5710572981315067
 51
256.9289219560720881
  0
ARC
  5
D935
  8
0
 10
3632.4709165414660674
 20
177.1916093752188885
 30
0.0
 40
0.2538376701666257
 50
180.8851723719990048
 51
186.2189100387242036
  0
ARC
  5
D936
  8
0
 10
3631.5440413688061199
 20
177.1153355256051043
 30
0.0
 40
0.6762925087470874
 50
354.9289149868051254
 51
4.1359357017253569
  0
ARC
  5
D937
  8
0
 10
3632.2809471416057931
 20
177.1509486278295924
 30
0.0
 40
0.0400405492446033
 50
147.6119115518183946
 51
161.736907683419787
  0
ARC
  5
D938
  8
0
 10
3632.257862653400025
 20
177.1665165464457061
 30
0.0
 40
0.0122330766389615
 50
95.4601893442266345
 51
151.2720118847527999
  0
ARC
  5
D939
  8
0
 10
3632.2552191510380908
 20
177.163565854410308
 30
0.0
 40
0.0152004325530588
 50
41.7484871967711371
 51
84.4144955840321671
  0
ARC
  5
D93A
  8
0
 10
3632.2316658517761425
 20
177.1407276953389101
 30
0.0
 40
0.0479991708910077
 50
25.3866793808455604
 51
43.3670166885708568
  0
ARC
  5
D93B
  8
0
 10
3632.1643925526800558
 20
177.1122603705846927
 30
0.0
 40
0.1210211916156669
 50
335.2160753898486973
 51
23.9077972294929211
  0
ARC
  5
D93C
  8
0
 10
3632.2504926797678309
 20
177.0701429857797109
 30
0.0
 40
0.0252869680022534
 50
284.2082714271580812
 51
340.0826156204324775
  0
ARC
  5
D93D
  8
0
 10
3632.2586687800130676
 20
177.0593634201754867
 30
0.0
 40
0.0138743685194886
 50
202.2760590094704867
 51
261.8392385697782743
  0
ARC
  5
D93E
  8
0
 10
3632.3238377176498943
 20
177.0900805381091061
 30
0.0
 40
0.085904184394576
 50
185.9023982786046929
 51
204.7586996793791911
  0
ARC
  5
D93F
  8
0
 10
3632.3171597596769971
 20
177.2573493572996881
 30
0.0
 40
0.0970997760997298
 50
166.2551693654937992
 51
172.6588071253706005
  0
ARC
  5
D940
  8
0
 10
3632.2361471714812069
 20
177.2771632645223008
 30
0.0
 40
0.0136993544045622
 50
146.5404802595589047
 51
166.2470427170179903
  0
ARC
  5
D941
  8
0
 10
3632.2276021088500784
 20
177.2828104400948916
 30
0.0
 40
0.0034568602107274
 50
100.4203571484188018
 51
146.5404802595629121
  0
ARC
  5
D942
  8
0
 10
3632.2263255976449727
 20
177.2821377504035922
 30
0.0
 40
0.0041242834315691
 50
38.4123061720530927
 51
80.9142793564272722
  0
ARC
  5
D943
  8
0
 10
3632.1911405783521332
 20
177.258866901818692
 30
0.0
 40
0.0462947028154723
 50
12.6810142711326108
 51
33.9189214382485886
  0
ARC
  5
D944
  8
0
 10
3632.0403475977618655
 20
177.2208583699384121
 30
0.0
 40
0.201792416977821
 50
342.4303709458243929
 51
13.8108291987927192
  0
ARC
  5
D945
  8
0
 10
3632.2262317651629928
 20
177.1574699176410093
 30
0.0
 40
0.0043879237851265
 50
279.7766771232497831
 51
322.8821710236123863
  0
ARC
  5
D946
  8
0
 10
3632.2277867989578226
 20
177.1569495585189884
 30
0.0
 40
0.0038891099447568
 50
201.60305165317979
 51
257.9798738972880869
  0
ARC
  5
D947
  8
0
 10
3632.3286446197907935
 20
177.1869794356740897
 30
0.0
 40
0.1091082280453352
 50
179.9341353740522891
 51
196.7594120506024069
  0
LINE
  5
D948
  8
0
 10
3632.2189115115811546
 20
176.8620673298063082
 30
0.0
 11
3632.1902208008991693
 21
176.8686911022298887
 31
0.0
  0
LINE
  5
D949
  8
0
 10
3632.2323693894409189
 20
176.8687017811662088
 30
0.0
 11
3632.2782331541579879
 21
176.8580872504664967
 31
0.0
  0
LINE
  5
D94A
  8
0
 10
3632.2114759922978919
 20
176.9751007304157895
 30
0.0
 11
3632.238197535224117
 21
176.9686816631391935
 31
0.0
  0
LINE
  5
D94B
  8
0
 10
3632.2401525854811553
 20
176.9495334455262139
 30
0.0
 11
3632.2730481515682186
 21
176.9506998627520886
 31
0.0
  0
LINE
  5
D94C
  8
0
 10
3632.2182985738140815
 20
176.9502371976506083
 30
0.0
 11
3632.1980045584728032
 21
176.949528515014606
 31
0.0
  0
LINE
  5
D94D
  8
0
 10
3632.2199647340598858
 20
177.0558657133371128
 30
0.0
 11
3632.2357636494830331
 21
177.0562815440204929
 31
0.0
  0
ARC
  5
D94E
  8
0
 10
3632.2202665317408901
 20
177.045081926437291
 30
0.0
 40
0.0107880091647284
 50
91.6030751747153431
 51
150.1524942240675955
  0
ARC
  5
D94F
  8
0
 10
3632.2599407061420607
 20
177.0311509990337129
 30
0.0
 40
0.0526929708073733
 50
158.514013255495712
 51
176.0595150480820905
  0
ARC
  5
D950
  8
0
 10
3632.5495646295357801
 20
176.9825968443161912
 30
0.0
 40
0.346147140248042
 50
171.3306879025691103
 51
179.8579614932488084
  0
ARC
  5
D951
  8
0
 10
3632.2140413602292028
 20
176.9856376740216035
 30
0.0
 40
0.0108447357354948
 50
191.6112250346994017
 51
256.3167439434209882
  0
ARC
  5
D952
  8
0
 10
3632.4320896172230277
 20
176.9924254808572925
 30
0.0
 40
0.2275273118415689
 50
170.1832792263917042
 51
177.494732910699895
  0
ARC
  5
D953
  8
0
 10
3629.6314594663490425
 20
176.7210795564508885
 30
0.0
 40
2.588648734686104
 50
6.2099368730641951
 51
6.2382732792188582
  0
ARC
  5
D954
  8
0
 10
3632.2007273188328327
 20
177.0033988890027956
 30
0.0
 40
0.0047811573803493
 50
331.2372618752656876
 51
352.6941809271324928
  0
ARC
  5
D955
  8
0
 10
3631.9572367092009699
 20
177.0413963573824958
 30
0.0
 40
0.2512169980914007
 50
351.1601120050240183
 51
357.6549653537247195
  0
ARC
  5
D956
  8
0
 10
3632.1946495990841868
 20
177.0303126401080078
 30
0.0
 40
0.0136175176560398
 50
3.3874740288887191
 51
6.1107614241966166
  0
ARC
  5
D957
  8
0
 10
3632.2092795638600364
 20
177.0330842051047
 30
0.0
 40
0.0017132759757246
 50
228.5816214867207066
 51
230.4980601149597135
  0
ARC
  5
D958
  8
0
 10
3632.2092283529082124
 20
177.0309839865441859
 30
0.0
 40
0.001355032999736
 50
143.0023524993194997
 51
170.0457489441201062
  0
ARC
  5
D959
  8
0
 10
3632.2256428989148844
 20
176.8947011224578887
 30
0.0
 40
0.000201328117545
 50
180.6706358956353995
 51
326.7048217641097949
  0
ARC
  5
D95A
  8
0
 10
3632.2286017627361616
 20
176.9252605177952091
 30
0.0
 40
0.0002127056461698
 50
14.2093363629598208
 51
147.0866545959142115
  0
ARC
  5
D95B
  8
0
 10
3632.2258610232670435
 20
176.9241416569809076
 30
0.0
 40
0.0031710962831817
 50
6.4471046508460628
 51
21.6721967736486789
  0
ARC
  5
D95C
  8
0
 10
3632.1257320801350943
 20
176.9204266751021066
 30
0.0
 40
0.1033601896516577
 50
345.5247636471999044
 51
2.2572947001301968
  0
ARC
  5
D95D
  8
0
 10
3632.3243878577941359
 20
176.9005654687427977
 30
0.0
 40
0.0991200443019192
 50
165.5042093526010945
 51
183.3931973940075011
  0
ARC
  5
D95E
  8
0
 10
3632.2408322675009913
 20
176.9377315181496044
 30
0.0
 40
0.0118214828784833
 50
93.2960669444516668
 51
166.9375521194843941
  0
ARC
  5
D95F
  8
0
 10
3632.4614766033000706
 20
176.8865383928086885
 30
0.0
 40
0.2383268007015241
 50
166.9375521194843941
 51
180.7668192520725086
  0
ARC
  5
D960
  8
0
 10
3632.2485006221982076
 20
176.8836878541565909
 30
0.0
 40
0.0253317441940126
 50
180.7668192520725086
 51
198.653760326574286
  0
ARC
  5
D961
  8
0
 10
3632.234355378339842
 20
176.8789126733830983
 30
0.0
 40
0.0104022339800426
 50
198.6537603265396967
 51
258.9935522847724769
  0
ARC
  5
D962
  8
0
 10
3632.1983898293460697
 20
176.9388752111694885
 30
0.0
 40
0.0106602681233143
 50
92.0711677221714666
 51
174.4289426812011925
  0
ARC
  5
D963
  8
0
 10
3656.304850958276802
 20
174.5875097556624951
 30
0.0
 40
24.2315270500124811
 50
174.4289426812011925
 51
174.5710572981298867
  0
ARC
  5
D964
  8
0
 10
3632.1926317188958819
 20
176.8790751469165059
 30
0.0
 40
0.0106602490420025
 50
174.5710572981315067
 51
256.9289219560720881
  0
ARC
  5
D965
  8
0
 10
3632.4706424766991404
 20
176.9777347881762921
 30
0.0
 40
0.2538376701666257
 50
180.8851723719990048
 51
186.2189100387242036
  0
ARC
  5
D966
  8
0
 10
3631.5437673040401023
 20
176.9014609385621952
 30
0.0
 40
0.6762925087470874
 50
355.0149438848948193
 51
4.1359357017253569
  0
ARC
  5
D967
  8
0
 10
3632.2806730768388661
 20
176.9370740407865981
 30
0.0
 40
0.0400405492446033
 50
147.6119115518183946
 51
161.736907683419787
  0
ARC
  5
D968
  8
0
 10
3632.2575885886340075
 20
176.9526419594027118
 30
0.0
 40
0.0122330766389615
 50
95.4601893442266345
 51
151.2720118847527999
  0
ARC
  5
D969
  8
0
 10
3632.2549450862720732
 20
176.9496912673673137
 30
0.0
 40
0.0152004325530588
 50
41.7484871967711371
 51
84.4144955840321671
  0
ARC
  5
D96A
  8
0
 10
3632.231391787010125
 20
176.9268531082961999
 30
0.0
 40
0.0479991708910077
 50
25.3866793808455604
 51
43.3670166885708568
  0
ARC
  5
D96B
  8
0
 10
3632.1641184879140383
 20
176.8983857835418121
 30
0.0
 40
0.1210211916156669
 50
335.2160753898486973
 51
23.9077972294929211
  0
ARC
  5
D96C
  8
0
 10
3632.2502186150009038
 20
176.8562683987366881
 30
0.0
 40
0.0252869680022534
 50
284.2082714271580812
 51
340.0826156204324775
  0
ARC
  5
D96D
  8
0
 10
3632.25839471524705
 20
176.8454888331324923
 30
0.0
 40
0.0138743685194886
 50
202.2760590094704867
 51
261.8392385697782743
  0
ARC
  5
D96E
  8
0
 10
3632.3235636528838768
 20
176.876205951066197
 30
0.0
 40
0.085904184394576
 50
185.9023982786046929
 51
204.7586996793791911
  0
ARC
  5
D96F
  8
0
 10
3632.3168856949109795
 20
177.0434747702566938
 30
0.0
 40
0.0970997760997298
 50
166.2551693654937992
 51
172.6588071253706005
  0
ARC
  5
D970
  8
0
 10
3632.2358731067138251
 20
177.0632886774793064
 30
0.0
 40
0.0136993544045622
 50
146.5404802595589047
 51
166.2470427170179903
  0
ARC
  5
D971
  8
0
 10
3632.2273280440831513
 20
177.068935853052011
 30
0.0
 40
0.0034568602107274
 50
100.4203571484188018
 51
146.5404802595629121
  0
ARC
  5
D972
  8
0
 10
3632.2260515328789552
 20
177.0682631633605979
 30
0.0
 40
0.0041242834315691
 50
38.4123061720530927
 51
80.9142793564272722
  0
ARC
  5
D973
  8
0
 10
3632.1908665135852061
 20
177.0449923147756977
 30
0.0
 40
0.0462947028154723
 50
12.6810142711326108
 51
33.9189214382485886
  0
ARC
  5
D974
  8
0
 10
3632.0400735329949384
 20
177.0069837828953894
 30
0.0
 40
0.201792416977821
 50
342.4303709458243929
 51
13.8108291987927192
  0
ARC
  5
D975
  8
0
 10
3632.2259577003960658
 20
176.9435953305979865
 30
0.0
 40
0.0043879237851265
 50
279.7766771232497831
 51
322.8821710236123863
  0
ARC
  5
D976
  8
0
 10
3632.2275127341918051
 20
176.9430749714759941
 30
0.0
 40
0.0038891099447568
 50
201.60305165317979
 51
257.9798738972880869
  0
ARC
  5
D977
  8
0
 10
3632.328370555024776
 20
176.9731048486312091
 30
0.0
 40
0.1091082280453352
 50
179.9341353740522891
 51
196.7594120506024069
  0
LINE
  5
D978
  8
0
 10
3632.2191139429328359
 20
176.6493073883250133
 30
0.0
 11
3632.1904232322522148
 21
176.6559311607489064
 31
0.0
  0
LINE
  5
D979
  8
0
 10
3632.2325718207930549
 20
176.6559418396848002
 30
0.0
 11
3632.2784355855110334
 21
176.6453273089850882
 31
0.0
  0
LINE
  5
D97A
  8
0
 10
3632.211678423650028
 20
176.7623407889344946
 30
0.0
 11
3632.2383999665757983
 21
176.7559217216578986
 31
0.0
  0
LINE
  5
D97B
  8
0
 10
3632.2403550168328366
 20
176.7367735040448053
 30
0.0
 11
3632.2732505829189904
 21
176.7379399212707085
 31
0.0
  0
LINE
  5
D97C
  8
0
 10
3632.218501005167127
 20
176.7374772561693135
 30
0.0
 11
3632.1982069898249392
 21
176.7367685735333112
 31
0.0
  0
LINE
  5
D97D
  8
0
 10
3632.2201671654111124
 20
176.8431057718557042
 30
0.0
 11
3632.2359660808351691
 21
176.8435216025391981
 31
0.0
  0
ARC
  5
D97E
  8
0
 10
3632.2204689630930261
 20
176.8323219849563088
 30
0.0
 40
0.0107880091647284
 50
91.6030751747153431
 51
150.1524942240675955
  0
ARC
  5
D97F
  8
0
 10
3632.2601431374928325
 20
176.8183910575527023
 30
0.0
 40
0.0526929708073733
 50
158.514013255495712
 51
176.0595150480820905
  0
ARC
  5
D980
  8
0
 10
3632.5497670608888257
 20
176.7698369028348964
 30
0.0
 40
0.346147140248042
 50
171.3306879025691103
 51
179.8579614932488084
  0
ARC
  5
D981
  8
0
 10
3632.2142437915808841
 20
176.7728777325403087
 30
0.0
 40
0.0108447357354948
 50
191.6112250346994017
 51
256.3167439434209882
  0
ARC
  5
D982
  8
0
 10
3632.4322920485760733
 20
176.7796655393759977
 30
0.0
 40
0.2275273118415689
 50
170.1832792263917042
 51
177.494732910699895
  0
ARC
  5
D983
  8
0
 10
3629.6316618977011785
 20
176.5083196149699063
 30
0.0
 40
2.588648734686104
 50
6.2099368730641951
 51
6.2382732792188582
  0
ARC
  5
D984
  8
0
 10
3632.2009297501840592
 20
176.7906389475213871
 30
0.0
 40
0.0047811573803493
 50
331.2372618752656876
 51
352.6941809271324928
  0
ARC
  5
D985
  8
0
 10
3631.9574391405540155
 20
176.828636415901201
 30
0.0
 40
0.2512169980914007
 50
351.1601120050240183
 51
357.6549653537247195
  0
ARC
  5
D986
  8
0
 10
3632.1948520304367776
 20
176.8175526986265993
 30
0.0
 40
0.0136175176560398
 50
3.3874740288887191
 51
6.1107614241966166
  0
ARC
  5
D987
  8
0
 10
3632.2094819952121725
 20
176.8203242636232915
 30
0.0
 40
0.0017132759757246
 50
228.5816214867207066
 51
230.4980601149597135
  0
ARC
  5
D988
  8
0
 10
3632.2094307842608032
 20
176.818224045062891
 30
0.0
 40
0.001355032999736
 50
143.0023524993194997
 51
170.0457489441201062
  0
ARC
  5
D989
  8
0
 10
3632.225845330266111
 20
176.6819411809769917
 30
0.0
 40
0.000201328117545
 50
180.6706358956353995
 51
326.7048217641097949
  0
ARC
  5
D98A
  8
0
 10
3632.2288041940878429
 20
176.7125005763141985
 30
0.0
 40
0.0002127056461698
 50
14.2093363629598208
 51
147.0866545959142115
  0
ARC
  5
D98B
  8
0
 10
3632.2260634546191795
 20
176.711381715499499
 30
0.0
 40
0.0031710962831817
 50
6.4471046508460628
 51
21.6721967736486789
  0
ARC
  5
D98C
  8
0
 10
3632.1259345114858661
 20
176.7076667336212097
 30
0.0
 40
0.1033601896516577
 50
345.5247636471999044
 51
2.2572947001301968
  0
ARC
  5
D98D
  8
0
 10
3632.3245902891458172
 20
176.6878055272613892
 30
0.0
 40
0.0991200443019192
 50
165.5042093526010945
 51
183.3931973940075011
  0
ARC
  5
D98E
  8
0
 10
3632.2410346988540368
 20
176.7249715766683096
 30
0.0
 40
0.0118214828784833
 50
93.2960669444516668
 51
166.9375521194843941
  0
ARC
  5
D98F
  8
0
 10
3632.4616790346522066
 20
176.6737784513273937
 30
0.0
 40
0.2383268007015241
 50
166.9375521194843941
 51
180.7668192520725086
  0
ARC
  5
D990
  8
0
 10
3632.2487030535507984
 20
176.6709279126756087
 30
0.0
 40
0.0253317441940126
 50
180.7668192520725086
 51
198.653760326574286
  0
ARC
  5
D991
  8
0
 10
3632.234557809691978
 20
176.6661527319018035
 30
0.0
 40
0.0104022339800426
 50
198.6537603265396967
 51
258.9935522847724769
  0
ARC
  5
D992
  8
0
 10
3632.1985922606982058
 20
176.7261152696881936
 30
0.0
 40
0.0106602681233143
 50
92.0711677221714666
 51
174.4289426812011925
  0
ARC
  5
D993
  8
0
 10
3656.3050533896298475
 20
174.3747498141815129
 30
0.0
 40
24.2315270500124811
 50
174.4289426812011925
 51
174.5710572981298867
  0
ARC
  5
D994
  8
0
 10
3632.1928341502489275
 20
176.6663152054350974
 30
0.0
 40
0.0106602490420025
 50
174.5710572981315067
 51
256.9289219560720881
  0
ARC
  5
D995
  8
0
 10
3632.4708449080508217
 20
176.7649748466949973
 30
0.0
 40
0.2538376701666257
 50
180.8851723719990048
 51
186.2189100387242036
  0
ARC
  5
D996
  8
0
 10
3631.5439697353917836
 20
176.688700997081213
 30
0.0
 40
0.6762925087470874
 50
355.0486209893259115
 51
4.1359357017253569
  0
ARC
  5
D997
  8
0
 10
3632.2808755081910022
 20
176.7243140993053032
 30
0.0
 40
0.0400405492446033
 50
147.6119115518183946
 51
161.736907683419787
  0
ARC
  5
D998
  8
0
 10
3632.2577910199861435
 20
176.7398820179217012
 30
0.0
 40
0.0122330766389615
 50
95.4601893442266345
 51
151.2720118847527999
  0
ARC
  5
D999
  8
0
 10
3632.2551475176242093
 20
176.7369313258863031
 30
0.0
 40
0.0152004325530588
 50
41.7484871967711371
 51
84.4144955840321671
  0
ARC
  5
D99A
  8
0
 10
3632.2315942183618063
 20
176.7140931668149051
 30
0.0
 40
0.0479991708910077
 50
25.3866793808455604
 51
43.3670166885708568
  0
ARC
  5
D99B
  8
0
 10
3632.1643209192670838
 20
176.6856258420604036
 30
0.0
 40
0.1210211916156669
 50
335.2160753898486973
 51
23.9077972294929211
  0
ARC
  5
D99C
  8
0
 10
3632.2504210463539494
 20
176.6435084572553933
 30
0.0
 40
0.0252869680022534
 50
284.2082714271580812
 51
340.0826156204324775
  0
ARC
  5
D99D
  8
0
 10
3632.2585971465991861
 20
176.6327288916515101
 30
0.0
 40
0.0138743685194886
 50
202.2760590094704867
 51
261.8392385697782743
  0
ARC
  5
D99E
  8
0
 10
3632.3237660842360128
 20
176.6634460095849022
 30
0.0
 40
0.085904184394576
 50
185.9023982786046929
 51
204.7586996793791911
  0
ARC
  5
D99F
  8
0
 10
3632.3170881262631156
 20
176.8307148287753989
 30
0.0
 40
0.0970997760997298
 50
166.2551693654937992
 51
172.6588071253706005
  0
ARC
  5
D9A0
  8
0
 10
3632.2360755380668706
 20
176.8505287359980116
 30
0.0
 40
0.0136993544045622
 50
146.5404802595589047
 51
166.2470427170179903
  0
ARC
  5
D9A1
  8
0
 10
3632.2275304754361969
 20
176.8561759115706877
 30
0.0
 40
0.0034568602107274
 50
100.4203571484188018
 51
146.5404802595629121
  0
ARC
  5
D9A2
  8
0
 10
3632.2262539642310912
 20
176.8555032218793031
 30
0.0
 40
0.0041242834315691
 50
38.4123061720530927
 51
80.9142793564272722
  0
ARC
  5
D9A3
  8
0
 10
3632.1910689449368874
 20
176.8322323732944028
 30
0.0
 40
0.0462947028154723
 50
12.6810142711326108
 51
33.9189214382485886
  0
ARC
  5
D9A4
  8
0
 10
3632.0402759643470745
 20
176.7942238414144072
 30
0.0
 40
0.201792416977821
 50
342.4303709458243929
 51
13.8108291987927192
  0
ARC
  5
D9A5
  8
0
 10
3632.2261601317482018
 20
176.7308353891170043
 30
0.0
 40
0.0043879237851265
 50
279.7766771232497831
 51
322.8821710236123863
  0
ARC
  5
D9A6
  8
0
 10
3632.2277151655430316
 20
176.7303150299946992
 30
0.0
 40
0.0038891099447568
 50
201.60305165317979
 51
257.9798738972880869
  0
ARC
  5
D9A7
  8
0
 10
3632.3285729863778215
 20
176.7603449071498005
 30
0.0
 40
0.1091082280453352
 50
179.9341353740522891
 51
196.7594120506024069
  0
LINE
  5
D9A8
  8
0
 10
3632.2187152240330761
 20
176.4367823550576873
 30
0.0
 11
3632.1900245133510907
 21
176.4434061274816088
 31
0.0
  0
LINE
  5
D9A9
  8
0
 10
3632.2321731018928404
 20
176.4434168064177868
 30
0.0
 11
3632.2780368666108188
 21
176.4328022757181031
 31
0.0
  0
LINE
  5
D9AA
  8
0
 10
3632.2112797047498134
 20
176.5498157556675096
 30
0.0
 11
3632.238001247676948
 21
176.5433966883909136
 31
0.0
  0
LINE
  5
D9AB
  8
0
 10
3632.2399562979330767
 20
176.5242484707775077
 30
0.0
 11
3632.2728518640201401
 21
176.5254148880036951
 31
0.0
  0
LINE
  5
D9AC
  8
0
 10
3632.2181022862669124
 20
176.5249522229019021
 30
0.0
 11
3632.1978082709260889
 21
176.5242435402660135
 31
0.0
  0
LINE
  5
D9AD
  8
0
 10
3632.2197684465118073
 20
176.6305807385886908
 30
0.0
 11
3632.235567361935864
 21
176.630996569272213
 31
0.0
  0
ARC
  5
D9AE
  8
0
 10
3632.2200702441928115
 20
176.6197969516888975
 30
0.0
 40
0.0107880091647284
 50
91.6030751747153431
 51
150.1524942240675955
  0
ARC
  5
D9AF
  8
0
 10
3632.2597444185939821
 20
176.6058660242854046
 30
0.0
 40
0.0526929708073733
 50
158.514013255495712
 51
176.0595150480820905
  0
ARC
  5
D9B0
  8
0
 10
3632.5493683419890658
 20
176.5573118695675134
 30
0.0
 40
0.346147140248042
 50
171.3306879025691103
 51
179.8579614932488084
  0
ARC
  5
D9B1
  8
0
 10
3632.2138450726820338
 20
176.5603526992728973
 30
0.0
 40
0.0108447357354948
 50
191.6112250346994017
 51
256.3167439434209882
  0
ARC
  5
D9B2
  8
0
 10
3632.4318933296749492
 20
176.5671405061087
 30
0.0
 40
0.2275273118415689
 50
170.1832792263917042
 51
177.494732910699895
  0
ARC
  5
D9B3
  8
0
 10
3629.6312631788009639
 20
176.295794581702495
 30
0.0
 40
2.588648734686104
 50
6.2099368730641951
 51
6.2382732792188582
  0
ARC
  5
D9B4
  8
0
 10
3632.2005310312852089
 20
176.5781139142540894
 30
0.0
 40
0.0047811573803493
 50
331.2372618752656876
 51
352.6941809271324928
  0
ARC
  5
D9B5
  8
0
 10
3631.9570404216528914
 20
176.6161113826341023
 30
0.0
 40
0.2512169980914007
 50
351.1601120050240183
 51
357.6549653537247195
  0
ARC
  5
D9B6
  8
0
 10
3632.1944533115361082
 20
176.6050276653593016
 30
0.0
 40
0.0136175176560398
 50
3.3874740288887191
 51
6.1107614241966166
  0
ARC
  5
D9B7
  8
0
 10
3632.2090832763119579
 20
176.6077992303563065
 30
0.0
 40
0.0017132759757246
 50
228.5816214867207066
 51
230.4980601149597135
  0
ARC
  5
D9B8
  8
0
 10
3632.2090320653601339
 20
176.605699011795906
 30
0.0
 40
0.001355032999736
 50
143.0023524993194997
 51
170.0457489441201062
  0
ARC
  5
D9B9
  8
0
 10
3632.2254466113668059
 20
176.4694161477096088
 30
0.0
 40
0.000201328117545
 50
180.6706358956353995
 51
326.7048217641097949
  0
ARC
  5
D9BA
  8
0
 10
3632.2284054751880831
 20
176.4999755430469008
 30
0.0
 40
0.0002127056461698
 50
14.2093363629598208
 51
147.0866545959142115
  0
ARC
  5
D9BB
  8
0
 10
3632.2256647357189649
 20
176.498856682232514
 30
0.0
 40
0.0031710962831817
 50
6.4471046508460628
 51
21.6721967736486789
  0
ARC
  5
D9BC
  8
0
 10
3632.1255357925870157
 20
176.4951417003537983
 30
0.0
 40
0.1033601896516577
 50
345.5247636471999044
 51
2.2572947001301968
  0
ARC
  5
D9BD
  8
0
 10
3632.3241915702451479
 20
176.4752804939944042
 30
0.0
 40
0.0991200443019192
 50
165.5042093526010945
 51
183.3931973940075011
  0
ARC
  5
D9BE
  8
0
 10
3632.2406359799538222
 20
176.5124465434012961
 30
0.0
 40
0.0118214828784833
 50
93.2960669444516668
 51
166.9375521194843941
  0
ARC
  5
D9BF
  8
0
 10
3632.461280315751992
 20
176.4612534180604086
 30
0.0
 40
0.2383268007015241
 50
166.9375521194843941
 51
180.7668192520725086
  0
ARC
  5
D9C0
  8
0
 10
3632.2483043346510385
 20
176.4584028794081974
 30
0.0
 40
0.0253317441940126
 50
180.7668192520725086
 51
198.653760326574286
  0
ARC
  5
D9C1
  8
0
 10
3632.2341590907922182
 20
176.45362769863479
 30
0.0
 40
0.0104022339800426
 50
198.6537603265396967
 51
258.9935522847724769
  0
ARC
  5
D9C2
  8
0
 10
3632.1981935417989007
 20
176.5135902364210949
 30
0.0
 40
0.0106602681233143
 50
92.0711677221714666
 51
174.4289426812011925
  0
ARC
  5
D9C3
  8
0
 10
3656.3046546707300877
 20
174.1622247809141868
 30
0.0
 40
24.2315270500124811
 50
174.4289426812011925
 51
174.5710572981298867
  0
ARC
  5
D9C4
  8
0
 10
3632.1924354313491676
 20
176.4537901721677997
 30
0.0
 40
0.0106602490420025
 50
174.5710572981315067
 51
256.9289219560720881
  0
ARC
  5
D9C5
  8
0
 10
3632.4704461891510618
 20
176.5524498134275859
 30
0.0
 40
0.2538376701666257
 50
180.8851723719990048
 51
186.2189100387242036
  0
ARC
  5
D9C6
  8
0
 10
3631.5435710164920238
 20
176.4761759638138017
 30
0.0
 40
0.6762925087470874
 50
355.0224123235786919
 51
4.1359357017253569
  0
ARC
  5
D9C7
  8
0
 10
3632.2804767892907876
 20
176.5117890660382898
 30
0.0
 40
0.0400405492446033
 50
147.6119115518183946
 51
161.736907683419787
  0
ARC
  5
D9C8
  8
0
 10
3632.2573923010859289
 20
176.5273569846542898
 30
0.0
 40
0.0122330766389615
 50
95.4601893442266345
 51
151.2720118847527999
  0
ARC
  5
D9C9
  8
0
 10
3632.2547487987239947
 20
176.5244062926190054
 30
0.0
 40
0.0152004325530588
 50
41.7484871967711371
 51
84.4144955840321671
  0
ARC
  5
D9CA
  8
0
 10
3632.2311954994629559
 20
176.5015681335478916
 30
0.0
 40
0.0479991708910077
 50
25.3866793808455604
 51
43.3670166885708568
  0
ARC
  5
D9CB
  8
0
 10
3632.1639222003659597
 20
176.4731008087933901
 30
0.0
 40
0.1210211916156669
 50
335.2160753898486973
 51
23.9077972294929211
  0
ARC
  5
D9CC
  8
0
 10
3632.2500223274528253
 20
176.4309834239884083
 30
0.0
 40
0.0252869680022534
 50
284.2082714271580812
 51
340.0826156204324775
  0
ARC
  5
D9CD
  8
0
 10
3632.2581984276989715
 20
176.4202038583842125
 30
0.0
 40
0.0138743685194886
 50
202.2760590094704867
 51
261.8392385697782743
  0
ARC
  5
D9CE
  8
0
 10
3632.3233673653357982
 20
176.4509209763178035
 30
0.0
 40
0.085904184394576
 50
185.9023982786046929
 51
204.7586996793791911
  0
ARC
  5
D9CF
  8
0
 10
3632.316689407362901
 20
176.6181897955084139
 30
0.0
 40
0.0970997760997298
 50
166.2551693654937992
 51
172.6588071253706005
  0
ARC
  5
D9D0
  8
0
 10
3632.2356768191662013
 20
176.6380037027309982
 30
0.0
 40
0.0136993544045622
 50
146.5404802595589047
 51
166.2470427170179903
  0
ARC
  5
D9D1
  8
0
 10
3632.2271317565359823
 20
176.643650878303589
 30
0.0
 40
0.0034568602107274
 50
100.4203571484188018
 51
146.5404802595629121
  0
ARC
  5
D9D2
  8
0
 10
3632.2258552453308766
 20
176.6429781886122896
 30
0.0
 40
0.0041242834315691
 50
38.4123061720530927
 51
80.9142793564272722
  0
ARC
  5
D9D3
  8
0
 10
3632.1906702260380371
 20
176.6197073400273894
 30
0.0
 40
0.0462947028154723
 50
12.6810142711326108
 51
33.9189214382485886
  0
ARC
  5
D9D4
  8
0
 10
3632.0398772454482241
 20
176.5816988081471095
 30
0.0
 40
0.201792416977821
 50
342.4303709458243929
 51
13.8108291987927192
  0
ARC
  5
D9D5
  8
0
 10
3632.2257614128479872
 20
176.518310355849593
 30
0.0
 40
0.0043879237851265
 50
279.7766771232497831
 51
322.8821710236123863
  0
ARC
  5
D9D6
  8
0
 10
3632.2273164466441813
 20
176.5177899967277142
 30
0.0
 40
0.0038891099447568
 50
201.60305165317979
 51
257.9798738972880869
  0
ARC
  5
D9D7
  8
0
 10
3632.3281742674780617
 20
176.5478198738827871
 30
0.0
 40
0.1091082280453352
 50
179.9341353740522891
 51
196.7594120506024069
  0
LINE
  5
D9D8
  8
0
 10
3632.2185210053880837
 20
176.2240030014656895
 30
0.0
 11
3632.1898302947060984
 21
176.2306267738896111
 31
0.0
  0
LINE
  5
D9D9
  8
0
 10
3632.231978883247848
 20
176.2306374528255901
 30
0.0
 11
3632.277842647964917
 21
176.2200229221261907
 31
0.0
  0
LINE
  5
D9DA
  8
0
 10
3632.211085486104821
 20
176.3370364020751992
 30
0.0
 11
3632.2378070290310461
 21
176.3306173347988874
 31
0.0
  0
LINE
  5
D9DB
  8
0
 10
3632.2397620792880844
 20
176.3114691171855952
 30
0.0
 11
3632.2726576453751477
 21
176.3126355344114984
 31
0.0
  0
LINE
  5
D9DC
  8
0
 10
3632.2179080676219201
 20
176.3121728693099897
 30
0.0
 11
3632.197614052280187
 21
176.3114641866739873
 31
0.0
  0
LINE
  5
D9DD
  8
0
 10
3632.2195742278668149
 20
176.4178013849964941
 30
0.0
 11
3632.2353731432899622
 21
176.4182172156801869
 31
0.0
  0
ARC
  5
D9DE
  8
0
 10
3632.2198760255478192
 20
176.4070175980970134
 30
0.0
 40
0.0107880091647284
 50
91.6030751747153431
 51
150.1524942240675955
  0
ARC
  5
D9DF
  8
0
 10
3632.2595501999480803
 20
176.3930866706934069
 30
0.0
 40
0.0526929708073733
 50
158.514013255495712
 51
176.0595150480820905
  0
ARC
  5
D9E0
  8
0
 10
3632.549174123343164
 20
176.344532515975601
 30
0.0
 40
0.346147140248042
 50
171.3306879025691103
 51
179.8579614932488084
  0
ARC
  5
D9E1
  8
0
 10
3632.2136508540361319
 20
176.3475733456810133
 30
0.0
 40
0.0108447357354948
 50
191.6112250346994017
 51
256.3167439434209882
  0
ARC
  5
D9E2
  8
0
 10
3632.4316991110299568
 20
176.3543611525167023
 30
0.0
 40
0.2275273118415689
 50
170.1832792263917042
 51
177.494732910699895
  0
ARC
  5
D9E3
  8
0
 10
3629.6310689601559716
 20
176.0830152281106109
 30
0.0
 40
2.588648734686104
 50
6.2099368730641951
 51
6.2382732792188582
  0
ARC
  5
D9E4
  8
0
 10
3632.2003368126402165
 20
176.3653345606622054
 30
0.0
 40
0.0047811573803493
 50
331.2372618752656876
 51
352.6941809271324928
  0
ARC
  5
D9E5
  8
0
 10
3631.956846203007899
 20
176.4033320290421898
 30
0.0
 40
0.2512169980914007
 50
351.1601120050240183
 51
357.6549653537247195
  0
ARC
  5
D9E6
  8
0
 10
3632.1942590928911159
 20
176.3922483117673892
 30
0.0
 40
0.0136175176560398
 50
3.3874740288887191
 51
6.1107614241966166
  0
ARC
  5
D9E7
  8
0
 10
3632.208889057666056
 20
176.395019876764394
 30
0.0
 40
0.0017132759757246
 50
228.5816214867207066
 51
230.4980601149597135
  0
ARC
  5
D9E8
  8
0
 10
3632.2088378467151415
 20
176.3929196582035956
 30
0.0
 40
0.001355032999736
 50
143.0023524993194997
 51
170.0457489441201062
  0
ARC
  5
D9E9
  8
0
 10
3632.2252523927199945
 20
176.2566367941176964
 30
0.0
 40
0.000201328117545
 50
180.6706358956353995
 51
326.7048217641097949
  0
ARC
  5
D9EA
  8
0
 10
3632.2282112565421812
 20
176.2871961894549031
 30
0.0
 40
0.0002127056461698
 50
14.2093363629598208
 51
147.0866545959142115
  0
ARC
  5
D9EB
  8
0
 10
3632.2254705170739726
 20
176.2860773286402889
 30
0.0
 40
0.0031710962831817
 50
6.4471046508460628
 51
21.6721967736486789
  0
ARC
  5
D9EC
  8
0
 10
3632.1253415739411139
 20
176.2823623467618859
 30
0.0
 40
0.1033601896516577
 50
345.5247636471999044
 51
2.2572947001301968
  0
ARC
  5
D9ED
  8
0
 10
3632.3239973516001555
 20
176.2625011404024917
 30
0.0
 40
0.0991200443019192
 50
165.5042093526010945
 51
183.3931973940075011
  0
ARC
  5
D9EE
  8
0
 10
3632.2404417613079204
 20
176.2996671898090142
 30
0.0
 40
0.0118214828784833
 50
93.2960669444516668
 51
166.9375521194843941
  0
ARC
  5
D9EF
  8
0
 10
3632.4610860971060902
 20
176.2484740644680983
 30
0.0
 40
0.2383268007015241
 50
166.9375521194843941
 51
180.7668192520725086
  0
ARC
  5
D9F0
  8
0
 10
3632.2481101160051367
 20
176.2456235258163133
 30
0.0
 40
0.0253317441940126
 50
180.7668192520725086
 51
198.653760326574286
  0
ARC
  5
D9F1
  8
0
 10
3632.2339648721472258
 20
176.2408483450427923
 30
0.0
 40
0.0104022339800426
 50
198.6537603265396967
 51
258.9935522847724769
  0
ARC
  5
D9F2
  8
0
 10
3632.1979993231529988
 20
176.3008108828288982
 30
0.0
 40
0.0106602681233143
 50
92.0711677221714666
 51
174.4289426812011925
  0
ARC
  5
D9F3
  8
0
 10
3656.3044604520841858
 20
173.9494454273221891
 30
0.0
 40
24.2315270500124811
 50
174.4289426812011925
 51
174.5710572981298867
  0
ARC
  5
D9F4
  8
0
 10
3632.192241212702811
 20
176.2410108185758872
 30
0.0
 40
0.0106602490420025
 50
174.5710572981315067
 51
256.9289219560720881
  0
ARC
  5
D9F5
  8
0
 10
3632.4702519705060695
 20
176.3396704598357019
 30
0.0
 40
0.2538376701666257
 50
180.8851723719990048
 51
186.2189100387242036
  0
ARC
  5
D9F6
  8
0
 10
3631.5433767978461219
 20
176.2633966102218892
 30
0.0
 40
0.6762925087470874
 50
355.0320649908896939
 51
4.1359357017253569
  0
ARC
  5
D9F7
  8
0
 10
3632.2802825706457952
 20
176.2990097124460078
 30
0.0
 40
0.0400405492446033
 50
147.6119115518183946
 51
161.736907683419787
  0
ARC
  5
D9F8
  8
0
 10
3632.2571980824400271
 20
176.3145776310624058
 30
0.0
 40
0.0122330766389615
 50
95.4601893442266345
 51
151.2720118847527999
  0
ARC
  5
D9F9
  8
0
 10
3632.2545545800780928
 20
176.3116269390270077
 30
0.0
 40
0.0152004325530588
 50
41.7484871967711371
 51
84.4144955840321671
  0
ARC
  5
D9FA
  8
0
 10
3632.2310012808170541
 20
176.2887887799556097
 30
0.0
 40
0.0479991708910077
 50
25.3866793808455604
 51
43.3670166885708568
  0
ARC
  5
D9FB
  8
0
 10
3632.1637279817209674
 20
176.2603214552011082
 30
0.0
 40
0.1210211916156669
 50
335.2160753898486973
 51
23.9077972294929211
  0
ARC
  5
D9FC
  8
0
 10
3632.2498281088078329
 20
176.2182040703964105
 30
0.0
 40
0.0252869680022534
 50
284.2082714271580812
 51
340.0826156204324775
  0
ARC
  5
D9FD
  8
0
 10
3632.2580042090539791
 20
176.2074245047921863
 30
0.0
 40
0.0138743685194886
 50
202.2760590094704867
 51
261.8392385697782743
  0
ARC
  5
D9FE
  8
0
 10
3632.3231731466908059
 20
176.2381416227256068
 30
0.0
 40
0.085904184394576
 50
185.9023982786046929
 51
204.7586996793791911
  0
ARC
  5
D9FF
  8
0
 10
3632.3164951887169991
 20
176.4054104419161035
 30
0.0
 40
0.0970997760997298
 50
166.2551693654937992
 51
172.6588071253706005
  0
ARC
  5
DA00
  8
0
 10
3632.235482600521209
 20
176.4252243491386878
 30
0.0
 40
0.0136993544045622
 50
146.5404802595589047
 51
166.2470427170179903
  0
ARC
  5
DA01
  8
0
 10
3632.2269375378900804
 20
176.4308715247113923
 30
0.0
 40
0.0034568602107274
 50
100.4203571484188018
 51
146.5404802595629121
  0
ARC
  5
DA02
  8
0
 10
3632.2256610266858843
 20
176.4301988350200077
 30
0.0
 40
0.0041242834315691
 50
38.4123061720530927
 51
80.9142793564272722
  0
ARC
  5
DA03
  8
0
 10
3632.1904760073921352
 20
176.4069279864351074
 30
0.0
 40
0.0462947028154723
 50
12.6810142711326108
 51
33.9189214382485886
  0
ARC
  5
DA04
  8
0
 10
3632.0396830268018675
 20
176.3689194545551118
 30
0.0
 40
0.201792416977821
 50
342.4303709458243929
 51
13.8108291987927192
  0
ARC
  5
DA05
  8
0
 10
3632.2255671942029949
 20
176.3055310022577089
 30
0.0
 40
0.0043879237851265
 50
279.7766771232497831
 51
322.8821710236123863
  0
ARC
  5
DA06
  8
0
 10
3632.2271222279991889
 20
176.3050106431354038
 30
0.0
 40
0.0038891099447568
 50
201.60305165317979
 51
257.9798738972880869
  0
ARC
  5
DA07
  8
0
 10
3632.3279800488307956
 20
176.3350405202905051
 30
0.0
 40
0.1091082280453352
 50
179.9341353740522891
 51
196.7594120506024069
  0
LINE
  5
DA08
  8
0
 10
3632.2172132537671132
 20
176.011124760139694
 30
0.0
 11
3632.1885225430851278
 21
176.0177485325635871
 31
0.0
  0
LINE
  5
DA09
  8
0
 10
3632.2306711316268775
 20
176.0177592114995093
 30
0.0
 11
3632.276534896344856
 21
176.0071446808001951
 31
0.0
  0
LINE
  5
DA0A
  8
0
 10
3632.2097777344838505
 20
176.1241581607492037
 30
0.0
 11
3632.2364992774100756
 21
176.1177390934728919
 31
0.0
  0
LINE
  5
DA0B
  8
0
 10
3632.2384543276671138
 20
176.098590875859486
 30
0.0
 11
3632.2713498937541772
 21
176.0997572930853892
 31
0.0
  0
LINE
  5
DA0C
  8
0
 10
3632.2166003160009495
 20
176.0992946279839941
 30
0.0
 11
3632.196306300660126
 21
176.0985859453481055
 31
0.0
  0
LINE
  5
DA0D
  8
0
 10
3632.2182664762458444
 20
176.2049231436704133
 30
0.0
 11
3632.2340653916689917
 21
176.2053389743541914
 31
0.0
  0
ARC
  5
DA0E
  8
0
 10
3632.2185682739268486
 20
176.1941393567709895
 30
0.0
 40
0.0107880091647284
 50
91.6030751747153431
 51
150.1524942240675955
  0
ARC
  5
DA0F
  8
0
 10
3632.2582424483280192
 20
176.1802084293674113
 30
0.0
 40
0.0526929708073733
 50
158.514013255495712
 51
176.0595150480820905
  0
ARC
  5
DA10
  8
0
 10
3632.5478663717221934
 20
176.1316542746496054
 30
0.0
 40
0.346147140248042
 50
171.3306879025691103
 51
179.8579614932488084
  0
ARC
  5
DA11
  8
0
 10
3632.2123431024151614
 20
176.1346951043549893
 30
0.0
 40
0.0108447357354948
 50
191.6112250346994017
 51
256.3167439434209882
  0
ARC
  5
DA12
  8
0
 10
3632.4303913594098958
 20
176.1414829111907068
 30
0.0
 40
0.2275273118415689
 50
170.1832792263917042
 51
177.494732910699895
  0
ARC
  5
DA13
  8
0
 10
3629.6297612085359106
 20
175.870136986784587
 30
0.0
 40
2.588648734686104
 50
6.2099368730641951
 51
6.2382732792188582
  0
ARC
  5
DA14
  8
0
 10
3632.1990290610187913
 20
176.1524563193360962
 30
0.0
 40
0.0047811573803493
 50
331.2372618752656876
 51
352.6941809271324928
  0
ARC
  5
DA15
  8
0
 10
3631.955538451387838
 20
176.1904537877161943
 30
0.0
 40
0.2512169980914007
 50
351.1601120050240183
 51
357.6549653537247195
  0
ARC
  5
DA16
  8
0
 10
3632.1929513412701453
 20
176.1793700704413084
 30
0.0
 40
0.0136175176560398
 50
3.3874740288887191
 51
6.1107614241966166
  0
ARC
  5
DA17
  8
0
 10
3632.207581306045995
 20
176.1821416354383985
 30
0.0
 40
0.0017132759757246
 50
228.5816214867207066
 51
230.4980601149597135
  0
ARC
  5
DA18
  8
0
 10
3632.207530095094171
 20
176.1800414168776001
 30
0.0
 40
0.001355032999736
 50
143.0023524993194997
 51
170.0457489441201062
  0
ARC
  5
DA19
  8
0
 10
3632.2239446410999335
 20
176.0437585527917008
 30
0.0
 40
0.000201328117545
 50
180.6706358956353995
 51
326.7048217641097949
  0
ARC
  5
DA1A
  8
0
 10
3632.2269035049221202
 20
176.0743179481289076
 30
0.0
 40
0.0002127056461698
 50
14.2093363629598208
 51
147.0866545959142115
  0
ARC
  5
DA1B
  8
0
 10
3632.2241627654530021
 20
176.0731990873142081
 30
0.0
 40
0.0031710962831817
 50
6.4471046508460628
 51
21.6721967736486789
  0
ARC
  5
DA1C
  8
0
 10
3632.1240338223210529
 20
176.0694841054358903
 30
0.0
 40
0.1033601896516577
 50
345.5247636471999044
 51
2.2572947001301968
  0
ARC
  5
DA1D
  8
0
 10
3632.3226895999800945
 20
176.0496228990764962
 30
0.0
 40
0.0991200443019192
 50
165.5042093526010945
 51
183.3931973940075011
  0
ARC
  5
DA1E
  8
0
 10
3632.2391340096878594
 20
176.0867889484829902
 30
0.0
 40
0.0118214828784833
 50
93.2960669444516668
 51
166.9375521194843941
  0
ARC
  5
DA1F
  8
0
 10
3632.4597783454860291
 20
176.0355958231421027
 30
0.0
 40
0.2383268007015241
 50
166.9375521194843941
 51
180.7668192520725086
  0
ARC
  5
DA20
  8
0
 10
3632.2468023643850756
 20
176.0327452844902894
 30
0.0
 40
0.0253317441940126
 50
180.7668192520725086
 51
198.653760326574286
  0
ARC
  5
DA21
  8
0
 10
3632.2326571205271648
 20
176.0279701037167968
 30
0.0
 40
0.0104022339800426
 50
198.6537603265396967
 51
258.9935522847724769
  0
ARC
  5
DA22
  8
0
 10
3632.1966915715329378
 20
176.0879326415029027
 30
0.0
 40
0.0106602681233143
 50
92.0711677221714666
 51
174.4289426812011925
  0
ARC
  5
DA23
  8
0
 10
3656.3031527004632153
 20
173.7365671859963072
 30
0.0
 40
24.2315270500124811
 50
174.4289426812011925
 51
174.5710572981298867
  0
ARC
  5
DA24
  8
0
 10
3632.1909334610832047
 20
176.0281325772498064
 30
0.0
 40
0.0106602490420025
 50
174.5710572981315067
 51
256.9289219560720881
  0
ARC
  5
DA25
  8
0
 10
3632.468944218885099
 20
176.1267922185097063
 30
0.0
 40
0.2538376701666257
 50
180.8851723719990048
 51
186.2189100387242036
  0
ARC
  5
DA26
  8
0
 10
3631.5420690462260609
 20
176.0505183688958937
 30
0.0
 40
0.6762925087470874
 50
355.0540547604318817
 51
4.1359357017253569
  0
ARC
  5
DA27
  8
0
 10
3632.2789748190248247
 20
176.0861314711200123
 30
0.0
 40
0.0400405492446033
 50
147.6119115518183946
 51
161.736907683419787
  0
ARC
  5
DA28
  8
0
 10
3632.255890330819966
 20
176.1016993897364102
 30
0.0
 40
0.0122330766389615
 50
95.4601893442266345
 51
151.2720118847527999
  0
ARC
  5
DA29
  8
0
 10
3632.2532468284580318
 20
176.0987486977010121
 30
0.0
 40
0.0152004325530588
 50
41.7484871967711371
 51
84.4144955840321671
  0
ARC
  5
DA2A
  8
0
 10
3632.2296935291960835
 20
176.0759105386296994
 30
0.0
 40
0.0479991708910077
 50
25.3866793808455604
 51
43.3670166885708568
  0
ARC
  5
DA2B
  8
0
 10
3632.1624202301009063
 20
176.0474432138751126
 30
0.0
 40
0.1210211916156669
 50
335.2160753898486973
 51
23.9077972294929211
  0
ARC
  5
DA2C
  8
0
 10
3632.2485203571868624
 20
176.0053258290703866
 30
0.0
 40
0.0252869680022534
 50
284.2082714271580812
 51
340.0826156204324775
  0
ARC
  5
DA2D
  8
0
 10
3632.2566964574330086
 20
175.9945462634661908
 30
0.0
 40
0.0138743685194886
 50
202.2760590094704867
 51
261.8392385697782743
  0
ARC
  5
DA2E
  8
0
 10
3632.3218653950698354
 20
176.0252633813996113
 30
0.0
 40
0.085904184394576
 50
185.9023982786046929
 51
204.7586996793791911
  0
ARC
  5
DA2F
  8
0
 10
3632.3151874370969381
 20
176.192532200590108
 30
0.0
 40
0.0970997760997298
 50
166.2551693654937992
 51
172.6588071253706005
  0
ARC
  5
DA30
  8
0
 10
3632.2341748488997837
 20
176.2123461078126923
 30
0.0
 40
0.0136993544045622
 50
146.5404802595589047
 51
166.2470427170179903
  0
ARC
  5
DA31
  8
0
 10
3632.2256297862691099
 20
176.2179932833853968
 30
0.0
 40
0.0034568602107274
 50
100.4203571484188018
 51
146.5404802595629121
  0
ARC
  5
DA32
  8
0
 10
3632.2243532750649138
 20
176.2173205936940974
 30
0.0
 40
0.0041242834315691
 50
38.4123061720530927
 51
80.9142793564272722
  0
ARC
  5
DA33
  8
0
 10
3632.1891682557720742
 20
176.1940497451091119
 30
0.0
 40
0.0462947028154723
 50
12.6810142711326108
 51
33.9189214382485886
  0
ARC
  5
DA34
  8
0
 10
3632.038375275180897
 20
176.1560412132292015
 30
0.0
 40
0.201792416977821
 50
342.4303709458243929
 51
13.8108291987927192
  0
ARC
  5
DA35
  8
0
 10
3632.2242594425820243
 20
176.0926527609317134
 30
0.0
 40
0.0043879237851265
 50
279.7766771232497831
 51
322.8821710236123863
  0
ARC
  5
DA36
  8
0
 10
3632.2258144763782184
 20
176.0921324018094083
 30
0.0
 40
0.0038891099447568
 50
201.60305165317979
 51
257.9798738972880869
  0
ARC
  5
DA37
  8
0
 10
3632.3266722972120988
 20
176.1221622789645949
 30
0.0
 40
0.1091082280453352
 50
179.9341353740522891
 51
196.7594120506024069
  0
LINE
  5
DA38
  8
0
 10
3632.2186221645019941
 20
175.7992320598814047
 30
0.0
 11
3632.1899314538209183
 21
175.8058558323052978
 31
0.0
  0
LINE
  5
DA39
  8
0
 10
3632.2320800423622131
 20
175.8058665112415042
 30
0.0
 11
3632.2779438070801916
 21
175.7952519805417921
 31
0.0
  0
LINE
  5
DA3A
  8
0
 10
3632.2111866452178219
 20
175.9122654604911986
 30
0.0
 11
3632.2379081881449565
 21
175.9058463932146026
 31
0.0
  0
LINE
  5
DA3B
  8
0
 10
3632.2398632384019947
 20
175.8866981756011967
 30
0.0
 11
3632.2727588044881486
 21
175.8878645928274977
 31
0.0
  0
LINE
  5
DA3C
  8
0
 10
3632.2180092267358305
 20
175.8874019277255911
 30
0.0
 11
3632.1977152113950069
 21
175.8866932450897025
 31
0.0
  0
LINE
  5
DA3D
  8
0
 10
3632.2196753869811801
 20
175.9930304434124082
 30
0.0
 11
3632.2354743024047821
 21
175.993446274095902
 31
0.0
  0
ARC
  5
DA3E
  8
0
 10
3632.2199771846621843
 20
175.9822466565127002
 30
0.0
 40
0.0107880091647284
 50
91.6030751747153431
 51
150.1524942240675955
  0
ARC
  5
DA3F
  8
0
 10
3632.2596513590629002
 20
175.9683157291090936
 30
0.0
 40
0.0526929708073733
 50
158.514013255495712
 51
176.0595150480820905
  0
ARC
  5
DA40
  8
0
 10
3632.5492752824570744
 20
175.9197615743912877
 30
0.0
 40
0.346147140248042
 50
171.3306879025691103
 51
179.8579614932488084
  0
ARC
  5
DA41
  8
0
 10
3632.2137520131500423
 20
175.9228024040965863
 30
0.0
 40
0.0108447357354948
 50
191.6112250346994017
 51
256.3167439434209882
  0
ARC
  5
DA42
  8
0
 10
3632.4318002701447767
 20
175.929590210932389
 30
0.0
 40
0.2275273118415689
 50
170.1832792263917042
 51
177.494732910699895
  0
ARC
  5
DA43
  8
0
 10
3629.631170119269882
 20
175.6582442865262124
 30
0.0
 40
2.588648734686104
 50
6.2099368730641951
 51
6.2382732792188582
  0
ARC
  5
DA44
  8
0
 10
3632.2004379717541269
 20
175.9405636190778068
 30
0.0
 40
0.0047811573803493
 50
331.2372618752656876
 51
352.6941809271324928
  0
ARC
  5
DA45
  8
0
 10
3631.9569473621218094
 20
175.9785610874579049
 30
0.0
 40
0.2512169980914007
 50
351.1601120050240183
 51
357.6549653537247195
  0
ARC
  5
DA46
  8
0
 10
3632.1943602520059358
 20
175.9674773701829906
 30
0.0
 40
0.0136175176560398
 50
3.3874740288887191
 51
6.1107614241966166
  0
ARC
  5
DA47
  8
0
 10
3632.2089902167799664
 20
175.9702489351799954
 30
0.0
 40
0.0017132759757246
 50
228.5816214867207066
 51
230.4980601149597135
  0
ARC
  5
DA48
  8
0
 10
3632.2089390058290519
 20
175.968148716619595
 30
0.0
 40
0.001355032999736
 50
143.0023524993194997
 51
170.0457489441201062
  0
ARC
  5
DA49
  8
0
 10
3632.2253535518348144
 20
175.8318658525332978
 30
0.0
 40
0.000201328117545
 50
180.6706358956353995
 51
326.7048217641097949
  0
ARC
  5
DA4A
  8
0
 10
3632.2283124156560916
 20
175.8624252478705898
 30
0.0
 40
0.0002127056461698
 50
14.2093363629598208
 51
147.0866545959142115
  0
ARC
  5
DA4B
  8
0
 10
3632.225571676187883
 20
175.861306387056203
 30
0.0
 40
0.0031710962831817
 50
6.4471046508460628
 51
21.6721967736486789
  0
ARC
  5
DA4C
  8
0
 10
3632.1254427330559338
 20
175.8575914051774873
 30
0.0
 40
0.1033601896516577
 50
345.5247636471999044
 51
2.2572947001301968
  0
ARC
  5
DA4D
  8
0
 10
3632.3240985107149754
 20
175.8377301988182069
 30
0.0
 40
0.0991200443019192
 50
165.5042093526010945
 51
183.3931973940075011
  0
ARC
  5
DA4E
  8
0
 10
3632.2405429204218308
 20
175.8748962482250136
 30
0.0
 40
0.0118214828784833
 50
93.2960669444516668
 51
166.9375521194843941
  0
ARC
  5
DA4F
  8
0
 10
3632.4611872562209101
 20
175.8237031228840976
 30
0.0
 40
0.2383268007015241
 50
166.9375521194843941
 51
180.7668192520725086
  0
ARC
  5
DA50
  8
0
 10
3632.2482112751199566
 20
175.820852584232
 30
0.0
 40
0.0253317441940126
 50
180.7668192520725086
 51
198.653760326574286
  0
ARC
  5
DA51
  8
0
 10
3632.2340660312611362
 20
175.8160774034585074
 30
0.0
 40
0.0104022339800426
 50
198.6537603265396967
 51
258.9935522847724769
  0
ARC
  5
DA52
  8
0
 10
3632.1981004822669092
 20
175.8760399412448123
 30
0.0
 40
0.0106602681233143
 50
92.0711677221714666
 51
174.4289426812011925
  0
ARC
  5
DA53
  8
0
 10
3656.3045616111990057
 20
173.5246744857379042
 30
0.0
 40
24.2315270500124811
 50
174.4289426812011925
 51
174.5710572981298867
  0
ARC
  5
DA54
  8
0
 10
3632.1923423718180857
 20
175.8162398769914887
 30
0.0
 40
0.0106602490420025
 50
174.5710572981315067
 51
256.9289219560720881
  0
ARC
  5
DA55
  8
0
 10
3632.4703531296208894
 20
175.9148995182513033
 30
0.0
 40
0.2538376701666257
 50
180.8851723719990048
 51
186.2189100387242036
  0
ARC
  5
DA56
  8
0
 10
3631.5434779569609418
 20
175.8386256686374907
 30
0.0
 40
0.6762925087470874
 50
354.9455765364593276
 51
4.1359357017253569
  0
ARC
  5
DA57
  8
0
 10
3632.2803837297610698
 20
175.8742387708620072
 30
0.0
 40
0.0400405492446033
 50
147.6119115518183946
 51
161.736907683419787
  0
ARC
  5
DA58
  8
0
 10
3632.257299241554847
 20
175.8898066894780072
 30
0.0
 40
0.0122330766389615
 50
95.4601893442266345
 51
151.2720118847527999
  0
ARC
  5
DA59
  8
0
 10
3632.2546557391920032
 20
175.8868559974426944
 30
0.0
 40
0.0152004325530588
 50
41.7484871967711371
 51
84.4144955840321671
  0
ARC
  5
DA5A
  8
0
 10
3632.2311024399309645
 20
175.8640178383716091
 30
0.0
 40
0.0479991708910077
 50
25.3866793808455604
 51
43.3670166885708568
  0
ARC
  5
DA5B
  8
0
 10
3632.1638291408348778
 20
175.8355505136171075
 30
0.0
 40
0.1210211916156669
 50
335.2160753898486973
 51
23.9077972294929211
  0
ARC
  5
DA5C
  8
0
 10
3632.2499292679231075
 20
175.7934331288120973
 30
0.0
 40
0.0252869680022534
 50
284.2082714271580812
 51
340.0826156204324775
  0
ARC
  5
DA5D
  8
0
 10
3632.2581053681678895
 20
175.7826535632079015
 30
0.0
 40
0.0138743685194886
 50
202.2760590094704867
 51
261.8392385697782743
  0
ARC
  5
DA5E
  8
0
 10
3632.323274305805171
 20
175.8133706811416062
 30
0.0
 40
0.085904184394576
 50
185.9023982786046929
 51
204.7586996793791911
  0
ARC
  5
DA5F
  8
0
 10
3632.316596347831819
 20
175.9806395003321029
 30
0.0
 40
0.0970997760997298
 50
166.2551693654937992
 51
172.6588071253706005
  0
ARC
  5
DA60
  8
0
 10
3632.2355837596360288
 20
176.0004534075546871
 30
0.0
 40
0.0136993544045622
 50
146.5404802595589047
 51
166.2470427170179903
  0
ARC
  5
DA61
  8
0
 10
3632.2270386970049003
 20
176.0061005831273064
 30
0.0
 40
0.0034568602107274
 50
100.4203571484188018
 51
146.5404802595629121
  0
ARC
  5
DA62
  8
0
 10
3632.2257621857988852
 20
176.005427893436007
 30
0.0
 40
0.0041242834315691
 50
38.4123061720530927
 51
80.9142793564272722
  0
ARC
  5
DA63
  8
0
 10
3632.1905771665060456
 20
175.9821570448511068
 30
0.0
 40
0.0462947028154723
 50
12.6810142711326108
 51
33.9189214382485886
  0
ARC
  5
DA64
  8
0
 10
3632.0397841859157779
 20
175.9441485129707985
 30
0.0
 40
0.201792416977821
 50
342.4303709458243929
 51
13.8108291987927192
  0
ARC
  5
DA65
  8
0
 10
3632.2256683533169053
 20
175.8807600606733956
 30
0.0
 40
0.0043879237851265
 50
279.7766771232497831
 51
322.8821710236123863
  0
ARC
  5
DA66
  8
0
 10
3632.2272233871130993
 20
175.8802397015512895
 30
0.0
 40
0.0038891099447568
 50
201.60305165317979
 51
257.9798738972880869
  0
ARC
  5
DA67
  8
0
 10
3632.3280812079460702
 20
175.9102695787065045
 30
0.0
 40
0.1091082280453352
 50
179.9341353740522891
 51
196.7594120506024069
  0
LINE
  5
DA68
  8
0
 10
3632.2184548881177761
 20
175.5855758022453017
 30
0.0
 11
3632.1897641774357908
 21
175.5921995746691096
 31
0.0
  0
LINE
  5
DA69
  8
0
 10
3632.2319127659770857
 20
175.5922102536050886
 30
0.0
 11
3632.2777765306950641
 21
175.581595722905405
 31
0.0
  0
LINE
  5
DA6A
  8
0
 10
3632.2110193688349682
 20
175.6986092028546977
 30
0.0
 11
3632.2377409117611933
 21
175.6921901355781017
 31
0.0
  0
LINE
  5
DA6B
  8
0
 10
3632.2396959620177768
 20
175.6730419179650937
 30
0.0
 11
3632.2725915281039306
 21
175.6742083351909969
 31
0.0
  0
LINE
  5
DA6C
  8
0
 10
3632.2178419503520672
 20
175.6737456700894882
 30
0.0
 11
3632.1975479350098794
 21
175.6730369874535995
 31
0.0
  0
LINE
  5
DA6D
  8
0
 10
3632.2195081105969621
 20
175.7793741857759926
 30
0.0
 11
3632.2353070260201093
 21
175.7797900164594012
 31
0.0
  0
ARC
  5
DA6E
  8
0
 10
3632.2198099082779663
 20
175.7685903988761993
 30
0.0
 40
0.0107880091647284
 50
91.6030751747153431
 51
150.1524942240675955
  0
ARC
  5
DA6F
  8
0
 10
3632.2594840826777727
 20
175.7546594714729054
 30
0.0
 40
0.0526929708073733
 50
158.514013255495712
 51
176.0595150480820905
  0
ARC
  5
DA70
  8
0
 10
3632.5491080060728564
 20
175.7061053167550995
 30
0.0
 40
0.346147140248042
 50
171.3306879025691103
 51
179.8579614932488084
  0
ARC
  5
DA71
  8
0
 10
3632.2135847367658243
 20
175.709146146460597
 30
0.0
 40
0.0108447357354948
 50
191.6112250346994017
 51
256.3167439434209882
  0
ARC
  5
DA72
  8
0
 10
3632.431632993760104
 20
175.7159339532962861
 30
0.0
 40
0.2275273118415689
 50
170.1832792263917042
 51
177.494732910699895
  0
ARC
  5
DA73
  8
0
 10
3629.6310028428861187
 20
175.4445880288901094
 30
0.0
 40
2.588648734686104
 50
6.2099368730641951
 51
6.2382732792188582
  0
ARC
  5
DA74
  8
0
 10
3632.2002706953689994
 20
175.7269073614417039
 30
0.0
 40
0.0047811573803493
 50
331.2372618752656876
 51
352.6941809271324928
  0
ARC
  5
DA75
  8
0
 10
3631.9567800857380462
 20
175.7649048298214041
 30
0.0
 40
0.2512169980914007
 50
351.1601120050240183
 51
357.6549653537247195
  0
ARC
  5
DA76
  8
0
 10
3632.1941929756208083
 20
175.7538211125468877
 30
0.0
 40
0.0136175176560398
 50
3.3874740288887191
 51
6.1107614241966166
  0
ARC
  5
DA77
  8
0
 10
3632.2088229403962032
 20
175.7565926775436083
 30
0.0
 40
0.0017132759757246
 50
228.5816214867207066
 51
230.4980601149597135
  0
ARC
  5
DA78
  8
0
 10
3632.2087717294448339
 20
175.7544924589832078
 30
0.0
 40
0.001355032999736
 50
143.0023524993194997
 51
170.0457489441201062
  0
ARC
  5
DA79
  8
0
 10
3632.2251862754510512
 20
175.6182095948971948
 30
0.0
 40
0.000201328117545
 50
180.6706358956353995
 51
326.7048217641097949
  0
ARC
  5
DA7A
  8
0
 10
3632.2281451392727831
 20
175.648768990234089
 30
0.0
 40
0.0002127056461698
 50
14.2093363629598208
 51
147.0866545959142115
  0
ARC
  5
DA7B
  8
0
 10
3632.2254043998041197
 20
175.6476501294197874
 30
0.0
 40
0.0031710962831817
 50
6.4471046508460628
 51
21.6721967736486789
  0
ARC
  5
DA7C
  8
0
 10
3632.1252754566708063
 20
175.6439351475414128
 30
0.0
 40
0.1033601896516577
 50
345.5247636471999044
 51
2.2572947001301968
  0
ARC
  5
DA7D
  8
0
 10
3632.3239312343298479
 20
175.624073941181706
 30
0.0
 40
0.0991200443019192
 50
165.5042093526010945
 51
183.3931973940075011
  0
ARC
  5
DA7E
  8
0
 10
3632.2403756440380675
 20
175.6612399905885979
 30
0.0
 40
0.0118214828784833
 50
93.2960669444516668
 51
166.9375521194843941
  0
ARC
  5
DA7F
  8
0
 10
3632.4610199798371468
 20
175.6100468652475968
 30
0.0
 40
0.2383268007015241
 50
166.9375521194843941
 51
180.7668192520725086
  0
ARC
  5
DA80
  8
0
 10
3632.2480439987348291
 20
175.6071963265954992
 30
0.0
 40
0.0253317441940126
 50
180.7668192520725086
 51
198.653760326574286
  0
ARC
  5
DA81
  8
0
 10
3632.2338987548769182
 20
175.6024211458220066
 30
0.0
 40
0.0104022339800426
 50
198.6537603265396967
 51
258.9935522847724769
  0
ARC
  5
DA82
  8
0
 10
3632.197933205883146
 20
175.6623836836083967
 30
0.0
 40
0.0106602681233143
 50
92.0711677221714666
 51
174.4289426812011925
  0
ARC
  5
DA83
  8
0
 10
3656.3043943348138782
 20
173.3110182281018012
 30
0.0
 40
24.2315270500124811
 50
174.4289426812011925
 51
174.5710572981298867
  0
ARC
  5
DA84
  8
0
 10
3632.1921750954338677
 20
175.6025836193554142
 30
0.0
 40
0.0106602490420025
 50
174.5710572981315067
 51
256.9289219560720881
  0
ARC
  5
DA85
  8
0
 10
3632.4701858532362166
 20
175.7012432606152004
 30
0.0
 40
0.2538376701666257
 50
180.8851723719990048
 51
186.2189100387242036
  0
ARC
  5
DA86
  8
0
 10
3631.5433106805771786
 20
175.6249694110011035
 30
0.0
 40
0.6762925087470874
 50
355.0703269479319033
 51
4.1359357017253569
  0
ARC
  5
DA87
  8
0
 10
3632.2802164533759424
 20
175.6605825132255063
 30
0.0
 40
0.0400405492446033
 50
147.6119115518183946
 51
161.736907683419787
  0
ARC
  5
DA88
  8
0
 10
3632.2571319651710837
 20
175.6761504318415916
 30
0.0
 40
0.0122330766389615
 50
95.4601893442266345
 51
151.2720118847527999
  0
ARC
  5
DA89
  8
0
 10
3632.2544884628077853
 20
175.6731997398065914
 30
0.0
 40
0.0152004325530588
 50
41.7484871967711371
 51
84.4144955840321671
  0
ARC
  5
DA8A
  8
0
 10
3632.2309351635472012
 20
175.6503615807351935
 30
0.0
 40
0.0479991708910077
 50
25.3866793808455604
 51
43.3670166885708568
  0
ARC
  5
DA8B
  8
0
 10
3632.1636618644511145
 20
175.6218942559806919
 30
0.0
 40
0.1210211916156669
 50
335.2160753898486973
 51
23.9077972294929211
  0
ARC
  5
DA8C
  8
0
 10
3632.2497619915379801
 20
175.5797768711755964
 30
0.0
 40
0.0252869680022534
 50
284.2082714271580812
 51
340.0826156204324775
  0
ARC
  5
DA8D
  8
0
 10
3632.2579380917841263
 20
175.5689973055717985
 30
0.0
 40
0.0138743685194886
 50
202.2760590094704867
 51
261.8392385697782743
  0
ARC
  5
DA8E
  8
0
 10
3632.323107029420953
 20
175.5997144235051053
 30
0.0
 40
0.085904184394576
 50
185.9023982786046929
 51
204.7586996793791911
  0
ARC
  5
DA8F
  8
0
 10
3632.3164290714480558
 20
175.7669832426956873
 30
0.0
 40
0.0970997760997298
 50
166.2551693654937992
 51
172.6588071253706005
  0
ARC
  5
DA90
  8
0
 10
3632.2354164832509014
 20
175.7867971499183
 30
0.0
 40
0.0136993544045622
 50
146.5404802595589047
 51
166.2470427170179903
  0
ARC
  5
DA91
  8
0
 10
3632.2268714206197728
 20
175.7924443254908908
 30
0.0
 40
0.0034568602107274
 50
100.4203571484188018
 51
146.5404802595629121
  0
ARC
  5
DA92
  8
0
 10
3632.2255949094160314
 20
175.7917716357995914
 30
0.0
 40
0.0041242834315691
 50
38.4123061720530927
 51
80.9142793564272722
  0
ARC
  5
DA93
  8
0
 10
3632.1904098901218276
 20
175.7685007872146059
 30
0.0
 40
0.0462947028154723
 50
12.6810142711326108
 51
33.9189214382485886
  0
ARC
  5
DA94
  8
0
 10
3632.0396169095320147
 20
175.7304922553344113
 30
0.0
 40
0.201792416977821
 50
342.4303709458243929
 51
13.8108291987927192
  0
ARC
  5
DA95
  8
0
 10
3632.225501076933142
 20
175.6671038030372074
 30
0.0
 40
0.0043879237851265
 50
279.7766771232497831
 51
322.8821710236123863
  0
ARC
  5
DA96
  8
0
 10
3632.2270561107288813
 20
175.6665834439149023
 30
0.0
 40
0.0038891099447568
 50
201.60305165317979
 51
257.9798738972880869
  0
ARC
  5
DA97
  8
0
 10
3632.3279139315618522
 20
175.6966133210700889
 30
0.0
 40
0.1091082280453352
 50
179.9341353740522891
 51
196.7594120506024069
  0
LINE
  5
DA98
  8
0
 10
3632.2184548881750743
 20
175.3733965282692964
 30
0.0
 11
3632.1897641774930889
 21
175.3800203006931895
 31
0.0
  0
LINE
  5
DA99
  8
0
 10
3632.2319127660348386
 20
175.380030979629197
 30
0.0
 11
3632.2777765307528171
 21
175.3694164489295133
 31
0.0
  0
LINE
  5
DA9A
  8
0
 10
3632.2110193688918116
 20
175.4864299288788061
 30
0.0
 11
3632.2377409118180367
 21
175.4800108616024943
 31
0.0
  0
LINE
  5
DA9B
  8
0
 10
3632.2396959620750749
 20
175.4608626439890884
 30
0.0
 11
3632.272591528160774
 21
175.4620290612151052
 31
0.0
  0
LINE
  5
DA9C
  8
0
 10
3632.2178419504089106
 20
175.4615663961135965
 30
0.0
 11
3632.1975479350671776
 21
175.4608577134777079
 31
0.0
  0
LINE
  5
DA9D
  8
0
 10
3632.2195081106538055
 20
175.567194911800101
 30
0.0
 11
3632.2353070260769528
 21
175.5676107424835095
 31
0.0
  0
ARC
  5
DA9E
  8
0
 10
3632.2198099083348097
 20
175.5564111249005919
 30
0.0
 40
0.0107880091647284
 50
91.6030751747153431
 51
150.1524942240675955
  0
ARC
  5
DA9F
  8
0
 10
3632.2594840827350708
 20
175.5424801974970137
 30
0.0
 40
0.0526929708073733
 50
158.514013255495712
 51
176.0595150480820905
  0
ARC
  5
DAA0
  8
0
 10
3632.5491080061301545
 20
175.4939260427792078
 30
0.0
 40
0.346147140248042
 50
171.3306879025691103
 51
179.8579614932488084
  0
ARC
  5
DAA1
  8
0
 10
3632.2135847368231225
 20
175.4969668724845917
 30
0.0
 40
0.0108447357354948
 50
191.6112250346994017
 51
256.3167439434209882
  0
ARC
  5
DAA2
  8
0
 10
3632.4316329938169474
 20
175.5037546793203944
 30
0.0
 40
0.2275273118415689
 50
170.1832792263917042
 51
177.494732910699895
  0
ARC
  5
DAA3
  8
0
 10
3629.6310028429429622
 20
175.2324087549141893
 30
0.0
 40
2.588648734686104
 50
6.2099368730641951
 51
6.2382732792188582
  0
ARC
  5
DAA4
  8
0
 10
3632.2002706954272071
 20
175.5147280874658122
 30
0.0
 40
0.0047811573803493
 50
331.2372618752656876
 51
352.6941809271324928
  0
ARC
  5
DAA5
  8
0
 10
3631.9567800857948896
 20
175.5527255558455124
 30
0.0
 40
0.2512169980914007
 50
351.1601120050240183
 51
357.6549653537247195
  0
ARC
  5
DAA6
  8
0
 10
3632.1941929756781064
 20
175.5416418385709107
 30
0.0
 40
0.0136175176560398
 50
3.3874740288887191
 51
6.1107614241966166
  0
ARC
  5
DAA7
  8
0
 10
3632.2088229404539561
 20
175.5444134035676882
 30
0.0
 40
0.0017132759757246
 50
228.5816214867207066
 51
230.4980601149597135
  0
ARC
  5
DAA8
  8
0
 10
3632.2087717295021321
 20
175.5423131850072025
 30
0.0
 40
0.001355032999736
 50
143.0023524993194997
 51
170.0457489441201062
  0
ARC
  5
DAA9
  8
0
 10
3632.2251862755069851
 20
175.4060303209213032
 30
0.0
 40
0.000201328117545
 50
180.6706358956353995
 51
326.7048217641097949
  0
ARC
  5
DAAA
  8
0
 10
3632.2281451393291718
 20
175.43658971625851
 30
0.0
 40
0.0002127056461698
 50
14.2093363629598208
 51
147.0866545959142115
  0
ARC
  5
DAAB
  8
0
 10
3632.2254043998609632
 20
175.4354708554438957
 30
0.0
 40
0.0031710962831817
 50
6.4471046508460628
 51
21.6721967736486789
  0
ARC
  5
DAAC
  8
0
 10
3632.1252754567281045
 20
175.4317558735654927
 30
0.0
 40
0.1033601896516577
 50
345.5247636471999044
 51
2.2572947001301968
  0
ARC
  5
DAAD
  8
0
 10
3632.3239312343871461
 20
175.4118946672060986
 30
0.0
 40
0.0991200443019192
 50
165.5042093526010945
 51
183.3931973940075011
  0
ARC
  5
DAAE
  8
0
 10
3632.240375644094911
 20
175.4490607166125926
 30
0.0
 40
0.0118214828784833
 50
93.2960669444516668
 51
166.9375521194843941
  0
ARC
  5
DAAF
  8
0
 10
3632.4610199798930807
 20
175.3978675912717051
 30
0.0
 40
0.2383268007015241
 50
166.9375521194843941
 51
180.7668192520725086
  0
ARC
  5
DAB0
  8
0
 10
3632.2480439987921272
 20
175.3950170526198917
 30
0.0
 40
0.0253317441940126
 50
180.7668192520725086
 51
198.653760326574286
  0
ARC
  5
DAB1
  8
0
 10
3632.2338987549342164
 20
175.3902418718460865
 30
0.0
 40
0.0104022339800426
 50
198.6537603265396967
 51
258.9935522847724769
  0
ARC
  5
DAB2
  8
0
 10
3632.1979332059399894
 20
175.4502044096325051
 30
0.0
 40
0.0106602681233143
 50
92.0711677221714666
 51
174.4289426812011925
  0
ARC
  5
DAB3
  8
0
 10
3656.3043943348711764
 20
173.0988389541257959
 30
0.0
 40
24.2315270500124811
 50
174.4289426812011925
 51
174.5710572981298867
  0
ARC
  5
DAB4
  8
0
 10
3632.1921750954911658
 20
175.3904043453794941
 30
0.0
 40
0.0106602490420025
 50
174.5710572981315067
 51
256.9289219560720881
  0
ARC
  5
DAB5
  8
0
 10
3632.4701858532930601
 20
175.4890639866393087
 30
0.0
 40
0.2538376701666257
 50
180.8851723719990048
 51
186.2189100387242036
  0
ARC
  5
DAB6
  8
0
 10
3631.5433106806331125
 20
175.4127901370254961
 30
0.0
 40
0.6762925087470874
 50
355.0353162325347967
 51
4.1359357017253569
  0
ARC
  5
DAB7
  8
0
 10
3632.2802164534327858
 20
175.4484032392495862
 30
0.0
 40
0.0400405492446033
 50
147.6119115518183946
 51
161.736907683419787
  0
ARC
  5
DAB8
  8
0
 10
3632.2571319652270176
 20
175.4639711578660126
 30
0.0
 40
0.0122330766389615
 50
95.4601893442266345
 51
151.2720118847527999
  0
ARC
  5
DAB9
  8
0
 10
3632.2544884628650834
 20
175.4610204658306998
 30
0.0
 40
0.0152004325530588
 50
41.7484871967711371
 51
84.4144955840321671
  0
ARC
  5
DABA
  8
0
 10
3632.2309351636040446
 20
175.4381823067593018
 30
0.0
 40
0.0479991708910077
 50
25.3866793808455604
 51
43.3670166885708568
  0
ARC
  5
DABB
  8
0
 10
3632.1636618645070484
 20
175.4097149820048003
 30
0.0
 40
0.1210211916156669
 50
335.2160753898486973
 51
23.9077972294929211
  0
ARC
  5
DABC
  8
0
 10
3632.2497619915948235
 20
175.3675975971997048
 30
0.0
 40
0.0252869680022534
 50
284.2082714271580812
 51
340.0826156204324775
  0
ARC
  5
DABD
  8
0
 10
3632.2579380918409697
 20
175.3568180315959069
 30
0.0
 40
0.0138743685194886
 50
202.2760590094704867
 51
261.8392385697782743
  0
ARC
  5
DABE
  8
0
 10
3632.3231070294777965
 20
175.3875351495292136
 30
0.0
 40
0.085904184394576
 50
185.9023982786046929
 51
204.7586996793791911
  0
ARC
  5
DABF
  8
0
 10
3632.3164290715039897
 20
175.5548039687197956
 30
0.0
 40
0.0970997760997298
 50
166.2551693654937992
 51
172.6588071253706005
  0
ARC
  5
DAC0
  8
0
 10
3632.2354164833081995
 20
175.5746178759422946
 30
0.0
 40
0.0136993544045622
 50
146.5404802595589047
 51
166.2470427170179903
  0
ARC
  5
DAC1
  8
0
 10
3632.226871420677071
 20
175.5802650515149992
 30
0.0
 40
0.0034568602107274
 50
100.4203571484188018
 51
146.5404802595629121
  0
ARC
  5
DAC2
  8
0
 10
3632.2255949094728749
 20
175.5795923618235861
 30
0.0
 40
0.0041242834315691
 50
38.4123061720530927
 51
80.9142793564272722
  0
ARC
  5
DAC3
  8
0
 10
3632.1904098901791258
 20
175.5563215132386858
 30
0.0
 40
0.0462947028154723
 50
12.6810142711326108
 51
33.9189214382485886
  0
ARC
  5
DAC4
  8
0
 10
3632.0396169095888581
 20
175.5183129813588039
 30
0.0
 40
0.201792416977821
 50
342.4303709458243929
 51
13.8108291987927192
  0
ARC
  5
DAC5
  8
0
 10
3632.2255010769899854
 20
175.4549245290612873
 30
0.0
 40
0.0043879237851265
 50
279.7766771232497831
 51
322.8821710236123863
  0
ARC
  5
DAC6
  8
0
 10
3632.2270561107861795
 20
175.4544041699390107
 30
0.0
 40
0.0038891099447568
 50
201.60305165317979
 51
257.9798738972880869
  0
ARC
  5
DAC7
  8
0
 10
3632.3279139316177861
 20
175.484434047094112
 30
0.0
 40
0.1091082280453352
 50
179.9341353740522891
 51
196.7594120506024069
  0
LINE
  5
DAC8
  8
0
 10
3632.2184548881841692
 20
175.1608148516812946
 30
0.0
 11
3632.1897641775021839
 21
175.1674386241051877
 31
0.0
  0
LINE
  5
DAC9
  8
0
 10
3632.2319127660439335
 20
175.1674493030415078
 30
0.0
 11
3632.277776530761912
 21
175.1568347723417958
 31
0.0
  0
LINE
  5
DACA
  8
0
 10
3632.2110193688999971
 20
175.2738482522910886
 30
0.0
 11
3632.2377409118262221
 21
175.2674291850144925
 31
0.0
  0
LINE
  5
DACB
  8
0
 10
3632.2396959620841699
 20
175.2482809674010866
 30
0.0
 11
3632.272591528169869
 21
175.2494473846271035
 31
0.0
  0
LINE
  5
DACC
  8
0
 10
3632.2178419504180056
 20
175.2489847195255948
 30
0.0
 11
3632.1975479350758178
 21
175.2482760368897061
 31
0.0
  0
LINE
  5
DACD
  8
0
 10
3632.2195081106619909
 20
175.3546132352124118
 30
0.0
 11
3632.2353070260860477
 21
175.355029065895792
 31
0.0
  0
ARC
  5
DACE
  8
0
 10
3632.2198099083439047
 20
175.3438294483125901
 30
0.0
 40
0.0107880091647284
 50
91.6030751747153431
 51
150.1524942240675955
  0
ARC
  5
DACF
  8
0
 10
3632.2594840827441658
 20
175.3298985209090119
 30
0.0
 40
0.0526929708073733
 50
158.514013255495712
 51
176.0595150480820905
  0
ARC
  5
DAD0
  8
0
 10
3632.5491080061387947
 20
175.2813443661912061
 30
0.0
 40
0.346147140248042
 50
171.3306879025691103
 51
179.8579614932488084
  0
ARC
  5
DAD1
  8
0
 10
3632.2135847368308532
 20
175.2843851958965899
 30
0.0
 40
0.0108447357354948
 50
191.6112250346994017
 51
256.3167439434209882
  0
ARC
  5
DAD2
  8
0
 10
3632.4316329938269519
 20
175.2911730027323074
 30
0.0
 40
0.2275273118415689
 50
170.1832792263917042
 51
177.494732910699895
  0
ARC
  5
DAD3
  8
0
 10
3629.6310028429520571
 20
175.0198270783261876
 30
0.0
 40
2.588648734686104
 50
6.2099368730641951
 51
6.2382732792188582
  0
ARC
  5
DAD4
  8
0
 10
3632.2002706954358473
 20
175.3021464108778105
 30
0.0
 40
0.0047811573803493
 50
331.2372618752656876
 51
352.6941809271324928
  0
ARC
  5
DAD5
  8
0
 10
3631.9567800858039845
 20
175.3401438792577949
 30
0.0
 40
0.2512169980914007
 50
351.1601120050240183
 51
357.6549653537247195
  0
ARC
  5
DAD6
  8
0
 10
3632.1941929756881109
 20
175.3290601619829943
 30
0.0
 40
0.0136175176560398
 50
3.3874740288887191
 51
6.1107614241966166
  0
ARC
  5
DAD7
  8
0
 10
3632.2088229404621416
 20
175.3318317269799991
 30
0.0
 40
0.0017132759757246
 50
228.5816214867207066
 51
230.4980601149597135
  0
ARC
  5
DAD8
  8
0
 10
3632.208771729511227
 20
175.3297315084195134
 30
0.0
 40
0.001355032999736
 50
143.0023524993194997
 51
170.0457489441201062
  0
ARC
  5
DAD9
  8
0
 10
3632.2251862755169896
 20
175.1934486443333014
 30
0.0
 40
0.000201328117545
 50
180.6706358956353995
 51
326.7048217641097949
  0
ARC
  5
DADA
  8
0
 10
3632.2281451393391762
 20
175.2240080396705082
 30
0.0
 40
0.0002127056461698
 50
14.2093363629598208
 51
147.0866545959142115
  0
ARC
  5
DADB
  8
0
 10
3632.2254043998700581
 20
175.2228891788562066
 30
0.0
 40
0.0031710962831817
 50
6.4471046508460628
 51
21.6721967736486789
  0
ARC
  5
DADC
  8
0
 10
3632.1252754567381089
 20
175.219174196977491
 30
0.0
 40
0.1033601896516577
 50
345.5247636471999044
 51
2.2572947001301968
  0
ARC
  5
DADD
  8
0
 10
3632.3239312343971505
 20
175.1993129906180968
 30
0.0
 40
0.0991200443019192
 50
165.5042093526010945
 51
183.3931973940075011
  0
ARC
  5
DADE
  8
0
 10
3632.2403756441040059
 20
175.2364790400249888
 30
0.0
 40
0.0118214828784833
 50
93.2960669444516668
 51
166.9375521194843941
  0
ARC
  5
DADF
  8
0
 10
3632.4610199799030852
 20
175.1852859146839876
 30
0.0
 40
0.2383268007015241
 50
166.9375521194843941
 51
180.7668192520725086
  0
ARC
  5
DAE0
  8
0
 10
3632.2480439988012222
 20
175.18243537603189
 30
0.0
 40
0.0253317441940126
 50
180.7668192520725086
 51
198.653760326574286
  0
ARC
  5
DAE1
  8
0
 10
3632.2338987549428566
 20
175.1776601952583974
 30
0.0
 40
0.0104022339800426
 50
198.6537603265396967
 51
258.9935522847724769
  0
ARC
  5
DAE2
  8
0
 10
3632.1979332059490844
 20
175.2376227330447875
 30
0.0
 40
0.0106602681233143
 50
92.0711677221714666
 51
174.4289426812011925
  0
ARC
  5
DAE3
  8
0
 10
3656.3043943348798166
 20
172.8862572775379078
 30
0.0
 40
24.2315270500124811
 50
174.4289426812011925
 51
174.5710572981298867
  0
ARC
  5
DAE4
  8
0
 10
3632.1921750954988966
 20
175.1778226687914923
 30
0.0
 40
0.0106602490420025
 50
174.5710572981315067
 51
256.9289219560720881
  0
ARC
  5
DAE5
  8
0
 10
3632.470185853302155
 20
175.276482310051307
 30
0.0
 40
0.2538376701666257
 50
180.8851723719990048
 51
186.2189100387242036
  0
ARC
  5
DAE6
  8
0
 10
3631.5433106806431169
 20
175.2002084604374943
 30
0.0
 40
0.6762925087470874
 50
355.0365760578184222
 51
4.1359357017253569
  0
ARC
  5
DAE7
  8
0
 10
3632.2802164534418807
 20
175.2358215626618971
 30
0.0
 40
0.0400405492446033
 50
147.6119115518183946
 51
161.736907683419787
  0
ARC
  5
DAE8
  8
0
 10
3632.2571319652361126
 20
175.2513894812780109
 30
0.0
 40
0.0122330766389615
 50
95.4601893442266345
 51
151.2720118847527999
  0
ARC
  5
DAE9
  8
0
 10
3632.2544884628741784
 20
175.2484387892426128
 30
0.0
 40
0.0152004325530588
 50
41.7484871967711371
 51
84.4144955840321671
  0
ARC
  5
DAEA
  8
0
 10
3632.2309351636131396
 20
175.2256006301711864
 30
0.0
 40
0.0479991708910077
 50
25.3866793808455604
 51
43.3670166885708568
  0
ARC
  5
DAEB
  8
0
 10
3632.1636618645170529
 20
175.1971333054171112
 30
0.0
 40
0.1210211916156669
 50
335.2160753898486973
 51
23.9077972294929211
  0
ARC
  5
DAEC
  8
0
 10
3632.2497619916039184
 20
175.1550159206119872
 30
0.0
 40
0.0252869680022534
 50
284.2082714271580812
 51
340.0826156204324775
  0
ARC
  5
DAED
  8
0
 10
3632.2579380918500647
 20
175.1442363550079051
 30
0.0
 40
0.0138743685194886
 50
202.2760590094704867
 51
261.8392385697782743
  0
ARC
  5
DAEE
  8
0
 10
3632.3231070294868914
 20
175.1749534729414961
 30
0.0
 40
0.085904184394576
 50
185.9023982786046929
 51
204.7586996793791911
  0
ARC
  5
DAEF
  8
0
 10
3632.3164290715139941
 20
175.3422222921319928
 30
0.0
 40
0.0970997760997298
 50
166.2551693654937992
 51
172.6588071253706005
  0
ARC
  5
DAF0
  8
0
 10
3632.2354164833168397
 20
175.3620361993546055
 30
0.0
 40
0.0136993544045622
 50
146.5404802595589047
 51
166.2470427170179903
  0
ARC
  5
DAF1
  8
0
 10
3632.2268714206861659
 20
175.3676833749273101
 30
0.0
 40
0.0034568602107274
 50
100.4203571484188018
 51
146.5404802595629121
  0
ARC
  5
DAF2
  8
0
 10
3632.2255949094810603
 20
175.3670106852360107
 30
0.0
 40
0.0041242834315691
 50
38.4123061720530927
 51
80.9142793564272722
  0
ARC
  5
DAF3
  8
0
 10
3632.1904098901882207
 20
175.3437398366511104
 30
0.0
 40
0.0462947028154723
 50
12.6810142711326108
 51
33.9189214382485886
  0
ARC
  5
DAF4
  8
0
 10
3632.0396169095979531
 20
175.3057313047708021
 30
0.0
 40
0.201792416977821
 50
342.4303709458243929
 51
13.8108291987927192
  0
ARC
  5
DAF5
  8
0
 10
3632.2255010769990804
 20
175.242342852473314
 30
0.0
 40
0.0043879237851265
 50
279.7766771232497831
 51
322.8821710236123863
  0
ARC
  5
DAF6
  8
0
 10
3632.2270561107939102
 20
175.2418224933512931
 30
0.0
 40
0.0038891099447568
 50
201.60305165317979
 51
257.9798738972880869
  0
ARC
  5
DAF7
  8
0
 10
3632.3279139316277906
 20
175.2718523705065081
 30
0.0
 40
0.1091082280453352
 50
179.9341353740522891
 51
196.7594120506024069
  0
LINE
  5
DAF8
  8
0
 10
3632.2184548881928094
 20
174.948247651364909
 30
0.0
 11
3632.1897641775121883
 21
174.9548714237888021
 31
0.0
  0
LINE
  5
DAF9
  8
0
 10
3632.2319127660530285
 20
174.9548821027246959
 30
0.0
 11
3632.2777765307700975
 21
174.9442675720252964
 31
0.0
  0
LINE
  5
DAFA
  8
0
 10
3632.2110193689100015
 20
175.0612810519747029
 30
0.0
 11
3632.2377409118362266
 21
175.0548619846981069
 31
0.0
  0
LINE
  5
DAFB
  8
0
 10
3632.2396959620928101
 20
175.035713767084701
 30
0.0
 11
3632.2725915281798734
 21
175.0368801843106041
 31
0.0
  0
LINE
  5
DAFC
  8
0
 10
3632.2178419504271005
 20
175.0364175192092091
 30
0.0
 11
3632.1975479350849128
 21
175.0357088365732068
 31
0.0
  0
LINE
  5
DAFD
  8
0
 10
3632.2195081106710859
 20
175.1420460348959978
 30
0.0
 11
3632.2353070260951426
 21
175.1424618655794063
 31
0.0
  0
ARC
  5
DAFE
  8
0
 10
3632.2198099083529996
 20
175.1312622479962045
 30
0.0
 40
0.0107880091647284
 50
91.6030751747153431
 51
150.1524942240675955
  0
ARC
  5
DAFF
  8
0
 10
3632.2594840827541702
 20
175.1173313205925979
 30
0.0
 40
0.0526929708073733
 50
158.514013255495712
 51
176.0595150480820905
  0
ARC
  5
DB00
  8
0
 10
3632.5491080061478897
 20
175.068777165874792
 30
0.0
 40
0.346147140248042
 50
171.3306879025691103
 51
179.8579614932488084
  0
ARC
  5
DB01
  8
0
 10
3632.2135847368422219
 20
175.0718179955802043
 30
0.0
 40
0.0108447357354948
 50
191.6112250346994017
 51
256.3167439434209882
  0
ARC
  5
DB02
  8
0
 10
3632.4316329938351373
 20
175.0786058024158933
 30
0.0
 40
0.2275273118415689
 50
170.1832792263917042
 51
177.494732910699895
  0
ARC
  5
DB03
  8
0
 10
3629.6310028429611521
 20
174.8072598780096882
 30
0.0
 40
2.588648734686104
 50
6.2099368730641951
 51
6.2382732792188582
  0
ARC
  5
DB04
  8
0
 10
3632.2002706954440328
 20
175.0895792105613964
 30
0.0
 40
0.0047811573803493
 50
331.2372618752656876
 51
352.6941809271324928
  0
ARC
  5
DB05
  8
0
 10
3631.9567800858130795
 20
175.1275766789414092
 30
0.0
 40
0.2512169980914007
 50
351.1601120050240183
 51
357.6549653537247195
  0
ARC
  5
DB06
  8
0
 10
3632.1941929756972058
 20
175.1164929616664949
 30
0.0
 40
0.0136175176560398
 50
3.3874740288887191
 51
6.1107614241966166
  0
ARC
  5
DB07
  8
0
 10
3632.208822940472146
 20
175.1192645266636134
 30
0.0
 40
0.0017132759757246
 50
228.5816214867207066
 51
230.4980601149597135
  0
ARC
  5
DB08
  8
0
 10
3632.2087717295207767
 20
175.1171643081027867
 30
0.0
 40
0.001355032999736
 50
143.0023524993194997
 51
170.0457489441201062
  0
ARC
  5
DB09
  8
0
 10
3632.2251862755260845
 20
174.9808814440168021
 30
0.0
 40
0.000201328117545
 50
180.6706358956353995
 51
326.7048217641097949
  0
ARC
  5
DB0A
  8
0
 10
3632.2281451393478164
 20
175.0114408393540941
 30
0.0
 40
0.0002127056461698
 50
14.2093363629598208
 51
147.0866545959142115
  0
ARC
  5
DB0B
  8
0
 10
3632.2254043998791531
 20
175.0103219785397073
 30
0.0
 40
0.0031710962831817
 50
6.4471046508460628
 51
21.6721967736486789
  0
ARC
  5
DB0C
  8
0
 10
3632.1252754567472039
 20
175.0066069966609916
 30
0.0
 40
0.1033601896516577
 50
345.5247636471999044
 51
2.2572947001301968
  0
ARC
  5
DB0D
  8
0
 10
3632.3239312344057907
 20
174.9867457903017112
 30
0.0
 40
0.0991200443019192
 50
165.5042093526010945
 51
183.3931973940075011
  0
ARC
  5
DB0E
  8
0
 10
3632.2403756441131009
 20
175.0239118397084894
 30
0.0
 40
0.0118214828784833
 50
93.2960669444516668
 51
166.9375521194843941
  0
ARC
  5
DB0F
  8
0
 10
3632.4610199799108159
 20
174.9727187143676019
 30
0.0
 40
0.2383268007015241
 50
166.9375521194843941
 51
180.7668192520725086
  0
ARC
  5
DB10
  8
0
 10
3632.2480439988098624
 20
174.9698681757153906
 30
0.0
 40
0.0253317441940126
 50
180.7668192520725086
 51
198.653760326574286
  0
ARC
  5
DB11
  8
0
 10
3632.2338987549519516
 20
174.9650929949420117
 30
0.0
 40
0.0104022339800426
 50
198.6537603265396967
 51
258.9935522847724769
  0
ARC
  5
DB12
  8
0
 10
3632.1979332059581793
 20
175.025055532728004
 30
0.0
 40
0.0106602681233143
 50
92.0711677221714666
 51
174.4289426812011925
  0
ARC
  5
DB13
  8
0
 10
3656.304394334889821
 20
172.6736900772214085
 30
0.0
 40
24.2315270500124811
 50
174.4289426812011925
 51
174.5710572981298867
  0
ARC
  5
DB14
  8
0
 10
3632.192175095508901
 20
174.965255468474993
 30
0.0
 40
0.0106602490420025
 50
174.5710572981315067
 51
256.9289219560720881
  0
ARC
  5
DB15
  8
0
 10
3632.4701858533107952
 20
175.0639151097348076
 30
0.0
 40
0.2538376701666257
 50
180.8851723719990048
 51
186.2189100387242036
  0
ARC
  5
DB16
  8
0
 10
3631.5433106806522119
 20
174.9876412601211086
 30
0.0
 40
0.6762925087470874
 50
355.0378678777785808
 51
4.1359357017253569
  0
ARC
  5
DB17
  8
0
 10
3632.2802164534509757
 20
175.0232543623455115
 30
0.0
 40
0.0400405492446033
 50
147.6119115518183946
 51
161.736907683419787
  0
ARC
  5
DB18
  8
0
 10
3632.257131965246117
 20
175.0388222809615968
 30
0.0
 40
0.0122330766389615
 50
95.4601893442266345
 51
151.2720118847527999
  0
ARC
  5
DB19
  8
0
 10
3632.2544884628841828
 20
175.0358715889261987
 30
0.0
 40
0.0152004325530588
 50
41.7484871967711371
 51
84.4144955840321671
  0
ARC
  5
DB1A
  8
0
 10
3632.2309351636217798
 20
175.0130334298548007
 30
0.0
 40
0.0479991708910077
 50
25.3866793808455604
 51
43.3670166885708568
  0
ARC
  5
DB1B
  8
0
 10
3632.1636618645261478
 20
174.9845661051002992
 30
0.0
 40
0.1210211916156669
 50
335.2160753898486973
 51
23.9077972294929211
  0
ARC
  5
DB1C
  8
0
 10
3632.2497619916130134
 20
174.9424487202956016
 30
0.0
 40
0.0252869680022534
 50
284.2082714271580812
 51
340.0826156204324775
  0
ARC
  5
DB1D
  8
0
 10
3632.2579380918591596
 20
174.9316691546914058
 30
0.0
 40
0.0138743685194886
 50
202.2760590094704867
 51
261.8392385697782743
  0
ARC
  5
DB1E
  8
0
 10
3632.3231070294959864
 20
174.9623862726251105
 30
0.0
 40
0.085904184394576
 50
185.9023982786046929
 51
204.7586996793791911
  0
ARC
  5
DB1F
  8
0
 10
3632.3164290715221796
 20
175.1296550918156072
 30
0.0
 40
0.0970997760997298
 50
166.2551693654937992
 51
172.6588071253706005
  0
ARC
  5
DB20
  8
0
 10
3632.2354164833259347
 20
175.1494689990381914
 30
0.0
 40
0.0136993544045622
 50
146.5404802595589047
 51
166.2470427170179903
  0
ARC
  5
DB21
  8
0
 10
3632.2268714206961704
 20
175.1551161746104981
 30
0.0
 40
0.0034568602107274
 50
100.4203571484188018
 51
146.5404802595629121
  0
ARC
  5
DB22
  8
0
 10
3632.2255949094910648
 20
175.1544434849191987
 30
0.0
 40
0.0041242834315691
 50
38.4123061720530927
 51
80.9142793564272722
  0
ARC
  5
DB23
  8
0
 10
3632.1904098901982252
 20
175.1311726363346111
 30
0.0
 40
0.0462947028154723
 50
12.6810142711326108
 51
33.9189214382485886
  0
ARC
  5
DB24
  8
0
 10
3632.039616909607048
 20
175.0931641044543028
 30
0.0
 40
0.201792416977821
 50
342.4303709458243929
 51
13.8108291987927192
  0
ARC
  5
DB25
  8
0
 10
3632.2255010770090848
 20
175.0297756521568999
 30
0.0
 40
0.0043879237851265
 50
279.7766771232497831
 51
322.8821710236123863
  0
ARC
  5
DB26
  8
0
 10
3632.2270561108039146
 20
175.0292552930345948
 30
0.0
 40
0.0038891099447568
 50
201.60305165317979
 51
257.9798738972880869
  0
ARC
  5
DB27
  8
0
 10
3632.327913931637795
 20
175.0592851701896961
 30
0.0
 40
0.1091082280453352
 50
179.9341353740522891
 51
196.7594120506024069
  0
LINE
  5
DB28
  8
0
 10
3632.2110193688349682
 20
174.8487286958423965
 30
0.0
 11
3632.2377409117611933
 21
174.8423096285661131
 31
0.0
  0
LINE
  5
DB29
  8
0
 10
3632.2195081105969621
 20
174.9294936787636061
 30
0.0
 11
3632.2353070260201093
 21
174.9299095094474126
 31
0.0
  0
ARC
  5
DB2A
  8
0
 10
3632.2198099082779663
 20
174.9187098918642107
 30
0.0
 40
0.0107880091647284
 50
91.6030751747153431
 51
150.1524942240675955
  0
ARC
  5
DB2B
  8
0
 10
3632.2594840826777727
 20
174.9047789644606041
 30
0.0
 40
0.0526929708073733
 50
158.514013255495712
 51
176.0595150480820905
  0
ARC
  5
DB2C
  8
0
 10
3632.5491080060728564
 20
174.8562248097427982
 30
0.0
 40
0.346147140248042
 50
171.3306879025691103
 51
179.8579614932488084
  0
ARC
  5
DB2D
  8
0
 10
3632.2135847367658243
 20
174.8592656394482105
 30
0.0
 40
0.0108447357354948
 50
191.6112250346994017
 51
256.3167439434209882
  0
ARC
  5
DB2E
  8
0
 10
3632.431632993760104
 20
174.8660534462838996
 30
0.0
 40
0.2275273118415689
 50
170.1832792263917042
 51
177.494732910699895
  0
ARC
  5
DB2F
  8
0
 10
3629.6310028428861187
 20
174.5947075218776945
 30
0.0
 40
2.588648734686104
 50
6.2099368730641951
 51
6.2382732792188582
  0
ARC
  5
DB30
  8
0
 10
3632.2002706953699089
 20
174.8770268544294026
 30
0.0
 40
0.0047811573803493
 50
331.2372618752656876
 51
352.6941809271324928
  0
ARC
  5
DB31
  8
0
 10
3631.9567800857380462
 20
174.9150243228093871
 30
0.0
 40
0.2512169980914007
 50
351.1601120050240183
 51
357.6549653537247195
  0
ARC
  5
DB32
  8
0
 10
3632.1941929756208083
 20
174.9039406055345012
 30
0.0
 40
0.0136175176560398
 50
3.3874740288887191
 51
6.1107614241966166
  0
ARC
  5
DB33
  8
0
 10
3632.2088229403962032
 20
174.9067121705315913
 30
0.0
 40
0.0017132759757246
 50
228.5816214867207066
 51
230.4980601149597135
  0
ARC
  5
DB34
  8
0
 10
3632.2087717294448339
 20
174.9046119519707929
 30
0.0
 40
0.001355032999736
 50
143.0023524993194997
 51
170.0457489441201062
  0
ARC
  5
DB35
  8
0
 10
3632.3164290714480558
 20
174.9171027356833008
 30
0.0
 40
0.0970997760997298
 50
166.2551693654937992
 51
172.6588071253706005
  0
ARC
  5
DB36
  8
0
 10
3632.2354164832509014
 20
174.9369166429059135
 30
0.0
 40
0.0136993544045622
 50
146.5404802595589047
 51
166.2470427170179903
  0
ARC
  5
DB37
  8
0
 10
3632.2268714206197728
 20
174.9425638184785043
 30
0.0
 40
0.0034568602107274
 50
100.4203571484188018
 51
146.5404802595629121
  0
ARC
  5
DB38
  8
0
 10
3632.2255949094160314
 20
174.9418911287872049
 30
0.0
 40
0.0041242834315691
 50
38.4123061720530927
 51
80.9142793564272722
  0
ARC
  5
DB39
  8
0
 10
3632.1904098901218276
 20
174.9186202802025889
 30
0.0
 40
0.0462947028154723
 50
12.6810142711326108
 51
33.9189214382485886
  0
ARC
  5
DB3A
  8
0
 10
3632.0396169095320147
 20
174.880611748322309
 30
0.0
 40
0.201792416977821
 50
342.4303709458243929
 51
13.8108291987927192
  0
ARC
  5
DB3B
  8
0
 10
3632.3279139315618522
 20
174.8467328140577024
 30
0.0
 40
0.1091082280453352
 50
179.9341353740522891
 51
196.7594120506024069
  0
LINE
  5
DB3C
  8
0
 10
3632.2165731958511969
 20
177.4806016401878139
 30
0.0
 11
3632.2165731959207733
 21
177.9626996436529964
 31
0.0
  0
LINE
  5
DB3D
  8
0
 10
3633.1565731958999095
 20
177.9626996433040063
 30
0.0
 11
3633.156573090116126
 21
174.3066996436170086
 31
0.0
  0
ARC
  5
DB3E
  8
0
 10
3633.144573195898829
 20
177.9626996436512911
 30
0.0
 40
0.012
 50
359.9999983421984098
 51
90.0
  0
ARC
  5
DB3F
  8
0
 10
3633.1445730898030888
 20
174.3066996439642082
 30
0.0
 40
0.0120000003133994
 50
270.0005067374833061
 51
359.9999983421869842
  0
LINE
  5
DB40
  8
0
 10
3628.0951347311279278
 20
173.4323455205804123
 30
0.0
 11
3627.9881426062488572
 21
173.0330454742189943
 31
0.0
  0
ARC
  5
DB41
  8
0
 10
3628.0349957483931576
 20
172.9797323077530962
 30
0.0
 40
0.0393700788771071
 50
345.0000002601443043
 51
74.9982121901644092
  0
LINE
  5
DB42
  8
0
 10
3628.0730243244101985
 20
172.9695425817052126
 30
0.0
 11
3628.0526448723771864
 21
172.8934854299068036
 31
0.0
  0
ARC
  5
DB43
  8
0
 10
3628.0146162967280361
 20
172.9036751558564049
 30
0.0
 40
0.0393700784970133
 50
254.9999997988317091
 51
345.0000002601443043
  0
LINE
  5
DB44
  8
0
 10
3628.0044265704718782
 20
172.8656465802889102
 30
0.0
 11
3626.6353978407050818
 21
173.2324767279968967
 31
0.0
  0
ARC
  5
DB45
  8
0
 10
3626.6455875669589659
 20
173.2705053035577123
 30
0.0
 40
0.0393700784899753
 50
165.0000070403187067
 51
254.9999997988317091
  0
LINE
  5
DB46
  8
0
 10
3626.6075589901101921
 20
173.2806950250052012
 30
0.0
 11
3626.627938433160125
 21
173.3567521792778052
 31
0.0
  0
ARC
  5
DB47
  8
0
 10
3626.6659670055660172
 20
173.3465624590205891
 30
0.0
 40
0.0393700738909098
 50
89.9754760517540717
 51
165.0000070403218047
  0
LINE
  5
DB48
  8
0
 10
3626.6761567446101253
 20
173.3845910263929966
 30
0.0
 11
3628.0451866612211234
 21
173.0177605657532922
 31
0.0
  0
LINE
  5
DB49
  8
0
 10
3626.7331996035609336
 20
173.3693064384002014
 30
0.0
 11
3626.840191728514128
 21
173.7686064846569991
 31
0.0
  0
LINE
  5
DB4A
  8
0
 10
3626.850992838296861
 20
173.8089167751348896
 30
0.0
 11
3627.2789613381369236
 21
175.4061169602512962
 31
0.0
  0
LINE
  5
DB4B
  8
0
 10
3626.850992838296861
 20
173.8089167751348896
 30
0.0
 11
3628.1059358409220295
 21
173.4726558110745032
 31
0.0
  0
LINE
  5
DB4C
  8
0
 10
3633.1542596533859069
 20
174.0557246500086137
 30
0.0
 11
3633.1865731959210279
 21
174.0557246499379005
 31
0.0
  0
LINE
  5
DB4D
  8
0
 10
3633.1865731959210279
 20
174.0557246499379005
 30
0.0
 11
3633.1865731959201185
 21
173.8957246499942926
 31
0.0
  0
LINE
  5
DB4E
  8
0
 10
3633.1865731959201185
 20
173.8957246499942926
 30
0.0
 11
3633.1542596533859069
 21
173.8957246499944063
 31
0.0
  0
ARC
  5
DB4F
  8
0
 10
3633.1543659903941261
 20
173.8964353422815918
 30
0.0
 40
0.0007186035671052
 50
214.6559480457381994
 51
261.4902743459434191
  0
ARC
  5
DB50
  8
0
 10
3633.318856939330999
 20
173.9401004737975995
 30
0.0
 40
0.1708642233055836
 50
178.1137082393717037
 51
194.9482270038917022
  0
LINE
  5
DB51
  8
0
 10
3633.1480853039579415
 20
173.9457246499810026
 30
0.0
 11
3633.148085303957032
 21
174.0057246500219037
 31
0.0
  0
ARC
  5
DB52
  8
0
 10
3633.3623540680678161
 20
174.0092317334342908
 30
0.0
 40
0.2142974636044271
 50
168.5490675196813868
 51
180.9377154787044901
  0
ARC
  5
DB53
  8
0
 10
3633.1636368075610335
 20
174.0494840242097894
 30
0.0
 40
0.0115444203822556
 50
150.6656003747540069
 51
168.5490675197052894
  0
ARC
  5
DB54
  8
0
 10
3633.1547088433280805
 20
174.054501214704004
 30
0.0
 40
0.0013032902777643
 50
110.1609446246792032
 51
150.6656003747283989
  0
ARC
  5
DB55
  8
0
 10
3633.196444581535161
 20
174.0473202931626133
 30
0.0
 40
0.0147447314127146
 50
145.250436968009609
 51
174.4844415461440121
  0
ARC
  5
DB56
  8
0
 10
3633.4251658801158555
 20
174.0079727891084929
 30
0.0
 40
0.2467878299014747
 50
170.4922392297621911
 51
180.5219490080606022
  0
LINE
  5
DB57
  8
0
 10
3633.1783882902541336
 20
174.0057246500219037
 30
0.0
 11
3633.1783882902541336
 21
173.9457246499810026
 31
0.0
  0
ARC
  5
DB58
  8
0
 10
3633.4228157578891114
 20
173.9430897855521039
 30
0.0
 40
0.2444416687981862
 50
179.3823903440222125
 51
189.2078991660031875
  0
ARC
  5
DB59
  8
0
 10
3633.2205086028948244
 20
173.9102945526865938
 30
0.0
 40
0.0394935966915576
 50
189.2078991660015959
 51
199.6262490368025908
  0
ARC
  5
DB5A
  8
0
 10
3633.1865533424879686
 20
173.89818609703471
 30
0.0
 40
0.0034439863247854
 50
199.6262490367678026
 51
225.6193323809964966
  0
LINE
  5
DB5B
  8
0
 10
3633.1783882902541336
 20
173.9457246499808036
 30
0.0
 11
3633.148085303957032
 21
173.9457246499808036
 31
0.0
  0
LINE
  5
DB5C
  8
0
 10
3633.1783882902541336
 20
174.0057246500219037
 30
0.0
 11
3633.148085303957032
 21
174.0057246500219037
 31
0.0
  0
ARC
  5
DB5D
  8
0
 10
3626.6655943029250011
 20
173.3437361795679124
 30
0.0
 40
0.0421981478673108
 50
75.5043906792280524
 51
89.4710641081397142
  0
LINE
  5
DB5E
  8
0
 10
3626.840191728514128
 20
173.7686064846569991
 30
0.0
 11
3628.0951347311279278
 21
173.4323455205804123
 31
0.0
  0
LINE
  5
DB5F
  8
0
 10
3627.9918501134779945
 20
173.503224989607304
 30
0.0
 11
3627.9810490037239106
 21
173.4629146991042887
 31
0.0
  0
LINE
  5
DB60
  8
0
 10
3626.9650785658682253
 20
173.7783475965680964
 30
0.0
 11
3626.9542774560241014
 21
173.7380373061048999
 31
0.0
  0
ARC
  5
DB61
  8
0
 10
3631.1245561844939402
 20
169.9571357390626929
 30
0.0
 40
0.5894815343602078
 50
18.7857624351338295
 51
40.3062996758925109
  0
ARC
  5
DB62
  8
0
 10
3631.2309244135108202
 20
170.0473626656585964
 30
0.0
 40
0.45
 50
40.3062996758925109
 51
90.0001661023298851
  0
ARC
  5
DB63
  8
0
 10
3632.22669082261109
 20
174.819469747195086
 30
0.0
 40
0.0053099494249228
 50
232.252786499705195
 51
2.4611147468179451
  0
LINE
  5
DB64
  8
0
 10
3633.1465731959160621
 20
174.2466996436513114
 30
0.0
 11
3632.2265731959050754
 21
174.2466996436513114
 31
0.0
  0
LINE
  5
DB65
  8
0
 10
3632.3294534538749758
 20
174.2466996436513114
 30
0.0
 11
3632.3294534538749758
 21
174.2406996436513111
 31
0.0
  0
LINE
  5
DB66
  8
0
 10
3633.0436892788297882
 20
174.2466996436513114
 30
0.0
 11
3633.0436892788297882
 21
174.2406996436513111
 31
0.0
  0
LINE
  5
DB67
  8
0
 10
3632.7565726395359889
 20
174.2466996436513114
 30
0.0
 11
3632.7565726395359889
 21
174.2406996436513111
 31
0.0
  0
LINE
  5
DB68
  8
0
 10
3632.6165726395361162
 20
174.2466996436513114
 30
0.0
 11
3632.6165726395361162
 21
174.2406996436513111
 31
0.0
  0
LINE
  5
DB69
  8
0
 10
3632.1393285449148607
 20
168.7011720846512901
 30
0.0
 11
3633.233816734085849
 21
168.7011720846512048
 31
0.0
  0
ARC
  5
DB6A
  8
0
 10
3633.2338167341558801
 20
168.6618020061218886
 30
0.0
 40
0.0393700785292879
 50
359.9999997516330268
 51
90.0000001029176673
  0
LINE
  5
DB6B
  8
0
 10
3633.2731868126861627
 20
168.6618020059511878
 30
0.0
 11
3633.2731868126861627
 21
168.5830618484509955
 31
0.0
  0
ARC
  5
DB6C
  8
0
 10
3632.1393285449148607
 20
168.6618020061218886
 30
0.0
 40
0.0393700785292879
 50
89.9999998970823469
 51
180.0000002483670016
  0
LINE
  5
DB6D
  8
0
 10
3632.0999584663859423
 20
168.6618020059511878
 30
0.0
 11
3632.0999584663859423
 21
168.5830618484509955
 31
0.0
  0
LINE
  5
DB6E
  8
0
 10
3632.2368617554789125
 20
169.2834440697778859
 30
0.0
 11
3632.2571951412369344
 21
168.7011720846512901
 31
0.0
  0
LINE
  5
DB6F
  8
0
 10
3632.2448568820950641
 20
169.2917232657513011
 30
0.0
 11
3633.128288396977041
 21
169.2917232657513011
 31
0.0
  0
LINE
  5
DB70
  8
0
 10
3632.2165726395360252
 20
169.4707246499949065
 30
0.0
 11
3632.2165726395360252
 21
169.4206996436512895
 31
0.0
  0
ARC
  5
DB71
  8
0
 10
3632.2365726397529215
 20
169.4707246497783899
 30
0.0
 40
0.0200000002164661
 50
90.0000002046889023
 51
179.9999993798803928
  0
ARC
  5
DB72
  8
0
 10
3632.2448568820950641
 20
169.2837232657512914
 30
0.0
 40
0.008
 50
90.0
 51
181.999999998359101
  0
ARC
  5
DB73
  8
0
 10
3633.2338167341558801
 20
168.6618020061218886
 30
0.0
 40
0.0393700785292879
 50
359.9999997516330268
 51
90.0000001029176673
  0
LINE
  5
DB74
  8
0
 10
3633.2731868126861627
 20
168.6618020059511878
 30
0.0
 11
3633.2731868126861627
 21
168.5830618484509955
 31
0.0
  0
LINE
  5
DB75
  8
0
 10
3633.136283523594102
 20
169.2834440697778859
 30
0.0
 11
3633.1159501378360801
 21
168.7011720846512901
 31
0.0
  0
LINE
  5
DB76
  8
0
 10
3633.1565726395351703
 20
169.4707246499949065
 30
0.0
 11
3633.1565726395351703
 21
169.4206996436512895
 31
0.0
  0
ARC
  5
DB77
  8
0
 10
3633.1365726393191835
 20
169.4707246497783899
 30
0.0
 40
0.0200000002164661
 50
0.0000006201196162
 51
89.9999997953110835
  0
ARC
  5
DB78
  8
0
 10
3633.128288396977041
 20
169.2837232657512914
 30
0.0
 40
0.008
 50
358.000000001640899
 51
90.0
  0
LINE
  5
DB79
  8
0
 10
3632.236572639536007
 20
169.400699643651194
 30
0.0
 11
3633.136572639536098
 21
169.400699643651194
 31
0.0
  0
ARC
  5
DB7A
  8
0
 10
3632.236572639536007
 20
169.4206996436512895
 30
0.0
 40
0.02
 50
180.0000000000553086
 51
270.0
  0
ARC
  5
DB7B
  8
0
 10
3633.136572639536098
 20
169.4206996436512895
 30
0.0
 40
0.02
 50
270.0
 51
359.9999999999445777
  0
LINE
  5
DB7C
  8
0
 10
3633.0465726395359525
 20
169.3256996436512907
 30
0.0
 11
3633.0805490174361694
 21
169.2917232657513011
 31
0.0
  0
LINE
  5
DB7D
  8
0
 10
3633.0465726395359525
 20
169.3807207600110019
 30
0.0
 11
3633.0465726395359525
 21
169.3256996436512907
 31
0.0
  0
ARC
  5
DB7E
  8
0
 10
3633.0665726395359343
 20
169.3807207600110019
 30
0.0
 40
0.02
 50
90.0031838995722069
 51
179.9999999999951115
  0
LINE
  5
DB7F
  8
0
 10
3632.3265726395361526
 20
169.3256996436512907
 30
0.0
 11
3632.3150351267959195
 21
169.3141621309108871
 31
0.0
  0
LINE
  5
DB80
  8
0
 10
3632.3265726395361526
 20
169.3807207600110019
 30
0.0
 11
3632.3265726395361526
 21
169.3256996436512907
 31
0.0
  0
ARC
  5
DB81
  8
0
 10
3632.3065726395361708
 20
169.3807207600110019
 30
0.0
 40
0.02
 50
0.0000000000048853
 51
87.3668816428499042
  0
ARC
  5
DB82
  8
0
 10
3632.3151473588532099
 20
169.314018796779294
 30
0.0
 40
0.0001820458721993
 50
128.0612989337577972
 51
215.641555351344806
  0
ARC
  5
DB83
  8
0
 10
3632.238140483870211
 20
169.15821387123151
 30
0.0
 40
0.1736358993256456
 50
60.5883302296898378
 51
63.7272840173423489
  0
ARC
  5
DB84
  8
0
 10
3632.3437484848659551
 20
169.381625875959287
 30
0.0
 40
0.0749670592521391
 50
254.2582704221190966
 51
266.0872966444430858
  0
ARC
  5
DB85
  8
0
 10
3632.8939452320391865
 20
178.5099236585234053
 30
0.0
 40
9.2198285879470863
 50
266.5469731221950838
 51
268.9231980583411996
  0
ARC
  5
DB86
  8
0
 10
3632.3235680185689489
 20
169.2984905265348914
 30
0.0
 40
0.0009639240192989
 50
169.3206996318145059
 51
267.4804646276896847
  0
ARC
  5
DB87
  8
0
 10
3632.4006505613219815
 20
169.7547894356534925
 30
0.0
 40
0.4637204968367143
 50
260.4262103094533813
 51
266.9559066717405926
  0
LINE
  5
DB88
  8
0
 10
3632.322620789901066
 20
169.2986691528442975
 30
0.0
 11
3632.3093008082360029
 21
169.2917232657513011
 31
0.0
  0
LINE
  5
DB89
  8
0
 10
3632.3226207898969733
 20
169.2986691528450081
 30
0.0
 11
3632.3226207898969733
 21
169.3099125970942112
 31
0.0
  0
ARC
  5
DB8A
  8
0
 10
3633.2187843707611137
 20
180.7210381721789076
 30
0.0
 40
11.4302135567574599
 50
265.5230914036998229
 51
269.2815299442942205
  0
LINE
  5
DB8B
  8
0
 10
3632.3265726395361526
 20
169.3256996436512907
 30
0.0
 11
3633.0465726395359525
 21
169.3256996436512907
 31
0.0
  0
LINE
  5
DB8C
  8
0
 10
3633.1465726395358615
 20
178.0645433198351952
 30
0.0
 11
3632.2265726395357888
 21
178.0645433198351952
 31
0.0
  0
LINE
  5
DB8D
  8
0
 10
3633.1465726395358615
 20
177.9746996436512916
 30
0.0
 11
3632.2265726395357888
 21
177.9746996436512916
 31
0.0
  0
ARC
  5
DB8E
  8
0
 10
3632.2285731959209443
 20
177.9626996436512911
 30
0.0
 40
0.012
 50
90.0
 51
179.9999999915987985
  0
LINE
  5
DB8F
  8
0
 10
3632.2145726395360725
 20
178.0525433198351948
 30
0.0
 11
3632.2145726395360725
 21
177.986699643651292
 31
0.0
  0
ARC
  5
DB90
  8
0
 10
3632.2265726395357888
 20
178.0525433198351948
 30
0.0
 40
0.012
 50
90.0
 51
180.0000000000081002
  0
ARC
  5
DB91
  8
0
 10
3632.2265726395357888
 20
177.986699643651292
 30
0.0
 40
0.012
 50
179.9999999999836859
 51
270.0
  0
LINE
  5
DB92
  8
0
 10
3633.1585726395360325
 20
178.0525433198351948
 30
0.0
 11
3633.1585726395360325
 21
177.986699643651292
 31
0.0
  0
ARC
  5
DB93
  8
0
 10
3633.1465726395358615
 20
178.0525433198351948
 30
0.0
 40
0.012
 50
359.9999999999919282
 51
90.0
  0
ARC
  5
DB94
  8
0
 10
3633.1465726395358615
 20
177.986699643651292
 30
0.0
 40
0.012
 50
270.0
 51
0.0000000000162844
  0
ENDSEC
  0
EOF
