  0
SECTION
  2
HEADER
  9
$ACADVER
  1
AC1009
  9
$INSBASE
 10
4550.7090981210076279
 20
291.1142866807298901
 30
0.0
  9
$EXTMIN
 10
4543.7795685612682064
 20
285.0318967998949802
 30
-0.0000000000000058
  9
$EXTMAX
 10
4557.6880990477711748
 20
292.1183011740134248
 30
0.0000000000000104
  9
$LIMMIN
 10
0.0
 20
0.0
  9
$LIMMAX
 10
11.6929133858000007
 20
8.2677165353999982
  9
$ORTHOMODE
 70
     0
  9
$REGENMODE
 70
     1
  9
$FILLMODE
 70
     1
  9
$QTEXTMODE
 70
     0
  9
$MIRRTEXT
 70
     0
  9
$DRAGMODE
 70
     2
  9
$LTSCALE
 40
0.6431102362
  9
$OSMODE
 70
   695
  9
$ATTMODE
 70
     1
  9
$TEXTSIZE
 40
0.2
  9
$TRACEWID
 40
0.05
  9
$TEXTSTYLE
  7
STANDARD
  9
$CLAYER
  8
0
  9
$CELTYPE
  6
BYLAYER
  9
$CECOLOR
 62
   256
  9
$DIMSCALE
 40
1.0
  9
$DIMASZ
 40
0.1875
  9
$DIMEXO
 40
0.0625
  9
$DIMDLI
 40
0.4443307087
  9
$DIMRND
 40
0.0
  9
$DIMDLE
 40
0.0
  9
$DIMEXE
 40
0.125
  9
$DIMTP
 40
0.01
  9
$DIMTM
 40
0.01
  9
$DIMTXT
 40
2.0
  9
$DIMCEN
 40
0.1052362205
  9
$DIMTSZ
 40
0.0
  9
$DIMTOL
 70
     1
  9
$DIMLIM
 70
     0
  9
$DIMTIH
 70
     1
  9
$DIMTOH
 70
     1
  9
$DIMSE1
 70
     0
  9
$DIMSE2
 70
     0
  9
$DIMTAD
 70
     0
  9
$DIMZIN
 70
     0
  9
$DIMBLK
  1

  9
$DIMASO
 70
     1
  9
$DIMSHO
 70
     1
  9
$DIMPOST
  1
\X
  9
$DIMAPOST
  1

  9
$DIMALT
 70
     1
  9
$DIMALTD
 70
     2
  9
$DIMALTF
 40
25.3999999999999986
  9
$DIMLFAC
 40
1.0
  9
$DIMTOFL
 70
     0
  9
$DIMTVP
 40
0.0
  9
$DIMTIX
 70
     0
  9
$DIMSOXD
 70
     0
  9
$DIMSAH
 70
     0
  9
$DIMBLK1
  1

  9
$DIMBLK2
  1

  9
$DIMSTYLE
  2
STANDARD
  9
$DIMCLRD
 70
     0
  9
$DIMCLRE
 70
     0
  9
$DIMCLRT
 70
     0
  9
$DIMTFAC
 40
1.0
  9
$DIMGAP
 40
0.09
  9
$LUNITS
 70
     2
  9
$LUPREC
 70
     4
  9
$SKETCHINC
 40
0.1
  9
$FILLETRAD
 40
0.0
  9
$AUNITS
 70
     0
  9
$AUPREC
 70
     0
  9
$MENU
  1
.
  9
$ELEVATION
 40
0.0
  9
$PELEVATION
 40
0.0
  9
$THICKNESS
 40
0.0
  9
$LIMCHECK
 70
     0
  9
$BLIPMODE
 70
     0
  9
$CHAMFERA
 40
0.0
  9
$CHAMFERB
 40
0.0
  9
$SKPOLY
 70
     0
  9
$TDCREATE
 40
2458060.468368056230247
  9
$TDUPDATE
 40
2459345.7134027779102325
  9
$TDINDWG
 40
0.5117315972000001
  9
$TDUSRTIMER
 40
0.5117315972000001
  9
$USRTIMER
 70
     1
  9
$ANGBASE
 50
0.0
  9
$ANGDIR
 70
     0
  9
$PDMODE
 70
     0
  9
$PDSIZE
 40
0.3125
  9
$PLINEWID
 40
0.0
  9
$COORDS
 70
     1
  9
$SPLFRAME
 70
     0
  9
$SPLINETYPE
 70
     6
  9
$SPLINESEGS
 70
     8
  9
$ATTDIA
 70
     1
  9
$ATTREQ
 70
     1
  9
$HANDLING
 70
     1
  9
$HANDSEED
  5
20FBD
  9
$SURFTAB1
 70
     6
  9
$SURFTAB2
 70
     6
  9
$SURFTYPE
 70
     6
  9
$SURFU
 70
     6
  9
$SURFV
 70
     6
  9
$UCSNAME
  2

  9
$UCSORG
 10
0.0
 20
0.0
 30
0.0
  9
$UCSXDIR
 10
1.0
 20
0.0
 30
0.0
  9
$UCSYDIR
 10
0.0
 20
1.0
 30
0.0
  9
$PUCSNAME
  2

  9
$PUCSORG
 10
0.0
 20
0.0
 30
0.0
  9
$PUCSXDIR
 10
1.0
 20
0.0
 30
0.0
  9
$PUCSYDIR
 10
0.0
 20
1.0
 30
0.0
  9
$USERI1
 70
     0
  9
$USERI2
 70
     0
  9
$USERI3
 70
     0
  9
$USERI4
 70
     0
  9
$USERI5
 70
     0
  9
$USERR1
 40
0.0
  9
$USERR2
 40
0.0
  9
$USERR3
 40
0.0
  9
$USERR4
 40
0.0
  9
$USERR5
 40
0.0
  9
$WORLDVIEW
 70
     1
  9
$SHADEDGE
 70
     3
  9
$SHADEDIF
 70
    70
  9
$TILEMODE
 70
     1
  9
$MAXACTVP
 70
    64
  9
$PLIMCHECK
 70
     0
  9
$PEXTMIN
 10
1.0000000000000000E+20
 20
1.0000000000000000E+20
 30
1.0000000000000000E+20
  9
$PEXTMAX
 10
-1.0000000000000000E+20
 20
-1.0000000000000000E+20
 30
-1.0000000000000000E+20
  9
$PLIMMIN
 10
0.0
 20
0.0
  9
$PLIMMAX
 10
12.0
 20
9.0
  9
$UNITMODE
 70
     0
  9
$VISRETAIN
 70
     1
  9
$PLINEGEN
 70
     0
  9
$PSLTSCALE
 70
     1
  0
ENDSEC
  0
SECTION
  2
TABLES
  0
TABLE
  2
VPORT
 70
     1
  0
VPORT
  2
*ACTIVE
 70
     0
 10
0.0
 20
0.0
 11
1.0
 21
1.0
 12
639.3684773676509394
 22
155.9954938639378099
 13
0.0
 23
0.0
 14
1.0
 24
1.0
 15
0.0
 25
0.0
 16
0.0
 26
0.0
 36
60.4960186965801583
 17
3911.3653564453120453
 27
132.5796051025390057
 37
0.0
 40
9.7974416404397289
 41
2.404287901990811
 42
50.0
 43
0.0
 44
0.0
 50
0.0
 51
0.0
 71
     0
 72
   100
 73
     1
 74
     1
 75
     0
 76
     0
 77
     0
 78
     0
  0
ENDTAB
  0
TABLE
  2
LTYPE
 70
     2
  0
LTYPE
  2
CONTINUOUS
 70
     0
  3
Solid line
 72
    65
 73
     0
 40
0.0
  0
LTYPE
  2
PHANTOM2
 70
     0
  3
___ _ _ ___ _ _ ___ _ _ ___ _ _
 72
    65
 73
     6
 40
1.25
 49
0.625
 49
-0.125
 49
0.125
 49
-0.125
 49
0.125
 49
-0.125
  0
ENDTAB
  0
TABLE
  2
LAYER
 70
     2
  0
LAYER
  2
0
 70
     0
 62
   255
  6
CONTINUOUS
  0
LAYER
  2
DEFPOINTS
 70
     0
 62
     7
  6
CONTINUOUS
  0
ENDTAB
  0
TABLE
  2
STYLE
 70
     1
  0
STYLE
  2
STANDARD
 70
     0
 40
0.0
 41
0.8
 50
0.0
 71
     0
 42
0.2
  3
txt
  4

  0
ENDTAB
  0
TABLE
  2
VIEW
 70
     0
  0
ENDTAB
  0
TABLE
  2
UCS
 70
     0
  0
ENDTAB
  0
TABLE
  2
APPID
 70
    11
  0
APPID
  2
ACAD
 70
     0
  0
APPID
  2
ACAD_MLEADERVER
 70
     0
  0
APPID
  2
ACAD_EXEMPT_FROM_CAD_STANDARDS
 70
     0
  0
APPID
  2
ACAD_NAV_VCDISPLAY
 70
     0
  0
APPID
  2
ACAECLAYERSTANDARD
 70
     0
  0
APPID
  2
ACCMTRANSPARENCY
 70
     0
  0
APPID
  2
ACAD_DSTYLE_DIMJAG
 70
     0
  0
APPID
  2
ACAD_DSTYLE_DIMTALN
 70
     0
  0
APPID
  2
ACDBATTR
 70
     0
  0
APPID
  2
ACADANNOTATIVE
 70
     0
  0
APPID
  2
DCO15
 70
     0
  0
ENDTAB
  0
TABLE
  2
DIMSTYLE
 70
     1
  0
DIMSTYLE
  2
STANDARD
 70
     0
  3

  4

  5

  6

  7

 40
1.0
 41
0.1875
 42
0.0625
 43
0.38
 44
0.125
 45
0.0
 46
0.0
 47
0.01
 48
0.01
140
0.15625
141
0.09
142
0.0
143
25.3999999999999986
144
1.0
145
0.0
146
1.0
147
0.09
 71
     1
 72
     0
 73
     1
 74
     1
 75
     0
 76
     0
 77
     0
 78
     4
170
     0
171
     2
172
     0
173
     0
174
     0
175
     0
176
     0
177
     0
178
     0
  0
ENDTAB
  0
ENDSEC
  0
SECTION
  2
BLOCKS
  0
BLOCK
  8
0
  2
$MODEL_SPACE
 70
     0
 10
0.0
 20
0.0
 30
0.0
  3
$MODEL_SPACE
  1

  0
ENDBLK
  5
21
  8
0
  0
BLOCK
 67
     1
  8
0
  2
$PAPER_SPACE
 70
     0
 10
0.0
 20
0.0
 30
0.0
  3
$PAPER_SPACE
  1

  0
ENDBLK
  5
1D
 67
     1
  8
0
  0
ENDSEC
  0
SECTION
  2
ENTITIES
  0
ATTDEF
  5
20106
  8
DEFPOINTS
 10
4550.709313164357809
 20
291.1132672551214
 30
0.0
 40
0.001
  1
K-10873T-B4
  3

  2
MODELNUMBER
 70
     0
1001
ACDBATTR
1070
     0
1070
     1
  0
ATTDEF
  5
20107
  8
DEFPOINTS
 10
4550.7091873547005889
 20
291.1116004147422132
 30
0.0
 40
0.001
  1
SINGULIER 
  3

  2
TRADENAME
 70
     0
1001
ACDBATTR
1070
     0
1070
     1
  0
ATTDEF
  5
20108
  8
DEFPOINTS
 10
4550.709313164357809
 20
291.1099339217880129
 30
0.0
 40
0.001
  1
BATH FAUCET
  3

  2
PRODUCT
 70
     0
1001
ACDBATTR
1070
     0
1070
     1
  0
LINE
  5
20E34
  8
0
 10
4545.2281100538575629
 20
287.7469691575797128
 30
0.0
 11
4544.3775915713022187
 21
287.7469691575797128
 31
0.0
  0
ARC
  5
20E35
  8
0
 10
4517.005094302231555
 20
289.2525967206187829
 30
0.0
 40
27.2963568724325611
 50
1.2064021179143809
 51
1.6800467267060419
  0
ARC
  5
20E36
  8
0
 10
4543.8059234762886263
 20
290.1155845289089257
 30
0.0
 40
0.4551676912159945
 50
13.7231569252519296
 51
43.6763922895829708
  0
ARC
  5
20E37
  8
0
 10
4544.3140517304709647
 20
290.2396704460111891
 30
0.0
 40
0.0678921882630265
 50
193.7231633431628097
 51
220.2860621086342974
  0
ARC
  5
20E38
  8
0
 10
4543.9567822276849256
 20
290.0740247999993926
 30
0.0
 40
0.328846378185528
 50
10.4277395082651605
 51
21.7293291148042798
  0
ARC
  5
20E39
  8
0
 10
4543.7440409033306423
 20
290.0293751349900049
 30
0.0
 40
0.5461822028663919
 50
2.4659805801558461
 51
10.9949604396303897
  0
ARC
  5
20E3A
  8
0
 10
4544.8156036893033161
 20
291.1045966084381007
 30
0.0
 40
0.958251405303738
 50
180.4772573405761023
 51
224.7548196267809999
  0
ARC
  5
20E3B
  8
0
 10
4544.8049645379933281
 20
291.1045079853224138
 30
0.0
 40
0.9476118848887178
 50
96.9955567704679567
 51
180.4772573405761023
  0
ARC
  5
20E3C
  8
0
 10
4544.8016551225246076
 20
291.894334528015122
 30
0.0
 40
0.1878477657380313
 50
89.4277300229229581
 51
139.8757367090599075
  0
ARC
  5
20E3D
  8
0
 10
4544.7230848827466616
 20
291.6409857146318814
 30
0.0
 40
0.3800187234027823
 50
99.8588332206972353
 51
104.2673174219532939
  0
ARC
  5
20E3E
  8
0
 10
4544.7220915577536289
 20
291.6448919920778167
 30
0.0
 40
0.3759881281577002
 50
104.2673174219532939
 51
107.2885039064072998
  0
ARC
  5
20E3F
  8
0
 10
4544.6183397597906151
 20
291.9782362209289772
 30
0.0
 40
0.026870940828427
 50
107.2885039064072998
 51
116.6894763559572965
  0
ARC
  5
20E40
  8
0
 10
4544.6082946389096833
 20
291.9982178628159204
 30
0.0
 40
0.0045064496424783
 50
116.6894763559572965
 51
125.9841257566712045
  0
ARC
  5
20E41
  8
0
 10
4544.6065763078922828
 20
292.0005843210593071
 30
0.0
 40
0.0015819349636165
 50
125.9841257566712045
 51
139.6273516838853084
  0
ARC
  5
20E42
  8
0
 10
4544.6055459282333686
 20
292.0014603950749006
 30
0.0
 40
0.0002294602228334
 50
139.6273516838292892
 51
250.5977969855630931
  0
ARC
  5
20E43
  8
0
 10
4544.6079367441652721
 20
292.0175679896480005
 30
0.0
 40
0.0165093926864392
 50
261.4059517340305092
 51
277.5449143777324821
  0
ARC
  5
20E44
  8
0
 10
4544.5870150539039969
 20
292.2483921632596093
 30
0.0
 40
0.2482666514353879
 50
275.3363646687104733
 51
277.7865339151351805
  0
ARC
  5
20E45
  8
0
 10
4545.1115010311386868
 20
288.5305309776127842
 30
0.0
 40
3.506409810728941
 50
97.3155168513445545
 51
98.0470667137104499
  0
ARC
  5
20E46
  8
0
 10
4544.804334964624104
 20
290.918160247791775
 30
0.0
 40
1.099103595755123
 50
90.0773682066598838
 51
97.282091974681947
  0
ARC
  5
20E47
  8
0
 10
4544.8046104744144031
 20
291.0837002426804929
 30
0.0
 40
0.9484272063546026
 50
98.5592072826820242
 51
128.709529749704302
  0
ARC
  5
20E48
  8
0
 10
4544.8081342455352569
 20
291.0793033562665073
 30
0.0
 40
0.9540618823038371
 50
128.709529749704302
 51
171.720033583620193
  0
ARC
  5
20E49
  8
0
 10
4545.2257439679169693
 20
287.8316118990302925
 30
0.0
 40
0.0846758055346489
 50
271.6012175559184243
 51
356.9654207689342797
  0
ARC
  5
20E4A
  8
0
 10
4572.5996328696919591
 20
289.2526212713311793
 30
0.0
 40
27.2953821183029213
 50
178.3199448160052896
 51
178.7936063393690915
  0
ARC
  5
20E4B
  8
0
 10
4545.7997781488702458
 20
290.1155845289089257
 30
0.0
 40
0.4551676912159714
 50
136.323607710414592
 51
166.2768430747480011
  0
ARC
  5
20E4C
  8
0
 10
4545.2916498946879074
 20
290.2396704460111891
 30
0.0
 40
0.0678921882630265
 50
319.7139378913656174
 51
346.276836656834007
  0
ARC
  5
20E4D
  8
0
 10
4545.6489193974739464
 20
290.0740247999993926
 30
0.0
 40
0.328846378185528
 50
158.2706708851956989
 51
169.5722604917347951
  0
ARC
  5
20E4E
  8
0
 10
4545.8616607218282297
 20
290.0293751349900049
 30
0.0
 40
0.5461822028663919
 50
169.0050395603695961
 51
177.5340194198440997
  0
ARC
  5
20E4F
  8
0
 10
4544.790097935855556
 20
291.1045966084381007
 30
0.0
 40
0.958251405303738
 50
315.2451803732190001
 51
359.5227426594206008
  0
ARC
  5
20E50
  8
0
 10
4544.8007370871673629
 20
291.1045079853224138
 30
0.0
 40
0.9476118848887178
 50
359.5227426594206008
 51
83.0043101163119843
  0
ARC
  5
20E51
  8
0
 10
4544.8040750284899332
 20
291.8943717356835919
 30
0.0
 40
0.1878019753648704
 50
40.1211918745865788
 51
90.1658800062180745
  0
ARC
  5
20E52
  8
0
 10
4544.8826167424122104
 20
291.6409857146318814
 30
0.0
 40
0.3800187234027823
 50
75.7326825780466493
 51
80.1411667793027789
  0
ARC
  5
20E53
  8
0
 10
4544.8836100674070622
 20
291.6448919920778167
 30
0.0
 40
0.3759881281577002
 50
72.7114960935926433
 51
75.7326825780466493
  0
ARC
  5
20E54
  8
0
 10
4544.9873618653691665
 20
291.9782362209289772
 30
0.0
 40
0.026870940828427
 50
63.3105236440426395
 51
72.7114960935926433
  0
ARC
  5
20E55
  8
0
 10
4544.9974069862491888
 20
291.9982178628159204
 30
0.0
 40
0.0045064496424783
 50
54.0158742433288097
 51
63.3105236440426395
  0
ARC
  5
20E56
  8
0
 10
4544.9991253172684083
 20
292.0005843210593071
 30
0.0
 40
0.0015819349636165
 50
40.372648316114649
 51
54.0158742433288097
  0
ARC
  5
20E57
  8
0
 10
4545.0001556969282319
 20
292.0014603950749006
 30
0.0
 40
0.0002294602228334
 50
289.4022030144370206
 51
40.3726483161707392
  0
ARC
  5
20E58
  8
0
 10
4544.9977648809954189
 20
292.0175679896480005
 30
0.0
 40
0.0165093926864392
 50
262.4550856222675179
 51
278.5940482659694908
  0
ARC
  5
20E59
  8
0
 10
4545.0186865712557847
 20
292.2483921632596093
 30
0.0
 40
0.2482666514353879
 50
262.2134660848648195
 51
264.6636353312895267
  0
ARC
  5
20E5A
  8
0
 10
4544.4942005940201852
 20
288.5305309776127842
 30
0.0
 40
3.506409810728941
 50
81.9529332862895359
 51
82.6844831486554739
  0
ARC
  5
20E5B
  8
0
 10
4544.801366660536587
 20
290.918160247791775
 30
0.0
 40
1.099103595755123
 50
82.717908025318053
 51
89.9226317933922275
  0
ARC
  5
20E5C
  8
0
 10
4544.8010911507471974
 20
291.0837002426804929
 30
0.0
 40
0.9484272063546026
 50
51.290470250295698
 51
81.440754458893764
  0
ARC
  5
20E5D
  8
0
 10
4544.7976472882073722
 20
291.0793716959746007
 30
0.0
 40
0.9539585826015327
 50
8.2430988502920677
 51
51.2916484686962733
  0
LINE
  5
20E5E
  8
0
 10
4550.0592724463504055
 20
291.0281337531928898
 30
0.0
 11
4550.0595041557517106
 21
285.7807294376902973
 31
0.0
  0
ARC
  5
20E5F
  8
0
 10
4550.6705838521829719
 20
285.787252725635426
 30
0.0
 40
0.6111145135542472
 50
180.6116103574767919
 51
209.332099391410793
  0
ARC
  5
20E60
  8
0
 10
4550.7048777623867863
 20
285.812480540445506
 30
0.0
 40
0.6533907889960854
 50
209.7875560901630081
 51
270.3700854412800254
  0
ARC
  5
20E61
  8
0
 10
4550.684698150001168
 20
285.7681857343882257
 30
0.0
 40
0.7250294207602113
 50
149.5784349512667006
 51
226.2781714690729018
  0
ARC
  5
20E62
  8
0
 10
4550.7062521781326723
 20
285.7907581919239988
 30
0.0
 40
0.7562398584044372
 50
226.2799860351049119
 51
270.2156206148594038
  0
ARC
  5
20E63
  8
0
 10
4550.7078880780572945
 20
285.8258971031532951
 30
0.0
 40
0.7238375959909412
 50
228.0572082132472076
 51
270.0957816915021112
  0
ARC
  5
20E64
  8
0
 10
4550.6758002610913536
 20
285.7901883352629966
 30
0.0
 40
0.6758298455550847
 50
193.3717416650736141
 51
228.0572082132472076
  0
ARC
  5
20E65
  8
0
 10
4550.6603342842354323
 20
285.7865118796635784
 30
0.0
 40
0.6599329035268386
 50
169.9662416453857929
 51
193.3717416650736141
  0
ARC
  5
20E66
  8
0
 10
4550.6692575461966044
 20
285.7849330462603916
 30
0.0
 40
0.6689947642054493
 50
155.7086818076261068
 51
169.9662416453857929
  0
ARC
  5
20E67
  8
0
 10
4550.7090385157771379
 20
285.9368818986388874
 30
0.0
 40
0.6707863947374822
 50
250.4097697087827896
 51
270.005091234905592
  0
ARC
  5
20E68
  8
0
 10
4550.7033295350283879
 20
285.9208405630996026
 30
0.0
 40
0.6537594482386142
 50
222.3389821208126023
 51
250.4097697087827896
  0
ARC
  5
20E69
  8
0
 10
4550.6759891309093291
 20
285.8959286854175161
 30
0.0
 40
0.6167716212268778
 50
196.7146499012972924
 51
222.3389821208126023
  0
ARC
  5
20E6A
  8
0
 10
4550.6908435717023167
 20
285.9003893715280924
 30
0.0
 40
0.632281364353141
 50
183.1216225508640036
 51
196.7146499012972924
  0
ARC
  5
20E6B
  8
0
 10
4550.7090981210076279
 20
291.1142866806796974
 30
0.0
 40
1.003937007899985
 50
90.0
 51
159.8841736311603938
  0
ARC
  5
20E6C
  8
0
 10
4550.7090981210076279
 20
291.1142866806796974
 30
0.0
 40
1.0039370079000121
 50
159.8841736311603938
 51
229.6656072008082958
  0
ARC
  5
20E6D
  8
0
 10
4550.7090981210076279
 20
291.1142866806796974
 30
0.0
 40
0.6555118110000003
 50
90.0
 51
187.5521470839017013
  0
LINE
  5
20E6E
  8
0
 10
4551.3589237956666693
 20
291.2004396081666187
 30
0.0
 11
4551.3586923118091363
 21
285.7807506002362743
 31
0.0
  0
ARC
  5
20E6F
  8
0
 10
4550.7476123898331934
 20
285.787252725635426
 30
0.0
 40
0.6111145135542472
 50
330.667900608589207
 51
359.3903738752698018
  0
ARC
  5
20E70
  8
0
 10
4550.7133184796302885
 20
285.812480540445506
 30
0.0
 40
0.6533907889960854
 50
269.6299145587199746
 51
330.2124439098370203
  0
ARC
  5
20E71
  8
0
 10
4550.7334980870928121
 20
285.7681857359687001
 30
0.0
 40
0.7250294253039254
 50
313.721828725679984
 51
30.4216098106241404
  0
ARC
  5
20E72
  8
0
 10
4550.7119440638844026
 20
285.7907581919239988
 30
0.0
 40
0.7562398584044372
 50
269.7843793851405962
 51
313.7200139648949744
  0
ARC
  5
20E73
  8
0
 10
4550.7103081639870652
 20
285.8258971031102078
 30
0.0
 40
0.7238375959413306
 50
269.9042183142821045
 51
311.9427917874691047
  0
ARC
  5
20E74
  8
0
 10
4550.7423959809257212
 20
285.7901883352629966
 30
0.0
 40
0.6758298455550847
 50
311.9427917867528208
 51
346.6282583349262723
  0
ARC
  5
20E75
  8
0
 10
4550.7578619577816426
 20
285.7865118796635784
 30
0.0
 40
0.6599329035268386
 50
346.6282583349262723
 51
10.0337583546141307
  0
ARC
  5
20E76
  8
0
 10
4550.748938695819561
 20
285.7849330462603916
 30
0.0
 40
0.6689947642054493
 50
10.0337583546141307
 51
24.2913554957096913
  0
ARC
  5
20E77
  8
0
 10
4550.7091577262408464
 20
285.9368818986388874
 30
0.0
 40
0.6707863947374822
 50
269.994908765094408
 51
289.5902302912172104
  0
ARC
  5
20E78
  8
0
 10
4550.7148667069877774
 20
285.9208405630996026
 30
0.0
 40
0.6537594482386142
 50
289.5902302912172104
 51
317.6610178791873977
  0
ARC
  5
20E79
  8
0
 10
4550.7422071111086552
 20
285.8959286854175161
 30
0.0
 40
0.6167716212268778
 50
317.6610178791873977
 51
343.2853500987026223
  0
ARC
  5
20E7A
  8
0
 10
4550.7273526703156676
 20
285.9003893715280924
 30
0.0
 40
0.632281364353141
 50
343.2853500987026223
 51
356.8785464195706254
  0
ARC
  5
20E7B
  8
0
 10
4550.7090981210076279
 20
291.1142866806796974
 30
0.0
 40
1.003937007899985
 50
20.1158263688395387
 51
90.0
  0
ARC
  5
20E7C
  8
0
 10
4550.7090981210076279
 20
291.1142866806796974
 30
0.0
 40
1.0039370079000121
 50
310.3339152755406758
 51
20.1158263688395387
  0
ARC
  5
20E7D
  8
0
 10
4550.7090981210076279
 20
291.1142866806796974
 30
0.0
 40
0.6555118110000019
 50
7.5521470839017049
 51
90.0
  0
LINE
  5
20E7E
  8
0
 10
4545.3103010382437787
 20
287.8271292769592833
 30
0.0
 11
4545.3103010382437787
 21
289.8272978563535958
 31
0.0
  0
ARC
  5
20E7F
  8
0
 10
4544.3799576572409933
 20
287.8316118990302925
 30
0.0
 40
0.0846758055346489
 50
183.0345792310656918
 51
268.3987824440295071
  0
LINE
  5
20E80
  8
0
 10
4544.2954005869150933
 20
287.8271292769592833
 30
0.0
 11
4544.2954005869150933
 21
289.8272978563535958
 31
0.0
  0
LINE
  5
20E81
  8
0
 10
4556.3974411895160301
 20
290.5834566778577823
 30
0.0
 11
4556.4012274759452339
 21
290.5932990979691226
 31
0.0
  0
LINE
  5
20E82
  8
0
 10
4556.5258587393082053
 20
290.5436945929797048
 30
0.0
 11
4556.5331794054945931
 21
290.5691539656658051
 31
0.0
  0
LINE
  5
20E83
  8
0
 10
4556.3160207494092901
 20
290.5977834686797223
 30
0.0
 11
4556.3152997972720186
 21
290.6374496255609756
 31
0.0
  0
LINE
  5
20E84
  8
0
 10
4556.3389600472091843
 20
290.5413866078797014
 30
0.0
 11
4556.3385276774270096
 21
290.5909312757246994
 31
0.0
  0
LINE
  5
20E85
  8
0
 10
4556.3114603258081843
 20
290.639881315879677
 30
0.0
 11
4556.3114603258081843
 21
290.6539597057553124
 31
0.0
  0
LINE
  5
20E86
  8
0
 10
4556.4689406407087517
 20
290.5827031358008981
 30
0.0
 11
4556.4689406407087517
 21
290.5704663136796739
 31
0.0
  0
LINE
  5
20E87
  8
0
 10
4556.6559425366076539
 20
290.531548244179703
 30
0.0
 11
4556.66250789719561
 21
290.5651907031099199
 31
0.0
  0
LINE
  5
20E88
  8
0
 10
4556.4435076517993366
 20
290.5509607707390956
 30
0.0
 11
4556.4405464419787677
 21
290.5788783922301945
 31
0.0
  0
LINE
  5
20E89
  8
0
 10
4556.7602792234083608
 20
290.5704663136796739
 30
0.0
 11
4556.7602792234083608
 21
290.5827031357734995
 31
0.0
  0
LINE
  5
20E8A
  8
0
 10
4556.9177595384089727
 20
290.639881315879677
 30
0.0
 11
4556.9177595384089727
 21
290.6539597057553124
 31
0.0
  0
LINE
  5
20E8B
  8
0
 10
4556.8902598170079727
 20
290.5413866078797014
 30
0.0
 11
4556.8906922125179335
 21
290.5909342353426723
 31
0.0
  0
LINE
  5
20E8C
  8
0
 10
4556.9131991147087319
 20
290.5977834686797223
 30
0.0
 11
4556.9139200668487319
 21
290.6374496255004942
 31
0.0
  0
LINE
  5
20E8D
  8
0
 10
4556.7857118584088312
 20
290.5508993485797191
 30
0.0
 11
4556.7886734222438463
 21
290.5788783922307061
 31
0.0
  0
LINE
  5
20E8E
  8
0
 10
4556.5732750191209561
 20
290.5316556758862134
 30
0.0
 11
4556.5667119669878957
 21
290.5651907031128189
 31
0.0
  0
LINE
  5
20E8F
  8
0
 10
4556.831789492707685
 20
290.5834287562797158
 30
0.0
 11
4556.8279923881991635
 21
290.593299097939223
 31
0.0
  0
LINE
  5
20E90
  8
0
 10
4556.7033611249089518
 20
290.5436945929797048
 30
0.0
 11
4556.696040458627067
 21
290.5691539656517079
 31
0.0
  0
ARC
  5
20E91
  8
0
 10
4556.614609932107669
 20
291.0119244758797095
 30
0.0
 40
0.5511811024000001
 50
240.7144871820889023
 51
299.2855128179111261
  0
CIRCLE
  5
20E92
  8
0
 10
4556.614609932107669
 20
291.1142866806796974
 30
0.0
 40
1.0039370079000001
  0
ARC
  5
20E93
  8
0
 10
4556.614609932107669
 20
291.1142866806796974
 30
0.0
 40
0.5866141732
 50
300.6216524559579284
 51
239.3783475327201131
  0
ARC
  5
20E94
  8
0
 10
4556.6146099319466884
 20
291.114286681139788
 30
0.0
 40
0.5629921264863259
 50
284.995386003430724
 51
302.5789703797884727
  0
ARC
  5
20E95
  8
0
 10
4556.6146099322695591
 20
291.114286681139788
 30
0.0
 40
0.5629921264862929
 50
237.4210296202132042
 51
255.0046139966196108
  0
CIRCLE
  5
20E96
  8
0
 10
4556.614609932107669
 20
291.1142866806796974
 30
0.0
 40
0.5511811024000001
  0
CIRCLE
  5
20E97
  8
0
 10
4556.614609932107669
 20
291.1142866806796974
 30
0.0
 40
0.5196850394000001
  0
ARC
  5
20E98
  8
0
 10
4556.350774432838989
 20
290.5414919320621721
 30
0.0
 40
0.0118148550997148
 50
180.5107731762890921
 51
240.7037138069161131
  0
ARC
  5
20E99
  8
0
 10
4556.8784454307888154
 20
290.5414919324105085
 30
0.0
 40
0.011814855691546
 50
299.2962878565863889
 51
359.4892251602249189
  0
ARC
  5
20E9A
  8
0
 10
4556.3159069152952725
 20
290.3586133036728256
 30
0.0
 40
0.2391701920968808
 50
70.0679890775878107
 51
89.9727298187385003
  0
ARC
  5
20E9B
  8
0
 10
4556.3986294988098962
 20
290.8287331819022938
 30
0.0
 40
0.2452793825726914
 50
250.3183018423686121
 51
269.7224170539378179
  0
ARC
  5
20E9C
  8
0
 10
4556.3354009066506478
 20
290.469667767882413
 30
0.0
 40
0.124725366359873
 50
70.003717970389701
 51
89.9962825694379092
  0
ARC
  5
20E9D
  8
0
 10
4556.3787959281708027
 20
290.7157731712704276
 30
0.0
 40
0.1289012764672982
 50
250.330723036967413
 51
269.6692775028477058
  0
ARC
  5
20E9E
  8
0
 10
4556.4741889331180573
 20
290.4269520203743014
 30
0.0
 40
0.1227639442556752
 50
74.8576959073755432
 51
95.1740549072132325
  0
ARC
  5
20E9F
  8
0
 10
4556.495554316507878
 20
290.6719412751477876
 30
0.0
 40
0.1269396645838224
 50
255.1952220241608131
 51
274.8365287904479146
  0
ARC
  5
20EA0
  8
0
 10
4556.4643499083022107
 20
290.3168807573214281
 30
0.0
 40
0.2350060687254197
 50
74.8270860151484953
 51
95.0881425592546634
  0
ARC
  5
20EA1
  8
0
 10
4556.5056109882389137
 20
290.7845124224274969
 30
0.0
 40
0.241667536924849
 50
255.1091538008014936
 51
274.806074773642024
  0
ARC
  5
20EA2
  8
0
 10
4556.6143036440744254
 20
290.2968048608731237
 30
0.0
 40
0.238407746052333
 50
79.9414699593305329
 51
99.909611091801878
  0
ARC
  5
20EA3
  8
0
 10
4556.6149152140069418
 20
290.7674012028858783
 30
0.0
 40
0.2393947771576665
 50
259.9830536727312165
 51
279.868027378392128
  0
ARC
  5
20EA4
  8
0
 10
4556.6145299288818933
 20
290.4093337271920063
 30
0.0
 40
0.1241630445645777
 50
79.9204478079462746
 51
100.005674105671801
  0
ARC
  5
20EA5
  8
0
 10
4556.6146888695566304
 20
290.6558649789627111
 30
0.0
 40
0.1261427190842135
 50
260.0796509624236137
 51
279.8464709511339947
  0
ARC
  5
20EA6
  8
0
 10
4556.76477306932793
 20
290.3159918291231065
 30
0.0
 40
0.235838876323211
 50
84.9063274887686532
 51
105.0936724914996034
  0
ARC
  5
20EA7
  8
0
 10
4556.7236016366387048
 20
290.7865834590718919
 30
0.0
 40
0.2437307522384148
 50
265.2364115134387816
 51
284.7635884668181916
  0
ARC
  5
20EA8
  8
0
 10
4556.9132274367511855
 20
290.359597028384826
 30
0.0
 40
0.238186441978731
 50
90.0068128713485862
 51
109.9931865172644052
  0
ARC
  5
20EA9
  8
0
 10
4556.8303469733027669
 20
290.8296355086122276
 30
0.0
 40
0.2462109781393526
 50
270.3356907449399955
 51
289.6643086436802719
  0
ARC
  5
20EAA
  8
0
 10
4556.7551264445828565
 20
290.426254078023419
 30
0.0
 40
0.1234505186896855
 50
84.8993369473395347
 51
105.1006616900193933
  0
ARC
  5
20EAB
  8
0
 10
4556.73358084902884
 20
290.6725213958180234
 30
0.0
 40
0.1275221751640202
 50
265.2250608929850841
 51
284.7749377443885237
  0
ARC
  5
20EAC
  8
0
 10
4556.8939713485242464
 20
290.4691100964715815
 30
0.0
 40
0.1253015353731167
 50
90.0737012645780482
 51
109.9745540570411038
  0
ARC
  5
20EAD
  8
0
 10
4556.8504307573948608
 20
290.7154344480296118
 30
0.0
 40
0.1285625160056957
 50
270.3285630514471904
 51
289.7196922701684798
  0
ARC
  5
20EAF
  8
0
 10
4550.8062071972135527
 20
286.3695174044623855
 30
0.0
 40
0.751001825679711
 50
186.1172816289164871
 51
196.3018873214709004
  0
ARC
  5
20EB0
  8
0
 10
4550.6805773381493054
 20
286.3391076691549983
 30
0.0
 40
0.6219165125120806
 50
196.8617518115933933
 51
222.1626567418639979
  0
ARC
  5
20EB1
  8
0
 10
4550.7018782292816468
 20
286.3591438035538204
 30
0.0
 40
0.6511548753126593
 50
222.2113747119518052
 51
251.8164233213570924
  0
ARC
  5
20EB2
  8
0
 10
4550.6119890448017031
 20
286.3695174044623855
 30
0.0
 40
0.751001825679711
 50
343.6981126785291281
 51
353.8827183710835129
  0
ARC
  5
20EB3
  8
0
 10
4550.7376189038677694
 20
286.3391076691549983
 30
0.0
 40
0.6219165125120806
 50
317.8373432581361158
 51
343.1382481884065783
  0
ARC
  5
20EB4
  8
0
 10
4550.7163180127354281
 20
286.3591438035538204
 30
0.0
 40
0.6511548753126593
 50
288.1835766786427939
 51
317.7886252880483084
  0
ARC
  5
20EB5
  8
0
 10
4550.7090981210076279
 20
286.3779715807480102
 30
0.0
 40
0.6712962015682642
 50
251.7324467943494142
 51
288.2675532056505858
  0
ENDSEC
  0
EOF
