  0
SECTION
  2
HEADER
  9
$ACADVER
  1
AC1009
  9
$INSBASE
 10
3428.5321170320999045
 20
161.8700410726634971
 30
0.0
  9
$EXTMIN
 10
3426.2683065954602171
 20
158.5235843595301048
 30
0.0
  9
$EXTMAX
 10
3430.7958658651677979
 20
165.2164977655635028
 30
0.0
  9
$LIMMIN
 10
0.0
 20
0.0
  9
$LIMMAX
 10
11.6929133858000007
 20
8.2677165353999982
  9
$ORTHOMODE
 70
     0
  9
$REGENMODE
 70
     1
  9
$FILLMODE
 70
     1
  9
$QTEXTMODE
 70
     0
  9
$MIRRTEXT
 70
     0
  9
$DRAGMODE
 70
     2
  9
$LTSCALE
 40
0.6431102362
  9
$OSMODE
 70
  4095
  9
$ATTMODE
 70
     1
  9
$TEXTSIZE
 40
0.2
  9
$TRACEWID
 40
0.05
  9
$TEXTSTYLE
  7
STANDARD
  9
$CLAYER
  8
0
  9
$CELTYPE
  6
BYLAYER
  9
$CECOLOR
 62
   256
  9
$DIMSCALE
 40
1.0
  9
$DIMASZ
 40
0.1875
  9
$DIMEXO
 40
0.0625
  9
$DIMDLI
 40
0.4443307087
  9
$DIMRND
 40
0.0
  9
$DIMDLE
 40
0.0
  9
$DIMEXE
 40
0.125
  9
$DIMTP
 40
0.01
  9
$DIMTM
 40
0.01
  9
$DIMTXT
 40
2.0
  9
$DIMCEN
 40
0.1052362205
  9
$DIMTSZ
 40
0.0
  9
$DIMTOL
 70
     1
  9
$DIMLIM
 70
     0
  9
$DIMTIH
 70
     1
  9
$DIMTOH
 70
     1
  9
$DIMSE1
 70
     0
  9
$DIMSE2
 70
     0
  9
$DIMTAD
 70
     0
  9
$DIMZIN
 70
     0
  9
$DIMBLK
  1

  9
$DIMASO
 70
     1
  9
$DIMSHO
 70
     1
  9
$DIMPOST
  1
\X
  9
$DIMAPOST
  1

  9
$DIMALT
 70
     1
  9
$DIMALTD
 70
     2
  9
$DIMALTF
 40
25.3999999999999986
  9
$DIMLFAC
 40
1.0
  9
$DIMTOFL
 70
     0
  9
$DIMTVP
 40
0.0
  9
$DIMTIX
 70
     0
  9
$DIMSOXD
 70
     0
  9
$DIMSAH
 70
     0
  9
$DIMBLK1
  1

  9
$DIMBLK2
  1

  9
$DIMSTYLE
  2
STANDARD
  9
$DIMCLRD
 70
     0
  9
$DIMCLRE
 70
     0
  9
$DIMCLRT
 70
     0
  9
$DIMTFAC
 40
1.0
  9
$DIMGAP
 40
0.09
  9
$LUNITS
 70
     2
  9
$LUPREC
 70
     4
  9
$SKETCHINC
 40
0.1
  9
$FILLETRAD
 40
0.0
  9
$AUNITS
 70
     0
  9
$AUPREC
 70
     0
  9
$MENU
  1
.
  9
$ELEVATION
 40
0.0
  9
$PELEVATION
 40
0.0
  9
$THICKNESS
 40
0.0
  9
$LIMCHECK
 70
     0
  9
$BLIPMODE
 70
     0
  9
$CHAMFERA
 40
0.0
  9
$CHAMFERB
 40
0.0
  9
$SKPOLY
 70
     0
  9
$TDCREATE
 40
2458060.468368056230247
  9
$TDUPDATE
 40
2459068.9039236111566424
  9
$TDINDWG
 40
0.523722338
  9
$TDUSRTIMER
 40
0.523722338
  9
$USRTIMER
 70
     1
  9
$ANGBASE
 50
0.0
  9
$ANGDIR
 70
     0
  9
$PDMODE
 70
     0
  9
$PDSIZE
 40
0.3125
  9
$PLINEWID
 40
0.0
  9
$COORDS
 70
     1
  9
$SPLFRAME
 70
     0
  9
$SPLINETYPE
 70
     6
  9
$SPLINESEGS
 70
     8
  9
$ATTDIA
 70
     1
  9
$ATTREQ
 70
     1
  9
$HANDLING
 70
     1
  9
$HANDSEED
  5
B11A
  9
$SURFTAB1
 70
     6
  9
$SURFTAB2
 70
     6
  9
$SURFTYPE
 70
     6
  9
$SURFU
 70
     6
  9
$SURFV
 70
     6
  9
$UCSNAME
  2

  9
$UCSORG
 10
0.0
 20
0.0
 30
0.0
  9
$UCSXDIR
 10
1.0
 20
0.0
 30
0.0
  9
$UCSYDIR
 10
0.0
 20
1.0
 30
0.0
  9
$PUCSNAME
  2

  9
$PUCSORG
 10
0.0
 20
0.0
 30
0.0
  9
$PUCSXDIR
 10
1.0
 20
0.0
 30
0.0
  9
$PUCSYDIR
 10
0.0
 20
1.0
 30
0.0
  9
$USERI1
 70
     0
  9
$USERI2
 70
     0
  9
$USERI3
 70
     0
  9
$USERI4
 70
     0
  9
$USERI5
 70
     0
  9
$USERR1
 40
0.0
  9
$USERR2
 40
0.0
  9
$USERR3
 40
0.0
  9
$USERR4
 40
0.0
  9
$USERR5
 40
0.0
  9
$WORLDVIEW
 70
     1
  9
$SHADEDGE
 70
     3
  9
$SHADEDIF
 70
    70
  9
$TILEMODE
 70
     1
  9
$MAXACTVP
 70
    64
  9
$PLIMCHECK
 70
     0
  9
$PEXTMIN
 10
1.0000000000000000E+20
 20
1.0000000000000000E+20
 30
1.0000000000000000E+20
  9
$PEXTMAX
 10
-1.0000000000000000E+20
 20
-1.0000000000000000E+20
 30
-1.0000000000000000E+20
  9
$PLIMMIN
 10
0.0
 20
0.0
  9
$PLIMMAX
 10
12.0
 20
9.0
  9
$UNITMODE
 70
     0
  9
$VISRETAIN
 70
     1
  9
$PLINEGEN
 70
     0
  9
$PSLTSCALE
 70
     1
  0
ENDSEC
  0
SECTION
  2
TABLES
  0
TABLE
  2
VPORT
 70
     1
  0
VPORT
  2
*ACTIVE
 70
     0
 10
0.0
 20
0.0
 11
1.0
 21
1.0
 12
124.8389709959392064
 22
-33.39147051334092
 13
0.0
 23
0.0
 14
1.0
 24
1.0
 15
0.0
 25
0.0
 16
0.0
 26
0.0
 36
96.5995694866707311
 17
3303.693115234375
 27
195.2615115758877096
 37
0.0
 40
6.748610327581499
 41
2.6486111111111108
 42
50.0
 43
0.0
 44
0.0
 50
0.0
 51
0.0
 71
     0
 72
   100
 73
     1
 74
     1
 75
     0
 76
     0
 77
     0
 78
     0
  0
ENDTAB
  0
TABLE
  2
LTYPE
 70
     2
  0
LTYPE
  2
CONTINUOUS
 70
     0
  3
Solid line
 72
    65
 73
     0
 40
0.0
  0
LTYPE
  2
PHANTOM2
 70
     0
  3
___ _ _ ___ _ _ ___ _ _ ___ _ _
 72
    65
 73
     6
 40
1.25
 49
0.625
 49
-0.125
 49
0.125
 49
-0.125
 49
0.125
 49
-0.125
  0
ENDTAB
  0
TABLE
  2
LAYER
 70
     2
  0
LAYER
  2
0
 70
     0
 62
   255
  6
CONTINUOUS
  0
LAYER
  2
DEFPOINTS
 70
     0
 62
     7
  6
CONTINUOUS
  0
ENDTAB
  0
TABLE
  2
STYLE
 70
     1
  0
STYLE
  2
STANDARD
 70
     0
 40
0.0
 41
0.8
 50
0.0
 71
     0
 42
0.2
  3
txt
  4

  0
ENDTAB
  0
TABLE
  2
VIEW
 70
     0
  0
ENDTAB
  0
TABLE
  2
UCS
 70
     0
  0
ENDTAB
  0
TABLE
  2
APPID
 70
     9
  0
APPID
  2
ACAD
 70
     0
  0
APPID
  2
ACAD_MLEADERVER
 70
     0
  0
APPID
  2
ACAD_EXEMPT_FROM_CAD_STANDARDS
 70
     0
  0
APPID
  2
ACAD_NAV_VCDISPLAY
 70
     0
  0
APPID
  2
ACAECLAYERSTANDARD
 70
     0
  0
APPID
  2
ACCMTRANSPARENCY
 70
     0
  0
APPID
  2
ACAD_DSTYLE_DIMJAG
 70
     0
  0
APPID
  2
ACAD_DSTYLE_DIMTALN
 70
     0
  0
APPID
  2
ACDBATTR
 70
     0
  0
ENDTAB
  0
TABLE
  2
DIMSTYLE
 70
     1
  0
DIMSTYLE
  2
STANDARD
 70
     0
  3

  4

  5

  6

  7

 40
1.0
 41
0.1875
 42
0.0625
 43
0.38
 44
0.125
 45
0.0
 46
0.0
 47
0.01
 48
0.01
140
0.15625
141
0.09
142
0.0
143
25.3999999999999986
144
1.0
145
0.0
146
1.0
147
0.09
 71
     1
 72
     0
 73
     1
 74
     1
 75
     0
 76
     0
 77
     0
 78
     4
170
     0
171
     2
172
     0
173
     0
174
     0
175
     0
176
     0
177
     0
178
     0
  0
ENDTAB
  0
ENDSEC
  0
SECTION
  2
BLOCKS
  0
BLOCK
  8
0
  2
$MODEL_SPACE
 70
     0
 10
0.0
 20
0.0
 30
0.0
  3
$MODEL_SPACE
  1

  0
ENDBLK
  5
21
  8
0
  0
BLOCK
 67
     1
  8
0
  2
$PAPER_SPACE
 70
     0
 10
0.0
 20
0.0
 30
0.0
  3
$PAPER_SPACE
  1

  0
ENDBLK
  5
1D
 67
     1
  8
0
  0
BLOCK
  8
0
  2
_FILLED
 70
     0
 10
0.0
 20
0.0
 30
0.0
  3
_FILLED
  1

  0
SOLID
  5
A6B0
  8
0
  6
BYBLOCK
 62
     0
 10
0.0
 20
0.0
 30
0.0
 11
-1.0
 21
0.1666666667
 31
0.0
 12
-1.0
 22
-0.1666666667
 32
0.0
 13
-1.0
 23
-0.1666666667
 33
0.0
  0
ENDBLK
  5
A6B1
  8
0
  6
BYBLOCK
 62
     0
  0
ENDSEC
  0
SECTION
  2
ENTITIES
  0
ATTDEF
  5
A842
  8
DEFPOINTS
 10
3428.5324581120557923
 20
161.8739997222533873
 30
0.0
 40
0.001
  1
K-10880A-4
  3

  2
MODELNUMBER
 70
     0
1001
ACDBATTR
1070
     0
1070
     1
  0
ATTDEF
  5
A843
  8
DEFPOINTS
 10
3428.5324581120557923
 20
161.8723330555868074
 30
0.0
 40
0.001
  1
SINGULIER
  3

  2
TRADENAME
 70
     0
1001
ACDBATTR
1070
     0
1070
     1
  0
ATTDEF
  5
A844
  8
DEFPOINTS
 10
3428.5324581120557923
 20
161.8706663889201138
 30
0.0
 40
0.001
  1
VALVE TRIM
  3

  2
PRODUCT
 70
     0
1001
ACDBATTR
1070
     0
1070
     1
  0
LINE
  5
AD78
  8
0
 10
3430.4021647114109328
 20
165.2164977655635028
 30
0.0
 11
3426.6620073828607929
 21
165.2164977655635028
 31
0.0
  0
ARC
  5
AD79
  8
0
 10
3426.6620073828607929
 20
164.8227969781634954
 30
0.0
 40
0.3937007874000002
 50
90.0
 51
180.0
  0
LINE
  5
AD7A
  8
0
 10
3426.2683065966580216
 20
164.8228276788570099
 30
0.0
 11
3426.2683065974579222
 21
158.9172851671634987
 31
0.0
  0
ARC
  5
AD7B
  8
0
 10
3426.6620073849908295
 20
158.9172851672965976
 30
0.0
 40
0.3937007875331186
 50
180.0000000193718961
 51
270.0
  0
ARC
  5
AD7C
  8
0
 10
3430.4021648286197888
 20
158.917285181470703
 30
0.0
 40
0.3937008219405073
 50
270.0000050278013077
 51
359.9999979178634248
  0
LINE
  5
AD7D
  8
0
 10
3430.7958656505611543
 20
158.9172851671634987
 30
0.0
 11
3430.7958658651677979
 21
164.8227969781634954
 31
0.0
  0
ARC
  5
AD7E
  8
0
 10
3430.4021647114109328
 20
164.8227966118058987
 30
0.0
 40
0.3937011537576076
 50
0.0000533164403376
 51
90.0
  0
LINE
  5
AD7F
  8
0
 10
3426.6620073849908295
 20
158.5235843797634914
 30
0.0
 11
3428.0099417926608112
 21
158.5235843797634914
 31
0.0
  0
LINE
  5
AD80
  8
0
 10
3428.0099417926608112
 20
158.5235843797634914
 30
0.0
 11
3428.0171308661610965
 21
158.5336737695635065
 31
0.0
  0
ARC
  5
AD81
  8
0
 10
3428.0189417720148413
 20
158.5321975783317896
 30
0.0
 40
0.0023363476976485
 50
117.4740378744964033
 51
140.8142066686542933
  0
ARC
  5
AD82
  8
0
 10
3428.051342134414881
 20
158.3926139511760027
 30
0.0
 40
0.1455587528689343
 50
88.0279374051877141
 51
103.2969566349107993
  0
LINE
  5
AD83
  8
0
 10
3428.0563511298610138
 20
158.5380864932635063
 30
0.0
 11
3428.2991596987608318
 21
158.5380864932635063
 31
0.0
  0
LINE
  5
AD84
  8
0
 10
3428.3455690359610344
 20
158.5235843797634914
 30
0.0
 11
3428.3383799624612038
 21
158.5336737695635065
 31
0.0
  0
ARC
  5
AD85
  8
0
 10
3428.3002461476357894
 20
158.2948211030746961
 30
0.0
 40
0.2432678163000518
 50
83.0150431778961462
 51
90.2558872893939963
  0
ARC
  5
AD86
  8
0
 10
3428.3256784208788304
 20
158.5024008966877034
 30
0.0
 40
0.0341358693413169
 50
71.1438624073696104
 51
83.0150431778961462
  0
ARC
  5
AD87
  8
0
 10
3428.3352852693287787
 20
158.530530456176507
 30
0.0
 40
0.0044110707016509
 50
45.4465664687684878
 51
71.1438624073701504
  0
LINE
  5
AD88
  8
0
 10
3428.3455690359610344
 20
158.5235843797634914
 30
0.0
 11
3428.7186032099612021
 21
158.5235843797634914
 31
0.0
  0
LINE
  5
AD89
  8
0
 10
3428.7186032099612021
 20
158.5235843797634914
 30
0.0
 11
3428.7265253231557836
 21
158.5342704326700982
 31
0.0
  0
ARC
  5
AD8A
  8
0
 10
3428.7600035517148171
 20
158.3926139511760027
 30
0.0
 40
0.1455587528689343
 50
88.0279374051877141
 51
103.2969566349107993
  0
LINE
  5
AD8B
  8
0
 10
3428.7650125471609499
 20
158.5380864932635063
 30
0.0
 11
3429.0078211160612227
 21
158.5380864932635063
 31
0.0
  0
LINE
  5
AD8C
  8
0
 10
3429.0542304532609705
 20
158.5235843797634914
 30
0.0
 11
3429.04704137976114
 21
158.5336737695635065
 31
0.0
  0
ARC
  5
AD8D
  8
0
 10
3429.0089075649361803
 20
158.2948211030746961
 30
0.0
 40
0.2432678163000518
 50
83.0150431778961462
 51
90.2558872893939963
  0
ARC
  5
AD8E
  8
0
 10
3429.0343398381792213
 20
158.5024008966877034
 30
0.0
 40
0.0341358693413169
 50
71.1438624073696104
 51
83.0150431778961462
  0
ARC
  5
AD8F
  8
0
 10
3429.0439466866291696
 20
158.530530456176507
 30
0.0
 40
0.0044110707016509
 50
45.4465664687684878
 51
71.1438624073701504
  0
LINE
  5
AD90
  8
0
 10
3429.0542304532609705
 20
158.5235843797634914
 30
0.0
 11
3430.4021648631678545
 21
158.5235843595301048
 31
0.0
  0
LINE
  5
AD91
  8
0
 10
3427.5868747108111165
 20
165.1099292888627872
 30
0.0
 11
3429.4775884461610076
 21
165.1099292804634899
 31
0.0
  0
ARC
  5
AD92
  8
0
 10
3429.4975985336409394
 20
165.0840339882392982
 30
0.0
 40
0.0327256743298
 50
100.740115516762998
 51
127.6943636862625056
  0
ARC
  5
AD93
  8
0
 10
3429.5505134103518685
 20
164.8319301966284911
 30
0.0
 40
0.2903173656382709
 50
89.2780893838258862
 51
101.7283749981288992
  0
LINE
  5
AD94
  8
0
 10
3429.5541712302610904
 20
165.1222245182138124
 30
0.0
 11
3430.403296489071181
 21
165.1245289494524116
 31
0.0
  0
ARC
  5
AD95
  8
0
 10
3430.404510352260786
 20
164.8226540871634995
 30
0.0
 40
0.3018773027999956
 50
0.0271212699991336
 51
90.2303897129140182
  0
LINE
  5
AD96
  8
0
 10
3430.7063876212409923
 20
164.8227969824274055
 30
0.0
 11
3430.7063866754551782
 21
158.9172851630640935
 31
0.0
  0
ARC
  5
AD97
  8
0
 10
3430.4045095913611476
 20
158.917426969263488
 30
0.0
 40
0.3018771173999999
 50
269.7697541127084264
 51
359.9730854157396038
  0
LINE
  5
AD98
  8
0
 10
3430.4032964866910334
 20
158.6155522893268994
 30
0.0
 11
3429.5538837679041535
 21
158.6178576187107012
 31
0.0
  0
ARC
  5
AD99
  8
0
 10
3429.5517988220672123
 20
158.9276495415626016
 30
0.0
 40
0.3097989387706983
 50
258.9462278200235801
 51
270.3856033182406122
  0
ARC
  5
AD9A
  8
0
 10
3429.4995158773958792
 20
158.6604581172302915
 30
0.0
 40
0.037540412971644
 50
233.8287782073402923
 51
259.0749167367122823
  0
LINE
  5
AD9B
  8
0
 10
3429.4773595152391863
 20
158.6301533614634991
 30
0.0
 11
3427.5868745489610774
 21
158.6301533614634991
 31
0.0
  0
ARC
  5
AD9C
  8
0
 10
3427.5480731951020061
 20
158.7024796736338885
 30
0.0
 40
0.0820770399894344
 50
277.2140986000071052
 51
298.2125045596598056
  0
ARC
  5
AD9D
  8
0
 10
3427.5075621050441441
 20
159.0224671600257125
 30
0.0
 40
0.4046187269920446
 50
270.3860942395265852
 51
277.2151202447133187
  0
LINE
  5
AD9E
  8
0
 10
3427.5102886545168985
 20
158.6178576196529946
 30
0.0
 11
3426.660879910084077
 21
158.6155410481586898
 31
0.0
  0
ARC
  5
AD9F
  8
0
 10
3426.6596824452949477
 20
158.9174365191252036
 30
0.0
 40
0.3018978458220551
 50
180.0287251853335988
 51
270.227261835089223
  0
LINE
  5
ADA0
  8
0
 10
3426.35778463741417
 20
158.9172851629296019
 30
0.0
 11
3426.3577846506118476
 21
164.8227969779634918
 31
0.0
  0
ARC
  5
ADA1
  8
0
 10
3426.6596679331501036
 20
164.8226686269937886
 30
0.0
 40
0.3018756714751189
 50
89.7707455652478785
 51
179.9756390420347998
  0
LINE
  5
ADA2
  8
0
 10
3426.6608758083611974
 20
165.1245418819634949
 30
0.0
 11
3427.5102886586610111
 21
165.1222239782634915
 31
0.0
  0
ARC
  5
ADA3
  8
0
 10
3427.5096588957630956
 20
164.7348668925052095
 30
0.0
 40
0.3873575976903861
 50
84.0982282530840166
 51
89.9068489368791859
  0
ARC
  5
ADA4
  8
0
 10
3427.5373159560249405
 20
165.0023823929863909
 30
0.0
 40
0.1184162361695797
 50
65.2592465508302695
 51
84.0999906341594539
  0
LINE
  5
ADA5
  8
0
 10
3428.9565446450637864
 20
159.553619644754491
 30
0.0
 11
3428.1074200192961143
 21
159.5536191988634869
 31
0.0
  0
ARC
  5
ADA6
  8
0
 10
3428.1074242606878215
 20
159.6324402694216928
 30
0.0
 40
0.0788210706722716
 50
220.8241894309605016
 51
269.9969168930081764
  0
ARC
  5
ADA7
  8
0
 10
3428.1091966960511854
 20
159.6339715008957967
 30
0.0
 40
0.081163333882698
 50
184.3321894737485138
 51
220.8241894309605016
  0
ARC
  5
ADA8
  8
0
 10
3429.4125820814651888
 20
159.7070039151786887
 30
0.0
 40
1.386578491558913
 50
179.8802086682028119
 51
183.2729462097931048
  0
LINE
  5
ADA9
  8
0
 10
3428.0260066204450595
 20
159.7099029064227977
 30
0.0
 11
3428.0249738670231636
 21
161.5711310841288082
 31
0.0
  0
ARC
  5
ADAA
  8
0
 10
3417.3606122375417726
 20
161.516428613887399
 30
0.0
 40
10.6644538381172698
 50
0.2932422939113213
 51
1.8436319697057839
  0
ARC
  5
ADAB
  8
0
 10
3427.6327568483688992
 20
161.8560867284577114
 30
0.0
 40
0.3868040621834786
 50
0.5091529733458504
 51
27.8031922405305991
  0
ARC
  5
ADAC
  8
0
 10
3427.5265352943069956
 20
161.9174338441816019
 30
0.0
 40
0.4639124447928431
 50
14.8725358728397392
 51
43.3158048094782586
  0
ARC
  5
ADAD
  8
0
 10
3428.5171306497200021
 20
162.9041558665500133
 30
0.0
 40
0.9345260090461323
 50
89.0811456726437569
 51
225.6680345039276006
  0
LINE
  5
ADAF
  8
0
 10
3427.586877502661082
 20
165.1099293152635141
 30
0.0
 11
3427.5868777930609212
 21
163.7428583068634964
 31
0.0
  0
ARC
  5
ADB0
  8
0
 10
3427.194032965227052
 20
163.7428582234134922
 30
0.0
 40
0.3928448278330094
 50
328.2184893587098031
 51
0.0000121710539422
  0
ARC
  5
ADB1
  8
0
 10
3428.5328705964489018
 20
162.9133417370919119
 30
0.0
 40
1.182142093970568
 50
148.2184893587096894
 51
211.7807927542081927
  0
ARC
  5
ADB2
  8
0
 10
3427.1939663157481846
 20
162.0838071715965043
 30
0.0
 40
0.3929110061595034
 50
359.9934761691545191
 51
31.7807927542082105
  0
LINE
  5
ADB3
  8
0
 10
3427.586877319361065
 20
162.0837624338346927
 30
0.0
 11
3427.5868745489610774
 21
158.6301533614634991
 31
0.0
  0
ARC
  5
ADB4
  8
0
 10
3428.9568098035128969
 20
159.6324402694216076
 30
0.0
 40
0.0788210706722599
 50
269.8072534598671837
 51
319.175810569042028
  0
ARC
  5
ADB5
  8
0
 10
3428.9550373681490782
 20
159.6339715008957967
 30
0.0
 40
0.081163333882698
 50
319.1758105690395269
 51
355.6678105262514009
  0
ARC
  5
ADB6
  8
0
 10
3427.6516519827350749
 20
159.7070039151786887
 30
0.0
 40
1.386578491558913
 50
356.7270537902069236
 51
0.1197913317972346
  0
LINE
  5
ADB7
  8
0
 10
3429.0382274437561136
 20
159.7099029064227977
 30
0.0
 11
3429.0392601971771001
 21
161.5711310841288082
 31
0.0
  0
ARC
  5
ADB8
  8
0
 10
3439.7036218266580363
 20
161.516428613887399
 30
0.0
 40
10.6644538381172698
 50
178.1563680302942032
 51
179.7067577060886094
  0
ARC
  5
ADB9
  8
0
 10
3429.4314772158318192
 20
161.8560867284577114
 30
0.0
 40
0.3868040621834786
 50
152.196807759469408
 51
179.4908470266541087
  0
ARC
  5
ADBA
  8
0
 10
3429.5377127013061909
 20
161.9174260919133133
 30
0.0
 40
0.4639278992801354
 50
136.6846789201125887
 51
165.1269803975706907
  0
ARC
  5
ADBB
  8
0
 10
3428.5424524161689988
 20
162.9022174223069896
 30
0.0
 40
0.9364013214914984
 50
314.6184137201806266
 51
90.6324061032697159
  0
LINE
  5
ADBC
  8
0
 10
3429.4773565615400912
 20
165.1099293152635141
 30
0.0
 11
3429.4773562711388877
 21
163.7428583068634964
 31
0.0
  0
ARC
  5
ADBD
  8
0
 10
3429.8702010989718474
 20
163.7428582234134922
 30
0.0
 40
0.3928448278330094
 50
179.99998782894599
 51
211.7815106412901969
  0
ARC
  5
ADBE
  8
0
 10
3428.5313634677509071
 20
162.9133417370919119
 30
0.0
 40
1.182142093970568
 50
328.2192072457917789
 51
31.7815106412902502
  0
ARC
  5
ADBF
  8
0
 10
3429.8702677484520791
 20
162.0838071715965043
 30
0.0
 40
0.3929110061595034
 50
148.2192072457918073
 51
180.0065238308453957
  0
LINE
  5
ADC0
  8
0
 10
3429.4773567448401081
 20
162.0837624338346927
 30
0.0
 11
3429.4773595152391863
 21
158.6301533614634991
 31
0.0
  0
ARC
  5
ADC1
  8
0
 10
3428.5320861229611182
 20
162.9133481592635064
 30
0.0
 40
0.9645669291000016
 50
89.9981639809822838
 51
230.1169580282933111
  0
ARC
  5
ADC2
  8
0
 10
3428.5321479412400549
 20
162.9133481592635064
 30
0.0
 40
0.9645669291000016
 50
309.8830419717068025
 51
90.0018360190177162
  0
ARC
  5
ADC3
  8
0
 10
3428.5320848335190931
 20
162.9132950256100116
 30
0.0
 40
1.013830712317261
 50
304.1404796010261862
 51
235.8653581084577979
  0
ARC
  5
ADC4
  8
0
 10
3428.5320861229611182
 20
162.9133481592635064
 30
0.0
 40
0.9940944882000005
 50
305.8767138876027047
 51
234.1298544791004872
  0
ENDSEC
  0
EOF
