  0
SECTION
  2
HEADER
  9
$ACADVER
  1
AC1009
  9
$INSBASE
 10
3438.1901869719731621
 20
161.8704378395522951
 30
0.0
  9
$EXTMIN
 10
3435.5361468065939334
 20
158.5239811466522895
 30
0.0
  9
$EXTMAX
 10
3438.201184582786027
 20
165.2168945324523008
 30
0.0
  9
$LIMMIN
 10
0.0
 20
0.0
  9
$LIMMAX
 10
11.6929133858000007
 20
8.2677165353999982
  9
$ORTHOMODE
 70
     0
  9
$REGENMODE
 70
     1
  9
$FILLMODE
 70
     1
  9
$QTEXTMODE
 70
     0
  9
$MIRRTEXT
 70
     0
  9
$DRAGMODE
 70
     2
  9
$LTSCALE
 40
0.6431102362
  9
$OSMODE
 70
  4095
  9
$ATTMODE
 70
     1
  9
$TEXTSIZE
 40
0.2
  9
$TRACEWID
 40
0.05
  9
$TEXTSTYLE
  7
STANDARD
  9
$CLAYER
  8
0
  9
$CELTYPE
  6
BYLAYER
  9
$CECOLOR
 62
   256
  9
$DIMSCALE
 40
1.0
  9
$DIMASZ
 40
0.1875
  9
$DIMEXO
 40
0.0625
  9
$DIMDLI
 40
0.4443307087
  9
$DIMRND
 40
0.0
  9
$DIMDLE
 40
0.0
  9
$DIMEXE
 40
0.125
  9
$DIMTP
 40
0.01
  9
$DIMTM
 40
0.01
  9
$DIMTXT
 40
2.0
  9
$DIMCEN
 40
0.1052362205
  9
$DIMTSZ
 40
0.0
  9
$DIMTOL
 70
     1
  9
$DIMLIM
 70
     0
  9
$DIMTIH
 70
     1
  9
$DIMTOH
 70
     1
  9
$DIMSE1
 70
     0
  9
$DIMSE2
 70
     0
  9
$DIMTAD
 70
     0
  9
$DIMZIN
 70
     0
  9
$DIMBLK
  1

  9
$DIMASO
 70
     1
  9
$DIMSHO
 70
     1
  9
$DIMPOST
  1
\X
  9
$DIMAPOST
  1

  9
$DIMALT
 70
     1
  9
$DIMALTD
 70
     2
  9
$DIMALTF
 40
25.3999999999999986
  9
$DIMLFAC
 40
1.0
  9
$DIMTOFL
 70
     0
  9
$DIMTVP
 40
0.0
  9
$DIMTIX
 70
     0
  9
$DIMSOXD
 70
     0
  9
$DIMSAH
 70
     0
  9
$DIMBLK1
  1

  9
$DIMBLK2
  1

  9
$DIMSTYLE
  2
STANDARD
  9
$DIMCLRD
 70
     0
  9
$DIMCLRE
 70
     0
  9
$DIMCLRT
 70
     0
  9
$DIMTFAC
 40
1.0
  9
$DIMGAP
 40
0.09
  9
$LUNITS
 70
     2
  9
$LUPREC
 70
     4
  9
$SKETCHINC
 40
0.1
  9
$FILLETRAD
 40
0.0
  9
$AUNITS
 70
     0
  9
$AUPREC
 70
     0
  9
$MENU
  1
.
  9
$ELEVATION
 40
0.0
  9
$PELEVATION
 40
0.0
  9
$THICKNESS
 40
0.0
  9
$LIMCHECK
 70
     0
  9
$BLIPMODE
 70
     0
  9
$CHAMFERA
 40
0.0
  9
$CHAMFERB
 40
0.0
  9
$SKPOLY
 70
     0
  9
$TDCREATE
 40
2458060.468368056230247
  9
$TDUPDATE
 40
2459068.9079629629850388
  9
$TDINDWG
 40
0.5227038194
  9
$TDUSRTIMER
 40
0.5227038194
  9
$USRTIMER
 70
     1
  9
$ANGBASE
 50
0.0
  9
$ANGDIR
 70
     0
  9
$PDMODE
 70
     0
  9
$PDSIZE
 40
0.3125
  9
$PLINEWID
 40
0.0
  9
$COORDS
 70
     1
  9
$SPLFRAME
 70
     0
  9
$SPLINETYPE
 70
     6
  9
$SPLINESEGS
 70
     8
  9
$ATTDIA
 70
     1
  9
$ATTREQ
 70
     1
  9
$HANDLING
 70
     1
  9
$HANDSEED
  5
B3ED
  9
$SURFTAB1
 70
     6
  9
$SURFTAB2
 70
     6
  9
$SURFTYPE
 70
     6
  9
$SURFU
 70
     6
  9
$SURFV
 70
     6
  9
$UCSNAME
  2

  9
$UCSORG
 10
0.0
 20
0.0
 30
0.0
  9
$UCSXDIR
 10
1.0
 20
0.0
 30
0.0
  9
$UCSYDIR
 10
0.0
 20
1.0
 30
0.0
  9
$PUCSNAME
  2

  9
$PUCSORG
 10
0.0
 20
0.0
 30
0.0
  9
$PUCSXDIR
 10
1.0
 20
0.0
 30
0.0
  9
$PUCSYDIR
 10
0.0
 20
1.0
 30
0.0
  9
$USERI1
 70
     0
  9
$USERI2
 70
     0
  9
$USERI3
 70
     0
  9
$USERI4
 70
     0
  9
$USERI5
 70
     0
  9
$USERR1
 40
0.0
  9
$USERR2
 40
0.0
  9
$USERR3
 40
0.0
  9
$USERR4
 40
0.0
  9
$USERR5
 40
0.0
  9
$WORLDVIEW
 70
     1
  9
$SHADEDGE
 70
     3
  9
$SHADEDIF
 70
    70
  9
$TILEMODE
 70
     1
  9
$MAXACTVP
 70
    64
  9
$PLIMCHECK
 70
     0
  9
$PEXTMIN
 10
1.0000000000000000E+20
 20
1.0000000000000000E+20
 30
1.0000000000000000E+20
  9
$PEXTMAX
 10
-1.0000000000000000E+20
 20
-1.0000000000000000E+20
 30
-1.0000000000000000E+20
  9
$PLIMMIN
 10
0.0
 20
0.0
  9
$PLIMMAX
 10
12.0
 20
9.0
  9
$UNITMODE
 70
     0
  9
$VISRETAIN
 70
     1
  9
$PLINEGEN
 70
     0
  9
$PSLTSCALE
 70
     1
  0
ENDSEC
  0
SECTION
  2
TABLES
  0
TABLE
  2
VPORT
 70
     1
  0
VPORT
  2
*ACTIVE
 70
     0
 10
0.0
 20
0.0
 11
1.0
 21
1.0
 12
133.1755504603144971
 22
-33.3910737363354713
 13
0.0
 23
0.0
 14
1.0
 24
1.0
 15
0.0
 25
0.0
 16
0.0
 26
0.0
 36
96.5995694866707311
 17
3303.693115234375
 27
195.2615115758877096
 37
0.0
 40
6.7486103071797601
 41
2.6486111111111108
 42
50.0
 43
0.0
 44
0.0
 50
0.0
 51
0.0
 71
     0
 72
   100
 73
     1
 74
     1
 75
     0
 76
     0
 77
     0
 78
     0
  0
ENDTAB
  0
TABLE
  2
LTYPE
 70
     2
  0
LTYPE
  2
CONTINUOUS
 70
     0
  3
Solid line
 72
    65
 73
     0
 40
0.0
  0
LTYPE
  2
PHANTOM2
 70
     0
  3
___ _ _ ___ _ _ ___ _ _ ___ _ _
 72
    65
 73
     6
 40
1.25
 49
0.625
 49
-0.125
 49
0.125
 49
-0.125
 49
0.125
 49
-0.125
  0
ENDTAB
  0
TABLE
  2
LAYER
 70
     2
  0
LAYER
  2
0
 70
     0
 62
   255
  6
CONTINUOUS
  0
LAYER
  2
DEFPOINTS
 70
     0
 62
     7
  6
CONTINUOUS
  0
ENDTAB
  0
TABLE
  2
STYLE
 70
     1
  0
STYLE
  2
STANDARD
 70
     0
 40
0.0
 41
0.8
 50
0.0
 71
     0
 42
0.2
  3
txt
  4

  0
ENDTAB
  0
TABLE
  2
VIEW
 70
     0
  0
ENDTAB
  0
TABLE
  2
UCS
 70
     0
  0
ENDTAB
  0
TABLE
  2
APPID
 70
     9
  0
APPID
  2
ACAD
 70
     0
  0
APPID
  2
ACAD_MLEADERVER
 70
     0
  0
APPID
  2
ACAD_EXEMPT_FROM_CAD_STANDARDS
 70
     0
  0
APPID
  2
ACAD_NAV_VCDISPLAY
 70
     0
  0
APPID
  2
ACAECLAYERSTANDARD
 70
     0
  0
APPID
  2
ACCMTRANSPARENCY
 70
     0
  0
APPID
  2
ACAD_DSTYLE_DIMJAG
 70
     0
  0
APPID
  2
ACAD_DSTYLE_DIMTALN
 70
     0
  0
APPID
  2
ACDBATTR
 70
     0
  0
ENDTAB
  0
TABLE
  2
DIMSTYLE
 70
     1
  0
DIMSTYLE
  2
STANDARD
 70
     0
  3

  4

  5

  6

  7

 40
1.0
 41
0.1875
 42
0.0625
 43
0.38
 44
0.125
 45
0.0
 46
0.0
 47
0.01
 48
0.01
140
0.15625
141
0.09
142
0.0
143
25.3999999999999986
144
1.0
145
0.0
146
1.0
147
0.09
 71
     1
 72
     0
 73
     1
 74
     1
 75
     0
 76
     0
 77
     0
 78
     4
170
     0
171
     2
172
     0
173
     0
174
     0
175
     0
176
     0
177
     0
178
     0
  0
ENDTAB
  0
ENDSEC
  0
SECTION
  2
BLOCKS
  0
BLOCK
  8
0
  2
$MODEL_SPACE
 70
     0
 10
0.0
 20
0.0
 30
0.0
  3
$MODEL_SPACE
  1

  0
ENDBLK
  5
21
  8
0
  0
BLOCK
 67
     1
  8
0
  2
$PAPER_SPACE
 70
     0
 10
0.0
 20
0.0
 30
0.0
  3
$PAPER_SPACE
  1

  0
ENDBLK
  5
1D
 67
     1
  8
0
  0
BLOCK
  8
0
  2
_FILLED
 70
     0
 10
0.0
 20
0.0
 30
0.0
  3
_FILLED
  1

  0
SOLID
  5
A6B0
  8
0
  6
BYBLOCK
 62
     0
 10
0.0
 20
0.0
 30
0.0
 11
-1.0
 21
0.1666666667
 31
0.0
 12
-1.0
 22
-0.1666666667
 32
0.0
 13
-1.0
 23
-0.1666666667
 33
0.0
  0
ENDBLK
  5
A6B1
  8
0
  6
BYBLOCK
 62
     0
  0
ENDSEC
  0
SECTION
  2
ENTITIES
  0
ATTDEF
  5
A848
  8
DEFPOINTS
 10
3438.1905179161171873
 20
161.8742987452237969
 30
0.0
 40
0.001
  1
K-10880IN-4FP
  3

  2
MODELNUMBER
 70
     0
1001
ACDBATTR
1070
     0
1070
     1
  0
ATTDEF
  5
A849
  8
DEFPOINTS
 10
3438.1905179161171873
 20
161.8726320785571033
 30
0.0
 40
0.001
  1
SINGULIER
  3

  2
TRADENAME
 70
     0
1001
ACDBATTR
1070
     0
1070
     1
  0
ATTDEF
  5
A84A
  8
DEFPOINTS
 10
3438.1905179161171873
 20
161.870965411890495
 30
0.0
 40
0.001
  1
VALVE TRIM
  3

  2
PRODUCT
 70
     0
1001
ACDBATTR
1070
     0
1070
     1
  0
LINE
  5
AE9E
  8
0
 10
3438.1901869719731621
 20
165.2168945324523008
 30
0.0
 11
3438.1901869719731621
 21
158.5239811466522895
 31
0.0
  0
LINE
  5
AE9F
  8
0
 10
3438.1901869719731621
 20
158.5239811466522895
 30
0.0
 11
3437.640521988646924
 21
158.591471416311208
 31
0.0
  0
ARC
  5
AEA0
  8
0
 10
3437.6455312071420849
 20
158.6465999051908966
 30
0.0
 40
0.0553556009459523
 50
233.625629287939887
 51
264.8081092413009969
  0
ARC
  5
AEA1
  8
0
 10
3437.6390058714728184
 20
158.6313234143522948
 30
0.0
 40
0.0393700786999922
 50
179.9999999999951115
 51
228.0781570383049086
  0
LINE
  5
AEA2
  8
0
 10
3437.5996357927738245
 20
158.6313234143522948
 30
0.0
 11
3437.5996357908729806
 21
165.1095640456522915
 31
0.0
  0
ARC
  5
AEA3
  8
0
 10
3437.639005913514211
 20
165.1095522434872009
 30
0.0
 40
0.0393701244102609
 50
138.5000221648217007
 51
179.9828241777229891
  0
ARC
  5
AEA4
  8
0
 10
3437.6390058490587762
 20
165.1095523005122061
 30
0.0
 40
0.0393700383503425
 50
105.9474152288572952
 51
138.5000221648193133
  0
ARC
  5
AEA5
  8
0
 10
3437.6473193938059012
 20
165.0683299223180995
 30
0.0
 40
0.0813584090962623
 50
94.7977201079032454
 51
103.5999072676779065
  0
LINE
  5
AEA6
  8
0
 10
3437.6405147236309858
 20
165.1494032668553871
 30
0.0
 11
3438.1901869719731621
 21
165.2168945324523008
 31
0.0
  0
ARC
  5
AEA7
  8
0
 10
3437.7641992724670672
 20
165.125170683310813
 30
0.0
 40
0.0391219292821154
 50
96.8781770702716187
 51
180.3671399734583076
  0
ARC
  5
AEA8
  8
0
 10
3434.2917790178848918
 20
164.8680789333041048
 30
0.0
 40
3.442892713810656
 50
359.253010483682317
 51
4.2782607973938163
  0
LINE
  5
AEA9
  8
0
 10
3437.7343791338730625
 20
164.8231937440523041
 30
0.0
 11
3437.7343790825730139
 21
158.9176819356522969
 31
0.0
  0
ARC
  5
AEAA
  8
0
 10
3433.6271024400189162
 20
158.8948872708475903
 30
0.0
 40
4.107339895263098
 50
356.1056329840774879
 51
0.3179782599845162
  0
ARC
  5
AEAB
  8
0
 10
3437.7643218552639155
 20
158.6159298683107011
 30
0.0
 40
0.0393635285256313
 50
180.0023850119312954
 51
263.0001944936122982
  0
LINE
  5
AEAC
  8
0
 10
3437.5996357912331405
 20
163.8783118553523082
 30
0.0
 11
3436.804360200273095
 21
163.8783118552522922
 31
0.0
  0
ARC
  5
AEAD
  8
0
 10
3436.8043602002740045
 20
163.8665008316507965
 30
0.0
 40
0.0118110236014852
 50
90.0000000072172668
 51
179.9999999927956935
  0
LINE
  5
AEAE
  8
0
 10
3436.7925491766732193
 20
163.8665008316523028
 30
0.0
 11
3436.7925491764331127
 21
161.9609897979522941
 31
0.0
  0
ARC
  5
AEAF
  8
0
 10
3436.8043609773571916
 20
161.9609897979507878
 30
0.0
 40
0.0118118009240789
 50
179.9999999927842964
 51
269.9962305781193095
  0
LINE
  5
AEB0
  8
0
 10
3436.804360200273095
 20
161.9491779970522884
 30
0.0
 11
3437.5996357900789917
 21
161.9491779970522884
 31
0.0
  0
LINE
  5
AEB1
  8
0
 10
3436.7925491766732193
 20
163.8586268159523058
 30
0.0
 11
3436.7682839598728606
 21
163.8586268159523058
 31
0.0
  0
ARC
  5
AEB2
  8
0
 10
3436.7682839598728606
 20
163.8389449816147021
 30
0.0
 40
0.0196818343375623
 50
90.0
 51
165.0348837030421123
  0
ARC
  5
AEB3
  8
0
 10
3386.3647286703771897
 20
177.3116515440158025
 30
0.0
 40
52.1534166737814928
 50
344.9610592236733737
 51
345.0348837030419986
  0
ARC
  5
AEB4
  8
0
 10
3436.6557629833378087
 20
163.7995687807701017
 30
0.0
 40
0.078811414900289
 50
274.0799621812298028
 51
344.9610592236750222
  0
ARC
  5
AEB5
  8
0
 10
3436.6679305974148519
 20
162.9112157011693967
 30
0.0
 40
0.8097679687453379
 50
90.4641837454280591
 51
117.1374268173686062
  0
LINE
  5
AEB6
  8
0
 10
3436.1975455836732181
 20
163.8389584713522993
 30
0.0
 11
3436.6488484649730708
 21
162.9137447709522917
 31
0.0
  0
LINE
  5
AEB7
  8
0
 10
3436.6488484649730708
 20
162.9137447709522917
 30
0.0
 11
3436.6488484649730708
 21
161.9737044195522913
 31
0.0
  0
ARC
  5
AEB8
  8
0
 10
3436.6582130448291537
 20
160.5601853281289095
 30
0.0
 40
1.4135501113064119
 50
90.3795796294479459
 51
102.2550380485031951
  0
ARC
  5
AEB9
  8
0
 10
3436.4960015165529512
 20
161.270168270837587
 30
0.0
 40
0.6853588594189427
 50
101.6019775821215063
 51
129.3566412983433906
  0
ARC
  5
AEBA
  8
0
 10
3436.363916903379959
 20
161.4532561136190907
 30
0.0
 40
0.4602441730508108
 50
131.0966201794483084
 51
181.4887172650763034
  0
LINE
  5
AEBB
  8
0
 10
3435.9038280809731987
 20
161.4412989265522924
 30
0.0
 11
3435.9038356755731911
 21
160.0391148783523079
 31
0.0
  0
ARC
  5
AEBC
  8
0
 10
3433.9054432912680568
 20
159.9779635420512136
 30
0.0
 40
1.9993277889280101
 50
352.5937758257579162
 51
1.7527190981907641
  0
ARC
  5
AEBD
  8
0
 10
3435.6890416245892084
 20
159.7400684203728076
 30
0.0
 40
0.2000342144403087
 50
304.3203621834745718
 51
354.3122259431930274
  0
ARC
  5
AEBE
  8
0
 10
3435.7203126652561878
 20
159.7238154852308867
 30
0.0
 40
0.1697992965360905
 50
241.3120000301256027
 51
298.6886743421953838
  0
ARC
  5
AEBF
  8
0
 10
3435.7758988165960545
 20
159.7565722981491092
 30
0.0
 40
0.2276290191601704
 50
183.6231095569268064
 51
232.9665831269390139
  0
ARC
  5
AEC0
  8
0
 10
3437.8742296893951789
 20
159.9843826161217066
 30
0.0
 40
2.3380828828009519
 50
178.6586754198640961
 51
185.9457612232781969
  0
LINE
  5
AEC1
  8
0
 10
3435.5367874739167746
 20
160.0391133766576104
 30
0.0
 11
3435.5367673456730699
 21
163.7431824610522995
 31
0.0
  0
ARC
  5
AEC2
  8
0
 10
3435.6154992076908457
 20
163.7431921526481062
 30
0.0
 40
0.0787318626146482
 50
91.6656255229901404
 51
180.0070528947148887
  0
LINE
  5
AEC3
  8
0
 10
3435.6132107436728802
 20
163.821890749352292
 30
0.0
 11
3435.6961140877979233
 21
163.8243014825540911
 31
0.0
  0
ARC
  5
AEC4
  8
0
 10
3435.8669613205379392
 20
164.7193390459067075
 30
0.0
 40
0.9111975728386189
 50
259.1932251384404253
 51
284.1572096791992976
  0
LINE
  5
AEC5
  8
0
 10
3436.0898250341729181
 20
163.8358161079522972
 30
0.0
 11
3436.1975455836732181
 21
163.8389584713522993
 31
0.0
  0
LINE
  5
AEC6
  8
0
 10
3436.6488484649730708
 20
162.106862150340703
 30
0.0
 11
3436.6568113521529995
 21
162.1067224550905905
 31
0.0
  0
ARC
  5
AEC7
  8
0
 10
3436.6554211295360801
 20
162.0274771991317948
 30
0.0
 40
0.0792574495609074
 50
15.2827021093161903
 51
88.9949465433728051
  0
ARC
  5
AEC8
  8
0
 10
3430.1624231486439385
 20
160.2533007569388985
 30
0.0
 40
6.8102844757957204
 50
14.7172977466513597
 51
15.2827021093161903
  0
ARC
  5
AEC9
  8
0
 10
3436.7681874520221754
 20
161.988422304271694
 30
0.0
 40
0.0195595060088698
 50
194.7172977466466079
 51
270.2827021813283181
  0
LINE
  5
AECA
  8
0
 10
3436.7682839598728606
 20
161.9688630363523032
 30
0.0
 11
3436.7925488813029915
 21
161.9688630364522908
 31
0.0
  0
LINE
  5
AECB
  8
0
 10
3436.7492696698727741
 20
163.844027439552292
 30
0.0
 11
3436.7492696698727741
 21
161.9834532203101958
 31
0.0
  0
ENDSEC
  0
EOF
