  0
SECTION
  2
HEADER
  9
$ACADVER
  1
AC1009
  9
$INSBASE
 10
690.1854871750872462
 20
133.3879599136037939
 30
0.0
  9
$EXTMIN
 10
674.3466306322900436
 20
125.0902268602289951
 30
-0.0000000000112498
  9
$EXTMAX
 10
706.0423961152505399
 20
133.7534720674497919
 30
0.0000000000002956
  9
$LIMMIN
 10
0.0
 20
0.0
  9
$LIMMAX
 10
11.6929133858000007
 20
8.2677165353999982
  9
$ORTHOMODE
 70
     0
  9
$REGENMODE
 70
     1
  9
$FILLMODE
 70
     1
  9
$QTEXTMODE
 70
     0
  9
$MIRRTEXT
 70
     0
  9
$DRAGMODE
 70
     2
  9
$LTSCALE
 40
0.6431102362
  9
$OSMODE
 70
  4095
  9
$ATTMODE
 70
     1
  9
$TEXTSIZE
 40
0.2
  9
$TRACEWID
 40
0.05
  9
$TEXTSTYLE
  7
STANDARD
  9
$CLAYER
  8
0
  9
$CELTYPE
  6
BYLAYER
  9
$CECOLOR
 62
   256
  9
$DIMSCALE
 40
1.0
  9
$DIMASZ
 40
0.1875
  9
$DIMEXO
 40
0.0625
  9
$DIMDLI
 40
0.4443307087
  9
$DIMRND
 40
0.0
  9
$DIMDLE
 40
0.0
  9
$DIMEXE
 40
0.125
  9
$DIMTP
 40
0.01
  9
$DIMTM
 40
0.01
  9
$DIMTXT
 40
1.0
  9
$DIMCEN
 40
0.1052362205
  9
$DIMTSZ
 40
0.0
  9
$DIMTOL
 70
     1
  9
$DIMLIM
 70
     0
  9
$DIMTIH
 70
     0
  9
$DIMTOH
 70
     1
  9
$DIMSE1
 70
     0
  9
$DIMSE2
 70
     0
  9
$DIMTAD
 70
     0
  9
$DIMZIN
 70
     0
  9
$DIMBLK
  1

  9
$DIMASO
 70
     1
  9
$DIMSHO
 70
     1
  9
$DIMPOST
  1
\X
  9
$DIMAPOST
  1

  9
$DIMALT
 70
     1
  9
$DIMALTD
 70
     2
  9
$DIMALTF
 40
25.3999999999999986
  9
$DIMLFAC
 40
1.0
  9
$DIMTOFL
 70
     0
  9
$DIMTVP
 40
0.0
  9
$DIMTIX
 70
     0
  9
$DIMSOXD
 70
     0
  9
$DIMSAH
 70
     0
  9
$DIMBLK1
  1

  9
$DIMBLK2
  1

  9
$DIMSTYLE
  2
STANDARD
  9
$DIMCLRD
 70
     0
  9
$DIMCLRE
 70
     0
  9
$DIMCLRT
 70
     0
  9
$DIMTFAC
 40
1.0
  9
$DIMGAP
 40
0.09
  9
$LUNITS
 70
     2
  9
$LUPREC
 70
     4
  9
$SKETCHINC
 40
0.1
  9
$FILLETRAD
 40
0.0
  9
$AUNITS
 70
     0
  9
$AUPREC
 70
     0
  9
$MENU
  1
.
  9
$ELEVATION
 40
0.0
  9
$PELEVATION
 40
0.0
  9
$THICKNESS
 40
0.0
  9
$LIMCHECK
 70
     0
  9
$BLIPMODE
 70
     0
  9
$CHAMFERA
 40
0.0
  9
$CHAMFERB
 40
0.0
  9
$SKPOLY
 70
     0
  9
$TDCREATE
 40
2458172.5207638889551163
  9
$TDUPDATE
 40
2459115.6256134258583188
  9
$TDINDWG
 40
0.3963433102
  9
$TDUSRTIMER
 40
0.3963433102
  9
$USRTIMER
 70
     1
  9
$ANGBASE
 50
0.0
  9
$ANGDIR
 70
     0
  9
$PDMODE
 70
     0
  9
$PDSIZE
 40
0.3125
  9
$PLINEWID
 40
0.0
  9
$COORDS
 70
     1
  9
$SPLFRAME
 70
     0
  9
$SPLINETYPE
 70
     6
  9
$SPLINESEGS
 70
     8
  9
$ATTDIA
 70
     1
  9
$ATTREQ
 70
     1
  9
$HANDLING
 70
     1
  9
$HANDSEED
  5
A956
  9
$SURFTAB1
 70
     6
  9
$SURFTAB2
 70
     6
  9
$SURFTYPE
 70
     6
  9
$SURFU
 70
     6
  9
$SURFV
 70
     6
  9
$UCSNAME
  2

  9
$UCSORG
 10
0.0
 20
0.0
 30
0.0
  9
$UCSXDIR
 10
1.0
 20
0.0
 30
0.0
  9
$UCSYDIR
 10
0.0
 20
1.0
 30
0.0
  9
$PUCSNAME
  2

  9
$PUCSORG
 10
0.0
 20
0.0
 30
0.0
  9
$PUCSXDIR
 10
1.0
 20
0.0
 30
0.0
  9
$PUCSYDIR
 10
0.0
 20
1.0
 30
0.0
  9
$USERI1
 70
     0
  9
$USERI2
 70
     0
  9
$USERI3
 70
     0
  9
$USERI4
 70
     0
  9
$USERI5
 70
     0
  9
$USERR1
 40
0.0
  9
$USERR2
 40
0.0
  9
$USERR3
 40
0.0
  9
$USERR4
 40
0.0
  9
$USERR5
 40
0.0
  9
$WORLDVIEW
 70
     1
  9
$SHADEDGE
 70
     3
  9
$SHADEDIF
 70
    70
  9
$TILEMODE
 70
     1
  9
$MAXACTVP
 70
    64
  9
$PLIMCHECK
 70
     0
  9
$PEXTMIN
 10
1.0000000000000000E+20
 20
1.0000000000000000E+20
 30
1.0000000000000000E+20
  9
$PEXTMAX
 10
-1.0000000000000000E+20
 20
-1.0000000000000000E+20
 30
-1.0000000000000000E+20
  9
$PLIMMIN
 10
0.0
 20
0.0
  9
$PLIMMAX
 10
12.0
 20
9.0
  9
$UNITMODE
 70
     0
  9
$VISRETAIN
 70
     1
  9
$PLINEGEN
 70
     0
  9
$PSLTSCALE
 70
     1
  0
ENDSEC
  0
SECTION
  2
TABLES
  0
TABLE
  2
VPORT
 70
     1
  0
VPORT
  2
*ACTIVE
 70
     0
 10
0.0
 20
0.0
 11
1.0
 21
1.0
 12
223.4523116659401865
 22
40.2887023439096197
 13
0.0
 23
0.0
 14
1.0
 24
1.0
 15
0.0
 25
0.0
 16
0.0
 26
0.0
 36
24.1179433675886514
 17
466.74220170783002
 27
89.133147119929788
 37
0.0
 40
12.3247660178519798
 41
2.5847619047619039
 42
50.0
 43
0.0
 44
0.0
 50
0.0
 51
0.0
 71
     0
 72
   100
 73
     1
 74
     1
 75
     0
 76
     0
 77
     0
 78
     0
  0
ENDTAB
  0
TABLE
  2
LTYPE
 70
     2
  0
LTYPE
  2
CONTINUOUS
 70
     0
  3
Solid line
 72
    65
 73
     0
 40
0.0
  0
LTYPE
  2
PHANTOM2
 70
     0
  3
___ _ _ ___ _ _ ___ _ _ ___ _ _
 72
    65
 73
     6
 40
1.25
 49
0.625
 49
-0.125
 49
0.125
 49
-0.125
 49
0.125
 49
-0.125
  0
ENDTAB
  0
TABLE
  2
LAYER
 70
     2
  0
LAYER
  2
0
 70
     0
 62
   255
  6
CONTINUOUS
  0
LAYER
  2
DEFPOINTS
 70
     0
 62
     7
  6
CONTINUOUS
  0
ENDTAB
  0
TABLE
  2
STYLE
 70
     1
  0
STYLE
  2
STANDARD
 70
     0
 40
0.0
 41
0.8
 50
0.0
 71
     0
 42
0.2
  3
txt
  4

  0
ENDTAB
  0
TABLE
  2
VIEW
 70
     0
  0
ENDTAB
  0
TABLE
  2
UCS
 70
     0
  0
ENDTAB
  0
TABLE
  2
APPID
 70
    11
  0
APPID
  2
ACAD
 70
     0
  0
APPID
  2
ACAD_MLEADERVER
 70
     0
  0
APPID
  2
ACAD_EXEMPT_FROM_CAD_STANDARDS
 70
     0
  0
APPID
  2
ACAD_DSTYLE_DIMJAG
 70
     0
  0
APPID
  2
ACAD_DSTYLE_DIMTALN
 70
     0
  0
APPID
  2
ACAD_NAV_VCDISPLAY
 70
     0
  0
APPID
  2
ACAECLAYERSTANDARD
 70
     0
  0
APPID
  2
ACCMTRANSPARENCY
 70
     0
  0
APPID
  2
DCO15
 70
     0
  0
APPID
  2
ACDBATTR
 70
     0
  0
APPID
  2
ACADANNOTATIVE
 70
     0
  0
ENDTAB
  0
TABLE
  2
DIMSTYLE
 70
     1
  0
DIMSTYLE
  2
STANDARD
 70
     0
  3

  4

  5

  6

  7

 40
1.0
 41
0.1875
 42
0.0625
 43
0.38
 44
0.125
 45
0.0
 46
0.0
 47
0.01
 48
0.01
140
0.15625
141
0.09
142
0.0
143
25.3999999999999986
144
1.0
145
0.0
146
1.0
147
0.09
 71
     1
 72
     0
 73
     1
 74
     1
 75
     0
 76
     0
 77
     0
 78
     4
170
     0
171
     2
172
     0
173
     0
174
     0
175
     0
176
     0
177
     0
178
     0
  0
ENDTAB
  0
ENDSEC
  0
SECTION
  2
BLOCKS
  0
BLOCK
  8
0
  2
$MODEL_SPACE
 70
     0
 10
0.0
 20
0.0
 30
0.0
  3
$MODEL_SPACE
  1

  0
ENDBLK
  5
21
  8
0
  0
BLOCK
 67
     1
  8
0
  2
$PAPER_SPACE
 70
     0
 10
0.0
 20
0.0
 30
0.0
  3
$PAPER_SPACE
  1

  0
ENDBLK
  5
1D
 67
     1
  8
0
  0
ENDSEC
  0
SECTION
  2
ENTITIES
  0
ATTDEF
  5
829
  8
DEFPOINTS
 10
690.1814689496444544
 20
133.3933406255752914
 30
0.0
 40
0.001
  1
K-11021T-1S
  3

  2
MODELNUMBER
 70
     0
1001
ACDBATTR
1070
     0
1070
     1
  0
ATTDEF
  5
82A
  8
DEFPOINTS
 10
690.1814689496444544
 20
133.3916739589087115
 30
0.0
 40
0.001
  1
HARTLAND
  3

  2
TRADENAME
 70
     0
1001
ACDBATTR
1070
     0
1070
     1
  0
ATTDEF
  5
82B
  8
DEFPOINTS
 10
690.1814689496444544
 20
133.3900072922419895
 30
0.0
 40
0.001
  1
KITCHEN SINK
  3

  2
PRODUCT
 70
     0
1001
ACDBATTR
1070
     0
1070
     1
  0
LINE
  5
A7AA
  8
0
 10
705.5580498472598947
 20
133.7460975976038071
 30
0.0
 11
674.8129245029149388
 21
133.7460975976038071
 31
0.0
  0
LINE
  5
A7AB
  8
0
 10
706.0156702213351991
 20
133.3879599136037939
 30
0.0
 11
674.3553041288396344
 21
133.3879599136037939
 31
0.0
  0
LINE
  5
A7AC
  8
0
 10
675.7567762357402898
 20
132.8770512833052067
 30
0.0
 11
676.2414550320377202
 21
127.3371472923906964
 31
0.0
  0
ARC
  5
A7AD
  8
0
 10
674.721771634431434
 20
133.3204678787435
 30
0.0
 40
0.3726306581915045
 50
150.3500531169140118
 51
169.5648136409515985
  0
ARC
  5
A7AE
  8
0
 10
674.8129245029149388
 20
133.2685806855405133
 30
0.0
 40
0.4775169120633411
 50
90.0000000092951637
 51
150.3500531028105058
  0
LINE
  5
A7AF
  8
0
 10
675.5236346444047513
 20
133.1609461044459124
 30
0.0
 11
675.3192304926374163
 21
133.3879599136037939
 31
0.0
  0
ARC
  5
A7B0
  8
0
 10
675.8467848441081287
 20
133.5314446616536941
 30
0.0
 40
0.4916250934008565
 50
228.9049437113528995
 51
241.0854953424554878
  0
ARC
  5
A7B1
  8
0
 10
675.4790939638814962
 20
132.8547113326598037
 30
0.0
 40
0.2785794635280341
 50
4.5996239179910479
 51
62.1854805069115173
  0
LINE
  5
A7B2
  8
0
 10
678.4294301594686658
 20
125.0970725290037961
 30
0.0
 11
677.9890969194061654
 21
125.0970725290037961
 31
0.0
  0
LINE
  5
A7B3
  8
0
 10
677.8904736442955254
 20
125.1874441104672968
 30
0.0
 11
677.8411970302913687
 21
125.7506783855402972
 31
0.0
  0
LINE
  5
A7B4
  8
0
 10
678.5280534345801016
 20
125.1874441104767044
 30
0.0
 11
678.5762077066200391
 21
125.7378499588117933
 31
0.0
  0
ARC
  5
A7B5
  8
0
 10
678.4294301594686658
 20
125.1960725290037999
 30
0.0
 40
0.099
 50
270.0
 51
355.0000000028740033
  0
ARC
  5
A7B6
  8
0
 10
677.9890969194061654
 20
125.1960725290037999
 30
0.0
 40
0.099
 50
185.0000000026244038
 51
270.0
  0
LINE
  5
A7B7
  8
0
 10
687.1227346572343322
 20
125.0970725290037961
 30
0.0
 11
686.6824014180061795
 21
125.0970725290037961
 31
0.0
  0
LINE
  5
A7B8
  8
0
 10
686.5837781428957669
 20
125.1874441104643978
 30
0.0
 11
686.5308154243691661
 21
125.7928107527968962
 31
0.0
  0
LINE
  5
A7B9
  8
0
 10
687.2213579161366397
 20
125.1874439252054003
 30
0.0
 11
687.2764831485388868
 21
125.817514582551695
 31
0.0
  0
ARC
  5
A7BA
  8
0
 10
687.1227346572343322
 20
125.1960725290037999
 30
0.0
 40
0.099
 50
270.0
 51
354.9998923683695011
  0
ARC
  5
A7BB
  8
0
 10
686.6824014180061795
 20
125.1960725290037999
 30
0.0
 40
0.099
 50
185.0000000043044963
 51
270.0
  0
LINE
  5
A7BC
  8
0
 10
688.7758959351124304
 20
127.4114878150351018
 30
0.0
 11
689.1111197119372491
 21
131.2431131172037908
 31
0.0
  0
ARC
  5
A7BD
  8
0
 10
677.7412996474822648
 20
125.7426800884469031
 30
0.0
 40
0.1002170636593904
 50
4.5776292707015989
 51
87.2401630889526274
  0
ARC
  5
A7BE
  8
0
 10
678.1395473891847132
 20
120.8353818944834046
 30
0.0
 40
5.0228304836226396
 50
83.8657959708030916
 51
94.4923976413759874
  0
ARC
  5
A7BF
  8
0
 10
678.6757420242969374
 20
125.7295772139898986
 30
0.0
 40
0.0998775185028946
 50
89.6941213174827254
 51
175.2488104188792022
  0
LINE
  5
A7C0
  8
0
 10
683.1898644142372632
 20
125.1895914307037998
 30
0.0
 11
678.5282413007569176
 21
125.1895914307037998
 31
0.0
  0
LINE
  5
A7C1
  8
0
 10
684.1964545942746554
 20
125.6674866986828931
 30
0.0
 11
678.5700517190335859
 21
125.6674866986828931
 31
0.0
  0
LINE
  5
A7C2
  8
0
 10
677.8484753597948611
 20
125.6674866986828931
 30
0.0
 11
677.7432580704279417
 21
125.6674866986828931
 31
0.0
  0
ARC
  5
A7C3
  8
0
 10
685.0339518471406564
 20
127.5985419709782036
 30
0.0
 40
3.746616448845927
 50
346.2559989572600898
 51
357.1382522784662115
  0
ARC
  5
A7C4
  8
0
 10
687.389453481778105
 20
127.0224157731764052
 30
0.0
 40
1.32168153290004
 50
316.1669345705057026
 51
346.2559989572600898
  0
ARC
  5
A7C5
  8
0
 10
687.5258389567813992
 20
127.0836795721578056
 30
0.0
 40
1.2732984060475041
 50
277.4250106768428736
 51
309.9156514682754846
  0
ARC
  5
A7C6
  8
0
 10
687.1293453500260284
 20
129.1009807206316964
 30
0.0
 40
3.327560539956365
 50
272.4725076703501259
 51
279.7066624245175035
  0
ARC
  5
A7C7
  8
0
 10
687.3626601198742492
 20
125.6869476490333
 30
0.0
 40
0.09723161245748
 50
107.4880187471323012
 51
175.4254728880870005
  0
ARC
  5
A7C8
  8
0
 10
686.4318633299425301
 20
125.7841927227729997
 30
0.0
 40
0.0993266703000659
 50
4.9774988595107743
 51
91.1775281605208505
  0
ARC
  5
A7C9
  8
0
 10
687.0650431173339712
 20
120.0663520221082052
 30
0.0
 40
5.8517260595886231
 50
87.0223742363112933
 51
96.2318949065416547
  0
ARC
  5
A7CA
  8
0
 10
687.3763125358195794
 20
125.8103583557212062
 30
0.0
 40
0.1000855541389179
 50
94.1802936513645648
 51
175.8997902289846991
  0
ARC
  5
A7CB
  8
0
 10
940.630005861884456
 20
-7201.2828054830833935
 30
0.0
 40
7331.4363361020987213
 50
91.9861739025636354
 51
92.0044582022415653
  0
ARC
  5
A7CC
  8
0
 10
686.4431142893812421
 20
125.6461386991586977
 30
0.0
 40
0.1008719829603084
 50
11.9052363236027396
 51
82.7831356094524864
  0
ARC
  5
A7CD
  8
0
 10
679.9833991200093806
 20
127.5242014483337982
 30
0.0
 40
3.746616448845927
 50
182.8617477215337885
 51
193.7440010427397965
  0
ARC
  5
A7CE
  8
0
 10
677.6090451269402593
 20
126.9407378067057977
 30
0.0
 40
1.301628408513589
 50
193.6274254301179099
 51
224.1485555373376997
  0
ARC
  5
A7CF
  8
0
 10
677.9856867688292823
 20
127.7876103869425037
 30
0.0
 40
2.1891547328958429
 50
233.2244480331187901
 51
247.0116496810325089
  0
ARC
  5
A7D0
  8
0
 10
677.716216742257302
 20
127.2587944168552951
 30
0.0
 40
1.597635407247568
 50
248.5017039849786897
 51
261.5029948474561934
  0
ARC
  5
A7D1
  8
0
 10
677.318182878830271
 20
124.3548750810266057
 30
0.0
 40
1.33369208732828
 50
66.1919040534661889
 51
83.0244660108343169
  0
ARC
  5
A7D2
  8
0
 10
677.8266701477923561
 20
130.7190316193646993
 30
0.0
 40
5.052233531846797
 50
266.067180188590612
 51
269.0540070830679156
  0
ARC
  5
A7D3
  8
0
 10
683.1898644142372632
 20
125.2542551792037955
 30
0.0
 40
0.0646637485000015
 50
270.0
 51
318.8896540167240232
  0
ARC
  5
A7D4
  8
0
 10
684.24297799624253
 20
124.335230720785205
 30
0.0
 40
1.3330680468653151
 50
92.0000000128827082
 51
138.8896540946383027
  0
LINE
  5
A7D5
  8
0
 10
688.600344624951731
 20
131.2431131172037908
 30
0.0
 11
691.7706297252229888
 21
131.2431131172037908
 31
0.0
  0
LINE
  5
A7D6
  8
0
 10
687.5995164174195224
 20
131.3445828902796961
 30
0.0
 11
687.7340670602018236
 21
132.8824640210839902
 31
0.0
  0
ARC
  5
A7D7
  8
0
 10
688.513994819564914
 20
135.258298401804808
 30
0.0
 40
4.0161136884514024
 50
265.063503828585624
 51
271.2320021456886252
  0
ARC
  5
A7D8
  8
0
 10
688.5413150997109142
 20
135.574608086912292
 30
0.0
 40
4.3336010340260662
 50
257.4480499563144917
 51
265.063503828579087
  0
LINE
  5
A7D9
  8
0
 10
675.7562875889610723
 20
132.8824640210835923
 30
0.0
 11
687.7340670602018236
 21
132.8824640210835923
 31
0.0
  0
LINE
  5
A7DA
  8
0
 10
688.3507302176707299
 20
132.9970657986038134
 30
0.0
 11
691.9710004613059482
 21
132.9970657986038134
 31
0.0
  0
ARC
  5
A7DB
  8
0
 10
687.7616817724757539
 20
132.8714106295836075
 30
0.0
 40
0.0297447440336736
 50
124.1312352107171932
 51
158.1851651478698955
  0
ARC
  5
A7DC
  8
0
 10
688.1446314817162602
 20
131.9416112225879942
 30
0.0
 40
1.034712745530171
 50
96.1892370976377009
 51
112.7202471161169939
  0
ARC
  5
A7DD
  8
0
 10
688.3753520532698076
 20
130.8071079204077023
 30
0.0
 40
2.190096286253532
 50
90.6441529494936447
 51
98.9912355963626993
  0
LINE
  5
A7DE
  8
0
 10
704.61419811443443
 20
132.8770512833052067
 30
0.0
 11
704.1295193181371133
 21
127.3371472923906964
 31
0.0
  0
ARC
  5
A7DF
  8
0
 10
705.6492027157433995
 20
133.3204678787435
 30
0.0
 40
0.3726306581915045
 50
10.4351863609106505
 51
29.6499468830860096
  0
ARC
  5
A7E0
  8
0
 10
705.5580498472598947
 20
133.2685806855405133
 30
0.0
 40
0.4775169120633411
 50
29.6499468971895404
 51
90.0
  0
LINE
  5
A7E1
  8
0
 10
704.8473397057699685
 20
133.1609461044459124
 30
0.0
 11
705.0517438575374172
 21
133.3879599136037939
 31
0.0
  0
ARC
  5
A7E2
  8
0
 10
704.5241895060667048
 20
133.5314446616536941
 30
0.0
 40
0.4916250934008565
 50
298.9145046575443985
 51
311.0950562886470721
  0
ARC
  5
A7E3
  8
0
 10
704.8918803862933373
 20
132.8547113326598037
 30
0.0
 40
0.2785794635280341
 50
117.8145194930883974
 51
175.4003760820089042
  0
LINE
  5
A7E4
  8
0
 10
701.941544190706054
 20
125.0970725290037961
 30
0.0
 11
702.3818774307685544
 21
125.0970725290037961
 31
0.0
  0
LINE
  5
A7E5
  8
0
 10
702.480500705879308
 20
125.1874441104672968
 30
0.0
 11
702.5297773198833511
 21
125.7506783855402972
 31
0.0
  0
LINE
  5
A7E6
  8
0
 10
701.8429209155947319
 20
125.1874441104767044
 30
0.0
 11
701.7947666435547944
 21
125.7378499588117933
 31
0.0
  0
ARC
  5
A7E7
  8
0
 10
701.941544190706054
 20
125.1960725290037999
 30
0.0
 40
0.099
 50
184.9999999971259115
 51
270.0
  0
ARC
  5
A7E8
  8
0
 10
702.3818774307685544
 20
125.1960725290037999
 30
0.0
 40
0.099
 50
270.0
 51
354.9999999973754825
  0
LINE
  5
A7E9
  8
0
 10
693.2482396929405013
 20
125.0970725290037961
 30
0.0
 11
693.6885729321685403
 21
125.0970725290037961
 31
0.0
  0
LINE
  5
A7EA
  8
0
 10
693.7871962072789529
 20
125.1874441104643978
 30
0.0
 11
693.8401589258055537
 21
125.7928107527968962
 31
0.0
  0
LINE
  5
A7EB
  8
0
 10
693.1496164340383075
 20
125.1874439252054003
 30
0.0
 11
693.0944912016359467
 21
125.817514582551695
 31
0.0
  0
ARC
  5
A7EC
  8
0
 10
693.2482396929405013
 20
125.1960725290037999
 30
0.0
 40
0.099
 50
185.0001076316304989
 51
270.0
  0
ARC
  5
A7ED
  8
0
 10
693.6885729321685403
 20
125.1960725290037999
 30
0.0
 40
0.099
 50
270.0
 51
354.9999999956954184
  0
LINE
  5
A7EE
  8
0
 10
691.5950784150624031
 20
127.4114878150351018
 30
0.0
 11
691.259854638237357
 21
131.2431131172037908
 31
0.0
  0
ARC
  5
A7EF
  8
0
 10
702.629674702692455
 20
125.7426800884469031
 30
0.0
 40
0.1002170636593904
 50
92.7598369110473726
 51
175.4223707292983931
  0
ARC
  5
A7F0
  8
0
 10
702.2314269609901203
 20
120.8353818944834046
 30
0.0
 40
5.0228304836226396
 50
85.5076023586240126
 51
96.1342040291969084
  0
ARC
  5
A7F1
  8
0
 10
701.6952323258777824
 20
125.7295772139898986
 30
0.0
 40
0.0998775185028946
 50
4.7511895811207321
 51
90.3058786825172746
  0
LINE
  5
A7F2
  8
0
 10
697.1811099359374566
 20
125.1895914307037998
 30
0.0
 11
701.8427330494179159
 21
125.1895914307037998
 31
0.0
  0
LINE
  5
A7F3
  8
0
 10
696.1745197558999507
 20
125.6674866986828931
 30
0.0
 11
701.8009226311412476
 21
125.6674866986828931
 31
0.0
  0
LINE
  5
A7F4
  8
0
 10
702.5224989903798587
 20
125.6674866986828931
 30
0.0
 11
702.6277162797468918
 21
125.6674866986828931
 31
0.0
  0
ARC
  5
A7F5
  8
0
 10
695.3370225030340634
 20
127.5985419709782036
 30
0.0
 40
3.746616448845927
 50
182.8617477215337885
 51
193.7440010427397965
  0
ARC
  5
A7F6
  8
0
 10
692.9815208683967285
 20
127.0224157731764052
 30
0.0
 40
1.32168153290004
 50
193.7440010427397965
 51
223.8330654294942974
  0
ARC
  5
A7F7
  8
0
 10
692.8451353933933206
 20
127.0836795721578056
 30
0.0
 40
1.2732984060475041
 50
230.084348531724487
 51
262.5749893231571264
  0
ARC
  5
A7F8
  8
0
 10
693.2416290001488051
 20
129.1009807206316964
 30
0.0
 40
3.327560539956365
 50
260.2933375754824965
 51
267.5274923296498741
  0
ARC
  5
A7F9
  8
0
 10
693.0083142303003569
 20
125.6869476490333
 30
0.0
 40
0.09723161245748
 50
4.5745271119130093
 51
72.5119812528676846
  0
ARC
  5
A7FA
  8
0
 10
693.9391110202323034
 20
125.7841927227729997
 30
0.0
 40
0.0993266703000659
 50
88.8224718394791637
 51
175.0225011404891973
  0
ARC
  5
A7FB
  8
0
 10
693.3059312328407486
 20
120.0663520221082052
 30
0.0
 40
5.8517260595886231
 50
83.7681050934583311
 51
92.9776257636887067
  0
ARC
  5
A7FC
  8
0
 10
692.9946618143552541
 20
125.8103583557212062
 30
0.0
 40
0.1000855541389179
 50
4.1002097710152476
 51
85.8197063486354352
  0
ARC
  5
A7FD
  8
0
 10
439.7409684882903207
 20
-7201.2828054830833935
 30
0.0
 40
7331.4363361020987213
 50
87.9955417977584347
 51
88.0138260974363362
  0
ARC
  5
A7FE
  8
0
 10
693.9278600607934777
 20
125.6461386991586977
 30
0.0
 40
0.1008719829603084
 50
97.2168643905475562
 51
168.0947636763972071
  0
ARC
  5
A7FF
  8
0
 10
700.3875752301653392
 20
127.5242014483337982
 30
0.0
 40
3.746616448845927
 50
346.2559989572600898
 51
357.1382522784662115
  0
ARC
  5
A800
  8
0
 10
702.7619292232344606
 20
126.9407378067057977
 30
0.0
 40
1.301628408513589
 50
315.8514444626623003
 51
346.3725745698820901
  0
ARC
  5
A801
  8
0
 10
702.3852875813455512
 20
127.7876103869425037
 30
0.0
 40
2.1891547328958429
 50
292.9883503189674911
 51
306.7755519668812099
  0
ARC
  5
A802
  8
0
 10
702.6547576079175315
 20
127.2587944168552951
 30
0.0
 40
1.597635407247568
 50
278.4970051525438066
 51
291.4982960150209124
  0
ARC
  5
A803
  8
0
 10
703.0527914713444488
 20
124.3548750810266057
 30
0.0
 40
1.33369208732828
 50
96.9755339891656831
 51
113.8080959465337969
  0
ARC
  5
A804
  8
0
 10
702.54430420238225
 20
130.7190316193646993
 30
0.0
 40
5.052233531846797
 50
270.9459929169320844
 51
273.932819811409388
  0
ARC
  5
A805
  8
0
 10
697.1811099359374566
 20
125.2542551792037955
 30
0.0
 40
0.0646637485000015
 50
221.1103459832760052
 51
270.0
  0
ARC
  5
A806
  8
0
 10
696.1279963539323035
 20
124.335230720785205
 30
0.0
 40
1.3330680468653151
 50
41.1103459053616831
 51
87.999999987117306
  0
LINE
  5
A807
  8
0
 10
692.7714579327551974
 20
131.3445828902796961
 30
0.0
 11
692.6369072899730099
 21
132.8824640210839902
 31
0.0
  0
ARC
  5
A808
  8
0
 10
691.8569795306098058
 20
135.258298401804808
 30
0.0
 40
4.0161136884514024
 50
268.7679978543113748
 51
274.936496171420913
  0
ARC
  5
A809
  8
0
 10
691.8296592504638056
 20
135.574608086912292
 30
0.0
 40
4.3336010340260662
 50
274.936496171420913
 51
282.5519500436853946
  0
LINE
  5
A80A
  8
0
 10
704.6146867612136475
 20
132.8824640210835923
 30
0.0
 11
692.6369072899730099
 21
132.8824640210835923
 31
0.0
  0
ARC
  5
A80B
  8
0
 10
692.6092925776988523
 20
132.8714106295836075
 30
0.0
 40
0.0297447440336736
 50
21.8148348521300299
 51
55.868764789282821
  0
ARC
  5
A80C
  8
0
 10
692.2263428684583459
 20
131.9416112225879942
 30
0.0
 40
1.034712745530171
 50
67.2797528838829493
 51
83.8107629023623133
  0
ARC
  5
A80D
  8
0
 10
691.9956222969050259
 20
130.8071079204077023
 30
0.0
 40
2.190096286253532
 50
81.0087644036373007
 51
90.6441529494936447
  0
ENDSEC
  0
EOF
