  0
SECTION
  2
HEADER
  9
$ACADVER
  1
AC1009
  9
$INSBASE
 10
751.7649059142527221
 20
143.3819538693844038
 30
0.0
  9
$EXTMIN
 10
735.9201662392027856
 20
134.2081706070721054
 30
-0.0015258207003583
  9
$EXTMAX
 10
767.6045106190357501
 20
152.5633544170509879
 30
0.0000000349246037
  9
$LIMMIN
 10
0.0
 20
0.0
  9
$LIMMAX
 10
11.6929133858000007
 20
8.2677165353999982
  9
$ORTHOMODE
 70
     1
  9
$REGENMODE
 70
     1
  9
$FILLMODE
 70
     1
  9
$QTEXTMODE
 70
     0
  9
$MIRRTEXT
 70
     0
  9
$DRAGMODE
 70
     2
  9
$LTSCALE
 40
0.6431102362
  9
$OSMODE
 70
  4095
  9
$ATTMODE
 70
     1
  9
$TEXTSIZE
 40
0.2
  9
$TRACEWID
 40
0.05
  9
$TEXTSTYLE
  7
STANDARD
  9
$CLAYER
  8
0
  9
$CELTYPE
  6
BYLAYER
  9
$CECOLOR
 62
   256
  9
$DIMSCALE
 40
1.0
  9
$DIMASZ
 40
0.1875
  9
$DIMEXO
 40
0.0625
  9
$DIMDLI
 40
0.4443307087
  9
$DIMRND
 40
0.0
  9
$DIMDLE
 40
0.0
  9
$DIMEXE
 40
0.125
  9
$DIMTP
 40
0.01
  9
$DIMTM
 40
0.01
  9
$DIMTXT
 40
1.0
  9
$DIMCEN
 40
0.1052362205
  9
$DIMTSZ
 40
0.0
  9
$DIMTOL
 70
     1
  9
$DIMLIM
 70
     0
  9
$DIMTIH
 70
     0
  9
$DIMTOH
 70
     1
  9
$DIMSE1
 70
     0
  9
$DIMSE2
 70
     0
  9
$DIMTAD
 70
     0
  9
$DIMZIN
 70
     0
  9
$DIMBLK
  1

  9
$DIMASO
 70
     1
  9
$DIMSHO
 70
     1
  9
$DIMPOST
  1
\X
  9
$DIMAPOST
  1

  9
$DIMALT
 70
     1
  9
$DIMALTD
 70
     2
  9
$DIMALTF
 40
25.3999999999999986
  9
$DIMLFAC
 40
1.0
  9
$DIMTOFL
 70
     0
  9
$DIMTVP
 40
0.0
  9
$DIMTIX
 70
     0
  9
$DIMSOXD
 70
     0
  9
$DIMSAH
 70
     0
  9
$DIMBLK1
  1

  9
$DIMBLK2
  1

  9
$DIMSTYLE
  2
STANDARD
  9
$DIMCLRD
 70
     0
  9
$DIMCLRE
 70
     0
  9
$DIMCLRT
 70
     0
  9
$DIMTFAC
 40
1.0
  9
$DIMGAP
 40
0.09
  9
$LUNITS
 70
     2
  9
$LUPREC
 70
     4
  9
$SKETCHINC
 40
0.1
  9
$FILLETRAD
 40
0.0
  9
$AUNITS
 70
     0
  9
$AUPREC
 70
     0
  9
$MENU
  1
.
  9
$ELEVATION
 40
0.0
  9
$PELEVATION
 40
0.0
  9
$THICKNESS
 40
0.0
  9
$LIMCHECK
 70
     0
  9
$BLIPMODE
 70
     0
  9
$CHAMFERA
 40
0.0
  9
$CHAMFERB
 40
0.0
  9
$SKPOLY
 70
     0
  9
$TDCREATE
 40
2458172.5207638889551163
  9
$TDUPDATE
 40
2459116.3984722220338881
  9
$TDINDWG
 40
0.4036349769
  9
$TDUSRTIMER
 40
0.4036349769
  9
$USRTIMER
 70
     1
  9
$ANGBASE
 50
0.0
  9
$ANGDIR
 70
     0
  9
$PDMODE
 70
     0
  9
$PDSIZE
 40
0.3125
  9
$PLINEWID
 40
0.0
  9
$COORDS
 70
     1
  9
$SPLFRAME
 70
     0
  9
$SPLINETYPE
 70
     6
  9
$SPLINESEGS
 70
     8
  9
$ATTDIA
 70
     1
  9
$ATTREQ
 70
     1
  9
$HANDLING
 70
     1
  9
$HANDSEED
  5
AE62
  9
$SURFTAB1
 70
     6
  9
$SURFTAB2
 70
     6
  9
$SURFTYPE
 70
     6
  9
$SURFU
 70
     6
  9
$SURFV
 70
     6
  9
$UCSNAME
  2

  9
$UCSORG
 10
0.0
 20
0.0
 30
0.0
  9
$UCSXDIR
 10
1.0
 20
0.0
 30
0.0
  9
$UCSYDIR
 10
0.0
 20
1.0
 30
0.0
  9
$PUCSNAME
  2

  9
$PUCSORG
 10
0.0
 20
0.0
 30
0.0
  9
$PUCSXDIR
 10
1.0
 20
0.0
 30
0.0
  9
$PUCSYDIR
 10
0.0
 20
1.0
 30
0.0
  9
$USERI1
 70
     0
  9
$USERI2
 70
     0
  9
$USERI3
 70
     0
  9
$USERI4
 70
     0
  9
$USERI5
 70
     0
  9
$USERR1
 40
0.0
  9
$USERR2
 40
0.0
  9
$USERR3
 40
0.0
  9
$USERR4
 40
0.0
  9
$USERR5
 40
0.0
  9
$WORLDVIEW
 70
     1
  9
$SHADEDGE
 70
     3
  9
$SHADEDIF
 70
    70
  9
$TILEMODE
 70
     1
  9
$MAXACTVP
 70
    64
  9
$PLIMCHECK
 70
     0
  9
$PEXTMIN
 10
1.0000000000000000E+20
 20
1.0000000000000000E+20
 30
1.0000000000000000E+20
  9
$PEXTMAX
 10
-1.0000000000000000E+20
 20
-1.0000000000000000E+20
 30
-1.0000000000000000E+20
  9
$PLIMMIN
 10
0.0
 20
0.0
  9
$PLIMMAX
 10
12.0
 20
9.0
  9
$UNITMODE
 70
     0
  9
$VISRETAIN
 70
     1
  9
$PLINEGEN
 70
     0
  9
$PSLTSCALE
 70
     1
  0
ENDSEC
  0
SECTION
  2
TABLES
  0
TABLE
  2
VPORT
 70
     1
  0
VPORT
  2
*ACTIVE
 70
     0
 10
0.0
 20
0.0
 11
1.0
 21
1.0
 12
285.0201367212893047
 22
54.25261539213178
 13
0.0
 23
0.0
 14
1.0
 24
1.0
 15
0.0
 25
0.0
 16
0.0
 26
0.0
 36
24.1179433675886514
 17
466.74220170783002
 27
89.133147119929788
 37
0.0
 40
18.5719773195455602
 41
2.6528599605522678
 42
50.0
 43
0.0
 44
0.0
 50
0.0
 51
0.0
 71
     0
 72
   100
 73
     1
 74
     1
 75
     0
 76
     0
 77
     0
 78
     0
  0
ENDTAB
  0
TABLE
  2
LTYPE
 70
     3
  0
LTYPE
  2
CONTINUOUS
 70
     0
  3
Solid line
 72
    65
 73
     0
 40
0.0
  0
LTYPE
  2
PHANTOM2
 70
     0
  3
___ _ _ ___ _ _ ___ _ _ ___ _ _
 72
    65
 73
     6
 40
1.25
 49
0.625
 49
-0.125
 49
0.125
 49
-0.125
 49
0.125
 49
-0.125
  0
ENDTAB
  0
TABLE
  2
LAYER
 70
     2
  0
LAYER
  2
0
 70
     0
 62
   255
  6
CONTINUOUS
  0
LAYER
  2
DEFPOINTS
 70
     0
 62
     7
  6
CONTINUOUS
  0
ENDTAB
  0
TABLE
  2
STYLE
 70
     1
  0
STYLE
  2
STANDARD
 70
     0
 40
0.0
 41
0.8
 50
0.0
 71
     0
 42
0.2
  3
txt
  4

  0
ENDTAB
  0
TABLE
  2
VIEW
 70
     0
  0
ENDTAB
  0
TABLE
  2
UCS
 70
     0
  0
ENDTAB
  0
TABLE
  2
APPID
 70
    11
  0
APPID
  2
ACAD
 70
     0
  0
APPID
  2
ACAD_MLEADERVER
 70
     0
  0
APPID
  2
ACAD_EXEMPT_FROM_CAD_STANDARDS
 70
     0
  0
APPID
  2
ACAD_DSTYLE_DIMJAG
 70
     0
  0
APPID
  2
ACAD_DSTYLE_DIMTALN
 70
     0
  0
APPID
  2
ACAD_NAV_VCDISPLAY
 70
     0
  0
APPID
  2
ACAECLAYERSTANDARD
 70
     0
  0
APPID
  2
ACCMTRANSPARENCY
 70
     0
  0
APPID
  2
DCO15
 70
     0
  0
APPID
  2
ACDBATTR
 70
     0
  0
APPID
  2
ACADANNOTATIVE
 70
     0
  0
ENDTAB
  0
TABLE
  2
DIMSTYLE
 70
     2
  0
DIMSTYLE
  2
STANDARD
 70
     0
  3

  4

  5

  6

  7

 40
1.0
 41
0.1875
 42
0.0625
 43
0.38
 44
0.125
 45
0.0
 46
0.0
 47
0.01
 48
0.01
140
0.15625
141
0.09
142
0.0
143
25.3999999999999986
144
1.0
145
0.0
146
1.0
147
0.09
 71
     1
 72
     0
 73
     1
 74
     1
 75
     0
 76
     0
 77
     0
 78
     4
170
     0
171
     2
172
     0
173
     0
174
     0
175
     0
176
     0
177
     0
178
     0
  0
ENDTAB
  0
ENDSEC
  0
SECTION
  2
BLOCKS
  0
BLOCK
  8
0
  2
$MODEL_SPACE
 70
     0
 10
0.0
 20
0.0
 30
0.0
  3
$MODEL_SPACE
  1

  0
ENDBLK
  5
21
  8
0
  0
BLOCK
 67
     1
  8
0
  2
$PAPER_SPACE
 70
     0
 10
0.0
 20
0.0
 30
0.0
  3
$PAPER_SPACE
  1

  0
ENDBLK
  5
1D
 67
     1
  8
0
  0
ENDSEC
  0
SECTION
  2
ENTITIES
  0
ATTDEF
  5
829
  8
DEFPOINTS
 10
751.7599836882111504
 20
143.3792464006716045
 30
0.0
 40
0.001
  1
K-11021T-4S
  3

  2
MODELNUMBER
 70
     0
1001
ACDBATTR
1070
     0
1070
     1
  0
ATTDEF
  5
82A
  8
DEFPOINTS
 10
751.7599836882111504
 20
143.377579734004911
 30
0.0
 40
0.001
  1
HARTLAND
  3

  2
TRADENAME
 70
     0
1001
ACDBATTR
1070
     0
1070
     1
  0
ATTDEF
  5
82B
  8
DEFPOINTS
 10
751.7599836882111504
 20
143.375913067338189
 30
0.0
 40
0.001
  1
KITCHEN SINK
  3

  2
PRODUCT
 70
     0
1001
ACDBATTR
1070
     0
1070
     1
  0
LINE
  5
AAAD
  8
0
 10
737.4468228680027551
 20
152.5517708201344078
 30
0.0
 11
766.0829889605028029
 21
152.5517708201344078
 31
0.0
  0
LINE
  5
AAAE
  8
0
 10
766.0829889605028029
 20
134.2121369186343998
 30
0.0
 11
737.4468228680027551
 21
134.2121369186343998
 31
0.0
  0
LINE
  5
AAAF
  8
0
 10
735.9347228680028365
 20
135.7242369186344035
 30
0.0
 11
735.9347228680028365
 21
151.039670820134404
 31
0.0
  0
LINE
  5
AAB0
  8
0
 10
767.5950889605028351
 20
135.7242369186344035
 30
0.0
 11
767.5950889605028351
 21
151.039670820134404
 31
0.0
  0
ARC
  5
AAB1
  8
0
 10
766.0829889605028029
 20
135.7242369186344035
 30
0.0
 40
1.5121
 50
270.0
 51
0.0
  0
ARC
  5
AAB2
  8
0
 10
737.4468228680027551
 20
135.7242369186344035
 30
0.0
 40
1.5121
 50
180.0
 51
270.0
  0
ARC
  5
AAB3
  8
0
 10
737.4468228680027551
 20
151.039670820134404
 30
0.0
 40
1.5121
 50
90.0
 51
180.0
  0
ARC
  5
AAB4
  8
0
 10
766.0829889605028029
 20
151.039670820134404
 30
0.0
 40
1.5121
 50
0.0
 51
90.0
  0
LINE
  5
AAB5
  8
0
 10
739.9752907488908704
 20
136.1997129847914039
 30
0.0
 11
748.2004039286997568
 21
136.1997129847914039
 31
0.0
  0
LINE
  5
AAB6
  8
0
 10
737.9962608012557439
 20
145.5303552565956124
 30
0.0
 11
737.9962608012557439
 21
138.1809217616564922
 31
0.0
  0
LINE
  5
AAB7
  8
0
 10
739.4911004749957328
 20
135.7143058634343902
 30
0.0
 11
748.5943638229383623
 21
135.7143058634343902
 31
0.0
  0
LINE
  5
AAB8
  8
0
 10
737.5090167631027498
 20
145.5770394242344139
 30
0.0
 11
737.5090167631027498
 21
137.69638842963451
 31
0.0
  0
LINE
  5
AAB9
  8
0
 10
750.6606677294028032
 20
146.2969257463618078
 30
0.0
 11
750.6606677294028032
 21
137.6896798671301951
 31
0.0
  0
LINE
  5
AABA
  8
0
 10
750.1796372280823562
 20
145.8158958905461873
 30
0.0
 11
750.1796372280823562
 21
138.3663994729672879
 31
0.0
  0
ARC
  5
AABB
  8
0
 10
743.0256526188380803
 20
138.1157375799598128
 30
0.0
 40
5.0298142144922826
 50
179.2574510918950068
 51
187.0357905582808087
  0
ARC
  5
AABC
  8
0
 10
740.2046631057079367
 20
137.7443896384048116
 30
0.0
 40
2.1847022539683318
 50
186.4323077576113121
 51
200.7594733767766968
  0
ARC
  5
AABD
  8
0
 10
739.1105391773870679
 20
137.319475906669112
 30
0.0
 40
1.011048543373064
 50
200.2200026199554088
 51
238.4957763601248928
  0
ARC
  5
AABE
  8
0
 10
739.3746936224961246
 20
137.8397818690357894
 30
0.0
 40
1.5933829070398959
 50
240.1743220659421922
 51
259.784461584316773
  0
ARC
  5
AABF
  8
0
 10
739.9078125268672466
 20
140.8282642515158898
 30
0.0
 40
4.6290431126927922
 50
259.8506141807013137
 51
270.835238336314319
  0
ARC
  5
AAC0
  8
0
 10
739.4626607570482975
 20
142.2314066653918871
 30
0.0
 40
6.5171628551398966
 50
266.2309407550162064
 51
270.2500291947363849
  0
ARC
  5
AAC1
  8
0
 10
739.2733337689645623
 20
139.3574837526381032
 30
0.0
 40
3.6370104951304492
 50
258.2301000303770024
 51
266.2309407550162064
  0
ARC
  5
AAC2
  8
0
 10
738.6849053808292638
 20
136.8774601037040952
 30
0.0
 40
1.091360055386841
 50
206.0858228927993139
 51
261.9168884901554861
  0
ARC
  5
AAC3
  8
0
 10
739.4416285369874231
 20
137.1697474746715102
 30
0.0
 40
1.900822227950995
 50
187.5740549155040071
 51
203.9684220022481895
  0
ARC
  5
AAC4
  8
0
 10
742.7118338077856379
 20
137.6301258025584957
 30
0.0
 40
5.203238985112006
 50
179.2703253668090042
 51
187.8529128458876869
  0
ARC
  5
AAC5
  8
0
 10
742.378678434435642
 20
145.5536973401943897
 30
0.0
 40
4.3824797962423201
 50
90.8050147194068558
 51
180.3051717887830989
  0
ARC
  5
AAC6
  8
0
 10
742.3687658437028176
 20
145.5770394242344139
 30
0.0
 40
4.8597490807000003
 50
89.9999999999934914
 51
180.0
  0
LINE
  5
AAC7
  8
0
 10
748.6785851799196507
 20
148.2790089587755062
 30
0.0
 11
747.6556459969976913
 21
148.2790089587755062
 31
0.0
  0
LINE
  5
AAC8
  8
0
 10
748.1873122404208516
 20
147.7864766920679074
 30
0.0
 11
747.6556459960050915
 21
147.7864766920679074
 31
0.0
  0
ARC
  5
AAC9
  8
0
 10
748.2488997924267551
 20
142.834261077782088
 30
0.0
 40
4.9525985620619561
 50
82.5459791528485027
 51
90.7125143919256942
  0
ARC
  5
AACA
  8
0
 10
748.5842460675818302
 20
145.3973614154400025
 30
0.0
 40
2.3676535983997118
 50
70.3254860054013733
 51
82.5459791528485027
  0
ARC
  5
AACB
  8
0
 10
749.0332125475109706
 20
146.6530358203116862
 30
0.0
 40
1.034128528837889
 50
23.993040679005329
 51
70.3254860054013733
  0
ARC
  5
AACC
  8
0
 10
748.2979710117967898
 20
146.325792199628097
 30
0.0
 40
1.838907071741205
 50
5.7158164627443551
 51
23.993040679005329
  0
ARC
  5
AACD
  8
0
 10
736.3008377312819448
 20
145.1249742150708073
 30
0.0
 40
13.8959867671928095
 50
2.849975734499667
 51
5.7158164627443551
  0
ARC
  5
AACE
  8
0
 10
744.9563274752183588
 20
146.3444186868173915
 30
0.0
 40
5.7045379580585784
 50
359.5229803884095077
 51
6.320100402805501
  0
ARC
  5
AACF
  8
0
 10
748.2097403577222394
 20
146.7047541255265912
 30
0.0
 40
2.43123121831804
 50
6.320100402805501
 51
17.6565773789132585
  0
ARC
  5
AAD0
  8
0
 10
749.4916156613020348
 20
147.1127825387648898
 30
0.0
 40
1.0859834790753089
 50
17.6565773789132585
 51
61.9187682960533365
  0
ARC
  5
AAD1
  8
0
 10
749.2929173429303091
 20
146.626263162880889
 30
0.0
 40
1.609658444872986
 50
63.8308604028444577
 51
81.6068308555488073
  0
ARC
  5
AAD2
  8
0
 10
748.8748854331551001
 20
144.3948272703364069
 30
0.0
 40
3.879207856901473
 50
80.3092823170190258
 51
87.3038819007211231
  0
ARC
  5
AAD3
  8
0
 10
748.6955304006989991
 20
141.2267697463460081
 30
0.0
 40
7.0522595705090021
 50
87.0590509979657412
 51
90.1376709888278214
  0
ARC
  5
AAD4
  8
0
 10
742.3687658437028176
 20
145.4109033319344064
 30
0.0
 40
5.0258851730000202
 50
45.5954716674005098
 51
89.9999999999934914
  0
ARC
  5
AAD5
  8
0
 10
747.6556459969976913
 20
150.808834095141691
 30
0.0
 40
2.5298251364073101
 50
225.5954716674004885
 51
269.9999999718996264
  0
ARC
  5
AAD6
  8
0
 10
742.3687276937259867
 20
145.4102494013540934
 30
0.0
 40
4.5257895882406549
 50
45.6009193635156294
 51
90.6535375328400477
  0
ARC
  5
AAD7
  8
0
 10
747.6363421485871186
 20
150.7895328440600053
 30
0.0
 40
3.003118194567536
 50
225.6009193635156009
 51
270.3682960610556734
  0
ARC
  5
AAD8
  8
0
 10
743.3209368946520499
 20
138.2714538585026958
 30
0.0
 40
6.859357472351518
 50
353.4830000756697927
 51
0.7931000448321192
  0
ARC
  5
AAD9
  8
0
 10
747.9650213867976163
 20
137.7376810759006105
 30
0.0
 40
2.1847022539683318
 50
339.2405266232216832
 51
353.5676922423886026
  0
ARC
  5
AADA
  8
0
 10
749.0591453151182577
 20
137.3127673441647971
 30
0.0
 40
1.011048543373064
 50
301.5042236398750788
 51
339.7799973800445059
  0
ARC
  5
AADB
  8
0
 10
748.7949908700094284
 20
137.833073306531503
 30
0.0
 40
1.5933829070398959
 50
280.2155384156832838
 51
299.8256779340578078
  0
ARC
  5
AADC
  8
0
 10
748.2349737804867118
 20
141.6648015735933086
 30
0.0
 40
5.4651979248792237
 50
269.6375758313454867
 51
278.8690505479447097
  0
ARC
  5
AADD
  8
0
 10
748.636476388634037
 20
144.5078173096896137
 30
0.0
 40
8.7936122852676597
 50
269.7256097467496261
 51
273.2703098538016206
  0
ARC
  5
AADE
  8
0
 10
748.941675422338335
 20
139.0194002766511971
 30
0.0
 40
3.2967331672752991
 50
273.4161939151751994
 51
282.4288175221515758
  0
ARC
  5
AADF
  8
0
 10
749.5111136679678339
 20
136.8486200619904878
 30
0.0
 40
1.0580089811403779
 50
277.6097106976810096
 51
334.3635185004072241
  0
ARC
  5
AAE0
  8
0
 10
748.7280559555181298
 20
137.1630389121671953
 30
0.0
 40
1.900822227950995
 50
336.0315779977518105
 51
352.4259450844961066
  0
ARC
  5
AAE1
  8
0
 10
745.4578506847199151
 20
137.6234172400542093
 30
0.0
 40
5.203238985112006
 50
352.1470871541122847
 51
0.7296746331910313
  0
LINE
  5
AAE2
  8
0
 10
739.4934854738936565
 20
135.5584744661344132
 30
0.0
 11
764.0363263546114467
 21
135.5584744661344132
 31
0.0
  0
LINE
  5
AAE3
  8
0
 10
737.3077500276027649
 20
137.6962901493758125
 30
0.0
 11
737.3077500276027649
 21
145.5770394242344139
 31
0.0
  0
LINE
  5
AAE4
  8
0
 10
736.9139541786519203
 20
137.6842710543052135
 30
0.0
 11
736.9139541786519203
 21
145.5770394242344139
 31
0.0
  0
LINE
  5
AAE5
  8
0
 10
739.6146176778466952
 20
135.1850413997165958
 30
0.0
 11
763.9151741873575929
 21
135.1850416131725012
 31
0.0
  0
ARC
  5
AAE6
  8
0
 10
739.5480057576643276
 20
141.4158068410526994
 30
0.0
 40
6.231121498802815
 50
259.8510380229080852
 51
270.6125148722500739
  0
ARC
  5
AAE7
  8
0
 10
738.6023772451106879
 20
136.8545722933556021
 30
0.0
 40
1.5797512614925351
 50
192.4010118720933065
 51
264.4660295509935963
  0
ARC
  5
AAE8
  8
0
 10
742.8193546764762232
 20
137.825931879370188
 30
0.0
 40
5.9070993583197628
 50
181.3741677757898003
 51
192.8189615333282063
  0
ARC
  5
AAE9
  8
0
 10
739.4509335946977444
 20
140.4030728534305013
 30
0.0
 40
4.8447852580493693
 50
258.6708879486359933
 51
270.5032368423462117
  0
ARC
  5
AAEA
  8
0
 10
738.6341888991806854
 20
136.8655332988334123
 30
0.0
 40
1.220333584259566
 50
198.5334899273493932
 51
263.649283391693416
  0
ARC
  5
AAEB
  8
0
 10
741.5340557790384537
 20
137.6626542988051085
 30
0.0
 40
4.2264395979431999
 50
179.5440103714711881
 51
196.2829670023415076
  0
ARC
  5
AAEC
  8
0
 10
742.3687658437028176
 20
145.5770394242344139
 30
0.0
 40
5.0610158161000003
 50
89.9821711361936565
 51
180.0
  0
ARC
  5
AAED
  8
0
 10
742.3687658437028176
 20
145.5770394242344139
 30
0.0
 40
5.45481166505086
 50
90.0000220592671525
 51
180.0
  0
LINE
  5
AAEE
  8
0
 10
747.655645995329678
 20
148.8741507730346996
 30
0.0
 11
755.8741658331758799
 21
148.8741507730346996
 31
0.0
  0
LINE
  5
AAEF
  8
0
 10
747.6884184383080765
 20
148.4802775550344052
 30
0.0
 11
755.8413933901974815
 21
148.4802775550344052
 31
0.0
  0
ARC
  5
AAF0
  8
0
 10
742.3625361090247452
 20
145.382289491595003
 30
0.0
 40
5.2557712984445262
 50
45.7652195692466393
 51
89.9149183243118131
  0
ARC
  5
AAF1
  8
0
 10
747.6720321521249843
 20
150.8355369901142069
 30
0.0
 40
2.355316436682604
 50
225.7652195692465966
 51
270.3986184614250874
  0
ARC
  5
AAF2
  8
0
 10
747.655354339800283
 20
150.8084015526864903
 30
0.0
 40
1.9342508016404349
 50
225.5926785598944946
 51
270.0086393338589801
  0
ARC
  5
AAF3
  8
0
 10
742.3690365387658403
 20
145.4115712720555109
 30
0.0
 40
5.6202798238498293
 50
45.592678559894523
 51
90.0027810027770556
  0
CIRCLE
  5
AAF4
  8
0
 10
742.3687658437028176
 20
145.5770394242344139
 30
0.0
 40
1.9274771187999999
  0
CIRCLE
  5
AAF5
  8
0
 10
751.7649059142028136
 20
150.8008754761343937
 30
0.0
 40
0.6839434937
  0
LINE
  5
AAF6
  8
0
 10
767.5950889605028351
 20
135.7242369186344035
 30
0.0
 11
767.5950889605028351
 21
151.039670820134404
 31
0.0
  0
ARC
  5
AAF7
  8
0
 10
766.0829889605028029
 20
135.7242369186344035
 30
0.0
 40
1.5121
 50
270.0
 51
0.0
  0
ARC
  5
AAF8
  8
0
 10
766.0829889605028029
 20
151.039670820134404
 30
0.0
 40
1.5121
 50
0.0
 51
90.0
  0
LINE
  5
AAF9
  8
0
 10
763.5545210796144602
 20
136.1997129847914039
 30
0.0
 11
755.3294078998058012
 21
136.1997129847914039
 31
0.0
  0
LINE
  5
AAFA
  8
0
 10
765.5335510272498141
 20
145.5303552565956124
 30
0.0
 11
765.5335510272498141
 21
138.1809217616564922
 31
0.0
  0
LINE
  5
AAFB
  8
0
 10
764.0387113535098251
 20
135.7143058634343902
 30
0.0
 11
754.9354480055669683
 21
135.7143058634343902
 31
0.0
  0
LINE
  5
AAFC
  8
0
 10
766.0207950654028082
 20
145.5770394242344139
 30
0.0
 11
766.0207950654028082
 21
137.69638842963451
 31
0.0
  0
LINE
  5
AAFD
  8
0
 10
752.8691440991027548
 20
146.2969257463491886
 30
0.0
 11
752.8691440991027548
 21
137.6896798671301951
 31
0.0
  0
LINE
  5
AAFE
  8
0
 10
753.3501746004230881
 20
145.8158958905461873
 30
0.0
 11
753.3501746004230881
 21
138.3663994729672879
 31
0.0
  0
ARC
  5
AAFF
  8
0
 10
760.5041592096672503
 20
138.1157375799598128
 30
0.0
 40
5.0298142144922826
 50
352.9642094417192197
 51
0.7425489081050117
  0
ARC
  5
AB00
  8
0
 10
763.3251487227976213
 20
137.7443896384048116
 30
0.0
 40
2.1847022539683318
 50
339.2405266232232179
 51
353.5676922423886026
  0
ARC
  5
AB01
  8
0
 10
764.4192726511182627
 20
137.319475906669112
 30
0.0
 40
1.011048543373064
 50
301.5042236398750788
 51
339.7799973800445059
  0
ARC
  5
AB02
  8
0
 10
764.1551182060094334
 20
137.8397818690357894
 30
0.0
 40
1.5933829070398959
 50
280.2155384156832838
 51
299.8256779340578078
  0
ARC
  5
AB03
  8
0
 10
763.6219993016381977
 20
140.8282642515158898
 30
0.0
 40
4.6290431126927922
 50
269.164761663685681
 51
280.1493858192986863
  0
ARC
  5
AB04
  8
0
 10
764.0671510714572605
 20
142.2314066653918871
 30
0.0
 40
6.5171628551398966
 50
269.7499708052636151
 51
273.7690592449839073
  0
ARC
  5
AB05
  8
0
 10
764.2564780595407683
 20
139.3574837526381032
 30
0.0
 40
3.6370104951304492
 50
273.7690592449839073
 51
281.7698999696228839
  0
ARC
  5
AB06
  8
0
 10
764.8449064476760668
 20
136.8774601037040952
 30
0.0
 40
1.091360055386841
 50
278.0831115098445139
 51
333.9141771072007145
  0
ARC
  5
AB07
  8
0
 10
764.0881832915181349
 20
137.1697474746715102
 30
0.0
 40
1.900822227950995
 50
336.0315779977518105
 51
352.4259450844961066
  0
ARC
  5
AB08
  8
0
 10
760.8179780207199201
 20
137.6301258025584957
 30
0.0
 40
5.203238985112006
 50
352.1470871541122847
 51
0.7296746331910313
  0
ARC
  5
AB09
  8
0
 10
761.151133394069916
 20
145.5536973401943897
 30
0.0
 40
4.3824797962423201
 50
359.6948282112168158
 51
89.1949852805931584
  0
ARC
  5
AB0A
  8
0
 10
761.1610459848027403
 20
145.5770394242344139
 30
0.0
 40
4.8597490807000003
 50
0.0
 51
90.0
  0
LINE
  5
AB0B
  8
0
 10
754.8512266485857936
 20
148.2790089587755062
 30
0.0
 11
755.874165831507753
 21
148.2790089587755062
 31
0.0
  0
LINE
  5
AB0C
  8
0
 10
755.3424995880845927
 20
147.7864766920679074
 30
0.0
 11
755.8741658325003527
 21
147.7864766920679074
 31
0.0
  0
ARC
  5
AB0D
  8
0
 10
755.2809120360786892
 20
142.834261077782088
 30
0.0
 40
4.9525985620619561
 50
89.2874856080743058
 51
97.4540208471514973
  0
ARC
  5
AB0E
  8
0
 10
754.9455657609237278
 20
145.3973614154400025
 30
0.0
 40
2.3676535983997118
 50
97.4540208471514973
 51
109.6745139945985983
  0
ARC
  5
AB0F
  8
0
 10
754.49659928099436
 20
146.6530358203116862
 30
0.0
 40
1.034128528837889
 50
109.6745139945985983
 51
156.0069593209946106
  0
ARC
  5
AB10
  8
0
 10
755.2318408167087682
 20
146.325792199628097
 30
0.0
 40
1.838907071741205
 50
156.0069593209946106
 51
174.2841835372557
  0
ARC
  5
AB11
  8
0
 10
767.2289740972233858
 20
145.1249742150708073
 30
0.0
 40
13.8959867671928095
 50
174.2841835372557
 51
177.1500242655002921
  0
ARC
  5
AB12
  8
0
 10
758.5734843532869718
 20
146.3444186868173915
 30
0.0
 40
5.7045379580585784
 50
173.6798995971944919
 51
180.47701961171731
  0
ARC
  5
AB13
  8
0
 10
755.3200714707834322
 20
146.7047541255265912
 30
0.0
 40
2.43123121831804
 50
162.3434226210866882
 51
173.6798995971944919
  0
ARC
  5
AB14
  8
0
 10
754.0381961672035231
 20
147.1127825387648898
 30
0.0
 40
1.0859834790753089
 50
118.0812317039465995
 51
162.3434226210866882
  0
ARC
  5
AB15
  8
0
 10
754.2368944855752488
 20
146.626263162880889
 30
0.0
 40
1.609658444872986
 50
98.3931691444512069
 51
116.1691395971555067
  0
ARC
  5
AB16
  8
0
 10
754.6549263953504578
 20
144.3948272703364069
 30
0.0
 40
3.879207856901473
 50
92.6961180992788911
 51
99.6907176829809742
  0
ARC
  5
AB17
  8
0
 10
754.8342814278064452
 20
141.2267697463460081
 30
0.0
 40
7.0522595705090021
 50
89.8623290111722071
 51
92.940949002034273
  0
ARC
  5
AB18
  8
0
 10
761.1610459848027403
 20
145.4109033319344064
 30
0.0
 40
5.0258851730000202
 50
90.0
 51
134.4045283325995115
  0
ARC
  5
AB19
  8
0
 10
755.874165831507753
 20
150.808834095141691
 30
0.0
 40
2.5298251364073101
 50
270.0000000281003736
 51
314.4045283325995115
  0
ARC
  5
AB1A
  8
0
 10
761.1610841347793439
 20
145.4102494013540934
 30
0.0
 40
4.5257895882406549
 50
89.3464624671599523
 51
134.3990806364843991
  0
ARC
  5
AB1B
  8
0
 10
755.8934696799184394
 20
150.7895328440600053
 30
0.0
 40
3.003118194567536
 50
269.6317039389443266
 51
314.3990806364844275
  0
ARC
  5
AB1C
  8
0
 10
760.2088749338535081
 20
138.2714538585026958
 30
0.0
 40
6.859357472351518
 50
179.2068999551678985
 51
186.5169999243302073
  0
ARC
  5
AB1D
  8
0
 10
755.5647904417079417
 20
137.7376810759006105
 30
0.0
 40
2.1847022539683318
 50
186.4323077576113121
 51
200.7594733767766968
  0
ARC
  5
AB1E
  8
0
 10
754.4706665133871866
 20
137.3127673441647971
 30
0.0
 40
1.011048543373064
 50
200.2200026199554088
 51
238.4957763601248928
  0
ARC
  5
AB1F
  8
0
 10
754.7348209584961296
 20
137.833073306531503
 30
0.0
 40
1.5933829070398959
 50
240.1743220659421922
 51
259.784461584316773
  0
ARC
  5
AB20
  8
0
 10
755.2948380480188462
 20
141.6648015735933086
 30
0.0
 40
5.4651979248792237
 50
261.1309494520552903
 51
270.3624241686545133
  0
ARC
  5
AB21
  8
0
 10
754.893335439871521
 20
144.5078173096896137
 30
0.0
 40
8.7936122852676597
 50
266.7296901461983794
 51
270.2743902532503739
  0
ARC
  5
AB22
  8
0
 10
754.5881364061671093
 20
139.0194002766511971
 30
0.0
 40
3.2967331672752991
 50
257.5711824778484242
 51
266.5838060848248006
  0
ARC
  5
AB23
  8
0
 10
754.0186981605377241
 20
136.8486200619904878
 30
0.0
 40
1.0580089811403779
 50
205.6364814995928043
 51
262.3902893023188767
  0
ARC
  5
AB24
  8
0
 10
754.8017558729874281
 20
137.1630389121671953
 30
0.0
 40
1.900822227950995
 50
187.5740549155040071
 51
203.9684220022481895
  0
ARC
  5
AB25
  8
0
 10
758.0719611437856429
 20
137.6234172400542093
 30
0.0
 40
5.203238985112006
 50
179.2703253668090042
 51
187.8529128458876869
  0
LINE
  5
AB26
  8
0
 10
766.222061800902793
 20
137.6962901493758125
 30
0.0
 11
766.222061800902793
 21
145.5770394242344139
 31
0.0
  0
LINE
  5
AB27
  8
0
 10
766.6158576498536377
 20
137.6842710543052135
 30
0.0
 11
766.6158576498536377
 21
145.5770394242344139
 31
0.0
  0
ARC
  5
AB28
  8
0
 10
763.9818060708412304
 20
141.4158068410526994
 30
0.0
 40
6.231121498802815
 50
269.3873015527228745
 51
280.1489619770919148
  0
ARC
  5
AB29
  8
0
 10
764.9274345833948701
 20
136.8545722933556021
 30
0.0
 40
1.5797512614925351
 50
275.53397044900629
 51
347.5989881279066935
  0
ARC
  5
AB2A
  8
0
 10
760.7104571520293348
 20
137.825931879370188
 30
0.0
 40
5.9070993583197628
 50
347.1810384666717937
 51
358.6258322242085796
  0
ARC
  5
AB2B
  8
0
 10
764.0788782338076999
 20
140.4030728534305013
 30
0.0
 40
4.8447852580493693
 50
269.4967631576496956
 51
281.3291120513640067
  0
ARC
  5
AB2C
  8
0
 10
764.8956229293247588
 20
136.8655332988334123
 30
0.0
 40
1.220333584259566
 50
276.3507166083066977
 51
341.4665100726505784
  0
ARC
  5
AB2D
  8
0
 10
761.9957560494671043
 20
137.6626542988051085
 30
0.0
 40
4.2264395979431999
 50
343.7170329976585208
 51
0.4559896285287889
  0
ARC
  5
AB2E
  8
0
 10
761.1610459848027403
 20
145.5770394242344139
 30
0.0
 40
5.0610158161000003
 50
0.0
 51
90.0178288638063435
  0
ARC
  5
AB2F
  8
0
 10
761.1610459848027403
 20
145.5770394242344139
 30
0.0
 40
5.45481166505086
 50
0.0
 51
89.9999779407328475
  0
ARC
  5
AB30
  8
0
 10
761.1672757194805854
 20
145.382289491595003
 30
0.0
 40
5.2557712984445262
 50
90.0850816756881869
 51
134.2347804307532897
  0
ARC
  5
AB31
  8
0
 10
755.8577796763803462
 20
150.8355369901142069
 30
0.0
 40
2.355316436682604
 50
269.6013815385747989
 51
314.2347804307534034
  0
ARC
  5
AB32
  8
0
 10
755.8744574887050476
 20
150.8084015526864903
 30
0.0
 40
1.9342508016404349
 50
269.9913606661409062
 51
314.407321440105477
  0
ARC
  5
AB33
  8
0
 10
761.1607752897397177
 20
145.4115712720555109
 30
0.0
 40
5.6202798238498293
 50
89.9972189972229444
 51
134.4073214401053917
  0
CIRCLE
  5
AB34
  8
0
 10
761.1610459848027403
 20
145.5770394242344139
 30
0.0
 40
1.9274771187999999
  0
POINT
  5
AB36
  8
DEFPOINTS
 10
751.7649059142028136
 20
150.8008754761343937
 30
0.0
  0
CIRCLE
  5
AC46
  8
0
 10
765.8834719605026748
 20
150.8008758201343937
 30
0.0
 40
0.6839
  0
CIRCLE
  5
ACCC
  8
0
 10
755.7506629142028487
 20
150.8008754761343937
 30
0.0
 40
0.6839434937
  0
CIRCLE
  5
ACCD
  8
0
 10
747.7791489142027785
 20
150.8008754761343937
 30
0.0
 40
0.6839434937
  0
ENDSEC
  0
EOF
