  0
SECTION
  2
HEADER
  9
$ACADVER
  1
AC1009
  9
$INSBASE
 10
3619.5161307885418864
 20
316.4947870115597084
 30
0.0
  9
$EXTMIN
 10
3608.4676659584138179
 20
307.6390576334920866
 30
0.0
  9
$EXTMAX
 10
3630.5645956186708645
 20
325.3505163896276144
 30
0.0
  9
$LIMMIN
 10
0.0
 20
0.0
  9
$LIMMAX
 10
11.6929133858000007
 20
8.2677165353999982
  9
$ORTHOMODE
 70
     0
  9
$REGENMODE
 70
     1
  9
$FILLMODE
 70
     1
  9
$QTEXTMODE
 70
     0
  9
$MIRRTEXT
 70
     0
  9
$DRAGMODE
 70
     2
  9
$LTSCALE
 40
0.6431102362
  9
$OSMODE
 70
  4095
  9
$ATTMODE
 70
     1
  9
$TEXTSIZE
 40
0.2
  9
$TRACEWID
 40
0.05
  9
$TEXTSTYLE
  7
STANDARD
  9
$CLAYER
  8
0
  9
$CELTYPE
  6
BYLAYER
  9
$CECOLOR
 62
   256
  9
$DIMSCALE
 40
1.0
  9
$DIMASZ
 40
0.1875
  9
$DIMEXO
 40
0.0625
  9
$DIMDLI
 40
0.4443307087
  9
$DIMRND
 40
0.0
  9
$DIMDLE
 40
0.0
  9
$DIMEXE
 40
0.125
  9
$DIMTP
 40
0.01
  9
$DIMTM
 40
0.01
  9
$DIMTXT
 40
2.0
  9
$DIMCEN
 40
0.1052362205
  9
$DIMTSZ
 40
0.0
  9
$DIMTOL
 70
     1
  9
$DIMLIM
 70
     0
  9
$DIMTIH
 70
     1
  9
$DIMTOH
 70
     1
  9
$DIMSE1
 70
     0
  9
$DIMSE2
 70
     0
  9
$DIMTAD
 70
     0
  9
$DIMZIN
 70
     0
  9
$DIMBLK
  1

  9
$DIMASO
 70
     1
  9
$DIMSHO
 70
     1
  9
$DIMPOST
  1
\X
  9
$DIMAPOST
  1

  9
$DIMALT
 70
     1
  9
$DIMALTD
 70
     2
  9
$DIMALTF
 40
25.3999999999999986
  9
$DIMLFAC
 40
1.0
  9
$DIMTOFL
 70
     0
  9
$DIMTVP
 40
0.0
  9
$DIMTIX
 70
     0
  9
$DIMSOXD
 70
     0
  9
$DIMSAH
 70
     0
  9
$DIMBLK1
  1

  9
$DIMBLK2
  1

  9
$DIMSTYLE
  2
STANDARD
  9
$DIMCLRD
 70
     0
  9
$DIMCLRE
 70
     0
  9
$DIMCLRT
 70
     0
  9
$DIMTFAC
 40
1.0
  9
$DIMGAP
 40
0.09
  9
$LUNITS
 70
     2
  9
$LUPREC
 70
     4
  9
$SKETCHINC
 40
0.1
  9
$FILLETRAD
 40
0.0
  9
$AUNITS
 70
     0
  9
$AUPREC
 70
     0
  9
$MENU
  1
.
  9
$ELEVATION
 40
0.0
  9
$PELEVATION
 40
0.0
  9
$THICKNESS
 40
0.0
  9
$LIMCHECK
 70
     0
  9
$BLIPMODE
 70
     0
  9
$CHAMFERA
 40
0.0
  9
$CHAMFERB
 40
0.0
  9
$SKPOLY
 70
     0
  9
$TDCREATE
 40
2458060.468368056230247
  9
$TDUPDATE
 40
2458988.7886458327993751
  9
$TDINDWG
 40
0.5672640046
  9
$TDUSRTIMER
 40
0.5672640046
  9
$USRTIMER
 70
     1
  9
$ANGBASE
 50
0.0
  9
$ANGDIR
 70
     0
  9
$PDMODE
 70
     0
  9
$PDSIZE
 40
0.3125
  9
$PLINEWID
 40
0.0
  9
$COORDS
 70
     1
  9
$SPLFRAME
 70
     0
  9
$SPLINETYPE
 70
     6
  9
$SPLINESEGS
 70
     8
  9
$ATTDIA
 70
     1
  9
$ATTREQ
 70
     1
  9
$HANDLING
 70
     1
  9
$HANDSEED
  5
A7A8
  9
$SURFTAB1
 70
     6
  9
$SURFTAB2
 70
     6
  9
$SURFTYPE
 70
     6
  9
$SURFU
 70
     6
  9
$SURFV
 70
     6
  9
$UCSNAME
  2

  9
$UCSORG
 10
0.0
 20
0.0
 30
0.0
  9
$UCSXDIR
 10
1.0
 20
0.0
 30
0.0
  9
$UCSYDIR
 10
0.0
 20
1.0
 30
0.0
  9
$PUCSNAME
  2

  9
$PUCSORG
 10
0.0
 20
0.0
 30
0.0
  9
$PUCSXDIR
 10
1.0
 20
0.0
 30
0.0
  9
$PUCSYDIR
 10
0.0
 20
1.0
 30
0.0
  9
$USERI1
 70
     0
  9
$USERI2
 70
     0
  9
$USERI3
 70
     0
  9
$USERI4
 70
     0
  9
$USERI5
 70
     0
  9
$USERR1
 40
0.0
  9
$USERR2
 40
0.0
  9
$USERR3
 40
0.0
  9
$USERR4
 40
0.0
  9
$USERR5
 40
0.0
  9
$WORLDVIEW
 70
     1
  9
$SHADEDGE
 70
     3
  9
$SHADEDIF
 70
    70
  9
$TILEMODE
 70
     1
  9
$MAXACTVP
 70
    64
  9
$PLIMCHECK
 70
     0
  9
$PEXTMIN
 10
1.0000000000000000E+20
 20
1.0000000000000000E+20
 30
1.0000000000000000E+20
  9
$PEXTMAX
 10
-1.0000000000000000E+20
 20
-1.0000000000000000E+20
 30
-1.0000000000000000E+20
  9
$PLIMMIN
 10
0.0
 20
0.0
  9
$PLIMMAX
 10
12.0
 20
9.0
  9
$UNITMODE
 70
     0
  9
$VISRETAIN
 70
     1
  9
$PLINEGEN
 70
     0
  9
$PSLTSCALE
 70
     1
  0
ENDSEC
  0
SECTION
  2
TABLES
  0
TABLE
  2
VPORT
 70
     1
  0
VPORT
  2
*ACTIVE
 70
     0
 10
0.0
 20
0.0
 11
1.0
 21
1.0
 12
0.0
 22
0.0
 13
0.0
 23
0.0
 14
1.0
 24
1.0
 15
0.0
 25
0.0
 16
0.0
 26
0.0
 36
107.406660222564895
 17
3619.5162353515629547
 27
316.4947967529296875
 37
0.0
 40
28.3190700216525002
 41
2.9955849889624719
 42
50.0
 43
0.0
 44
0.0
 50
0.0
 51
0.0
 71
     0
 72
   100
 73
     1
 74
     1
 75
     0
 76
     0
 77
     0
 78
     0
  0
ENDTAB
  0
TABLE
  2
LTYPE
 70
     2
  0
LTYPE
  2
CONTINUOUS
 70
     0
  3
Solid line
 72
    65
 73
     0
 40
0.0
  0
LTYPE
  2
PHANTOM2
 70
     0
  3
___ _ _ ___ _ _ ___ _ _ ___ _ _
 72
    65
 73
     6
 40
1.25
 49
0.625
 49
-0.125
 49
0.125
 49
-0.125
 49
0.125
 49
-0.125
  0
ENDTAB
  0
TABLE
  2
LAYER
 70
     2
  0
LAYER
  2
0
 70
     0
 62
   255
  6
CONTINUOUS
  0
LAYER
  2
DEFPOINTS
 70
     0
 62
     7
  6
CONTINUOUS
  0
ENDTAB
  0
TABLE
  2
STYLE
 70
     1
  0
STYLE
  2
STANDARD
 70
     0
 40
0.0
 41
0.8
 50
0.0
 71
     0
 42
0.2
  3
txt
  4

  0
ENDTAB
  0
TABLE
  2
VIEW
 70
     0
  0
ENDTAB
  0
TABLE
  2
UCS
 70
     0
  0
ENDTAB
  0
TABLE
  2
APPID
 70
     9
  0
APPID
  2
ACAD
 70
     0
  0
APPID
  2
ACAD_MLEADERVER
 70
     0
  0
APPID
  2
ACAD_EXEMPT_FROM_CAD_STANDARDS
 70
     0
  0
APPID
  2
ACAD_NAV_VCDISPLAY
 70
     0
  0
APPID
  2
ACAECLAYERSTANDARD
 70
     0
  0
APPID
  2
ACCMTRANSPARENCY
 70
     0
  0
APPID
  2
ACAD_DSTYLE_DIMJAG
 70
     0
  0
APPID
  2
ACAD_DSTYLE_DIMTALN
 70
     0
  0
APPID
  2
ACDBATTR
 70
     0
  0
ENDTAB
  0
TABLE
  2
DIMSTYLE
 70
     1
  0
DIMSTYLE
  2
STANDARD
 70
     0
  3

  4

  5

  6

  7

 40
1.0
 41
0.1875
 42
0.0625
 43
0.38
 44
0.125
 45
0.0
 46
0.0
 47
0.01
 48
0.01
140
0.15625
141
0.09
142
0.0
143
25.3999999999999986
144
1.0
145
0.0
146
1.0
147
0.09
 71
     1
 72
     0
 73
     1
 74
     1
 75
     0
 76
     0
 77
     0
 78
     4
170
     0
171
     2
172
     0
173
     0
174
     0
175
     0
176
     0
177
     0
178
     0
  0
ENDTAB
  0
ENDSEC
  0
SECTION
  2
BLOCKS
  0
BLOCK
  8
0
  2
$MODEL_SPACE
 70
     0
 10
0.0
 20
0.0
 30
0.0
  3
$MODEL_SPACE
  1

  0
ENDBLK
  5
21
  8
0
  0
BLOCK
 67
     1
  8
0
  2
$PAPER_SPACE
 70
     0
 10
0.0
 20
0.0
 30
0.0
  3
$PAPER_SPACE
  1

  0
ENDBLK
  5
1D
 67
     1
  8
0
  0
BLOCK
  8
0
  2
_FILLED
 70
     0
 10
0.0
 20
0.0
 30
0.0
  3
_FILLED
  1

  0
SOLID
  5
6F59
  8
0
  6
BYBLOCK
 62
     0
 10
0.0
 20
0.0
 30
0.0
 11
-1.0
 21
0.1666666667
 31
0.0
 12
-1.0
 22
-0.1666666667
 32
0.0
 13
-1.0
 23
-0.1666666667
 33
0.0
  0
ENDBLK
  5
6F5A
  8
0
  6
BYBLOCK
 62
     0
  0
BLOCK
  8
0
  2
A$C624630C3
 70
     0
 10
0.0
 20
0.0
 30
0.0
  3
A$C624630C3
  1

  0
LINE
  5
A4EA
  8
0
 10
95.3864781697354545
 20
34.5767308940882501
 30
0.0
 11
95.3864781697354971
 21
35.736493620008261
 31
0.0
  0
ARC
  5
A4EB
  8
0
 10
95.2861269318635067
 20
35.7292665552332736
 30
0.0
 40
0.1006111395805506
 50
4.1191982848182134
 51
93.2188842383600473
  0
ARC
  5
A4EC
  8
0
 10
99.0424171354863176
 20
-25.3265946377274602
 30
0.0
 40
61.271909407712613
 50
93.5200292151053389
 51
93.5748732947580493
  0
ARC
  5
A4ED
  8
0
 10
95.1995333089704019
 20
29.5671632073514594
 30
0.0
 40
6.2589668793415472
 50
89.7948856199337655
 51
91.7322300270151487
  0
ARC
  5
A4EE
  8
0
 10
93.2213510901375457
 20
99.4201586536722175
 30
0.0
 40
63.6220459310654007
 50
270.0741332685038856
 51
271.6113075943061972
  0
LINE
  5
A4EF
  8
0
 10
93.303669699603546
 20
35.7981659773882512
 30
0.0
 11
77.7751157899035235
 21
35.7914535190882503
 31
0.0
  0
ARC
  5
A4F0
  8
0
 10
77.7750970690245111
 20
35.6913774841842582
 30
0.0
 40
0.1000760366550209
 50
89.9892818760661442
 51
183.3315373406801996
  0
ARC
  5
A4F1
  8
0
 10
82.1636896535302981
 20
36.0288824515219019
 30
0.0
 40
4.5016104682969216
 50
184.3739788169521034
 51
211.5779634941102074
  0
ARC
  5
A4F2
  8
0
 10
87.7190366672672326
 20
39.7524472903218893
 30
0.0
 40
11.1873382887013992
 50
212.9255869346089014
 51
231.9834581853087911
  0
ARC
  5
A4F3
  8
0
 10
93.3488881502789809
 20
47.0342162129597625
 30
0.0
 40
20.3915790877799488
 50
232.122200647866805
 51
243.2728313376495919
  0
ARC
  5
A4F4
  8
0
 10
84.2235167317040236
 20
28.9102723895653213
 30
0.0
 40
0.0999640498957052
 50
242.8667480023347878
 51
359.9937423248726986
  0
LINE
  5
A4F5
  8
0
 10
84.323480781003525
 20
28.9102614717882602
 30
0.0
 11
84.3239019941035366
 21
34.3808634871882504
 31
0.0
  0
ARC
  5
A4F6
  8
0
 10
84.4323123418439678
 20
34.3677352065353432
 30
0.0
 40
0.1092023591782701
 50
93.5421606978166693
 51
173.0952146829569074
  0
LINE
  5
A4F7
  8
0
 10
84.425565493203564
 20
34.4767289461882527
 30
0.0
 11
95.2864807810035472
 21
34.4767289461882527
 31
0.0
  0
ARC
  5
A4F8
  8
0
 10
95.2799690123502643
 20
34.5832378068006818
 30
0.0
 40
0.1067077341149777
 50
273.4986106668810066
 51
356.5040015526712978
  0
ARC
  5
A4F9
  8
0
 10
95.1839185437700479
 20
34.3767280961947534
 30
0.0
 40
0.1000010073082411
 50
90.2502542544741146
 51
180.1563530755346108
  0
LINE
  5
A4FA
  8
0
 10
95.0839179088035422
 20
34.3764552061882611
 30
0.0
 11
95.0839127371625352
 21
28.8511178490469788
 31
0.0
  0
ARC
  5
A4FB
  8
0
 10
94.9839231840863789
 20
28.8511912559507984
 30
0.0
 40
0.0999895800218466
 50
280.8894419072100277
 51
359.9579365554528181
  0
ARC
  5
A4FC
  8
0
 10
93.3214462565193514
 20
38.5715432623241625
 30
0.0
 40
9.961462888738799
 50
272.4568577557270146
 51
279.7173058370572107
  0
ARC
  5
A4FD
  8
0
 10
92.4826435347010829
 20
49.8600680201340793
 30
0.0
 40
21.2785150405178598
 50
267.3483847296751037
 51
273.4104399915183876
  0
ARC
  5
A4FE
  8
0
 10
81.9146888888684117
 20
-134.1299807318127932
 30
0.0
 40
163.0162636712182973
 50
86.6297001578372488
 51
87.0140130536948391
  0
ARC
  5
A4FF
  8
0
 10
90.209011440078541
 20
24.5325271506060503
 30
0.0
 40
4.1371450196761064
 50
87.2641163232321162
 51
91.7807367811503667
  0
ARC
  5
A500
  8
0
 10
90.0790777002085292
 20
28.5235964591943087
 30
0.0
 40
0.1440842795470132
 50
89.4539599291046557
 51
109.9520063866696944
  0
ARC
  5
A501
  8
0
 10
89.321753599525394
 20
31.2106892733101304
 30
0.0
 40
2.6481010418977351
 50
253.1724443691815054
 51
285.5108582540017892
  0
ARC
  5
A502
  8
0
 10
89.3995217130211444
 20
31.0706535332638687
 30
0.0
 40
2.5391793375811491
 50
215.16896532181309
 51
250.5771290740856045
  0
ARC
  5
A503
  8
0
 10
92.1168602541111738
 20
32.8798016788730791
 30
0.0
 40
5.803178421338667
 50
187.553868027994497
 51
214.3172942463139918
  0
ARC
  5
A504
  8
0
 10
130.7898129755859884
 20
39.6167192542414668
 30
0.0
 40
45.0543659564332728
 50
187.6188168260331963
 51
189.5821155594474021
  0
ARC
  5
A505
  8
0
 10
88.522321723676157
 20
33.9120553085007188
 30
0.0
 40
2.4042029705604331
 50
169.3285848035648087
 51
186.4176545334055959
  0
ARC
  5
A506
  8
0
 10
86.0571586941978666
 20
34.3758739280411092
 30
0.0
 40
0.1042163624644003
 50
349.7095385469505118
 51
75.4084833922323412
  0
ARC
  5
A507
  8
0
 10
84.4235137452573952
 20
29.2364951673202214
 30
0.0
 40
0.1000284489955799
 50
78.4574367894073958
 51
178.832653686610314
  0
ARC
  5
A508
  8
0
 10
85.9636836583925259
 20
36.7779916272108025
 30
0.0
 40
7.597132859946119
 50
258.4574367894073816
 51
269.013861231118824
  0
ARC
  5
A509
  8
0
 10
86.6717346253098668
 20
77.9124925888068134
 30
0.0
 40
48.7377272349827635
 50
269.013861231118824
 51
271.206992343382808
  0
ARC
  5
A50A
  8
0
 10
88.9621169728064274
 20
30.1942666215382403
 30
0.0
 40
2.205278148422023
 50
272.2826147145286768
 51
315.8326999540287829
  0
ARC
  5
A50B
  8
0
 10
89.066025474826148
 20
27.7913212886107992
 30
0.0
 40
0.2000638963672778
 50
94.6087461997194055
 51
173.0245493359462898
  0
LINE
  5
A50C
  8
0
 10
88.867442395903538
 20
27.8156178602882491
 30
0.0
 11
88.8502055022035506
 21
27.6743758749882609
 31
0.0
  0
ARC
  5
A50D
  8
0
 10
88.7509418367712328
 20
27.6864888738735218
 30
0.0
 40
0.1000000000852608
 50
270.0000000185153795
 51
353.0426780841252139
  0
LINE
  5
A50E
  8
0
 10
88.7509418368035483
 20
27.5864888737882517
 30
0.0
 11
86.272019725103533
 21
27.5864888737882517
 31
0.0
  0
ARC
  5
A50F
  8
0
 10
86.272019725103533
 20
27.6864888737882495
 30
0.0
 40
0.1000000000000023
 50
186.9573218726214066
 51
270.0
  0
LINE
  5
A510
  8
0
 10
86.1727560597467175
 20
27.6743758749882502
 30
0.0
 11
86.0101073099042708
 21
29.0072506933249592
 31
0.0
  0
ARC
  5
A511
  8
0
 10
85.8114396318905222
 20
28.9829990120098486
 30
0.0
 40
0.2001424251226708
 50
6.9597535872960483
 51
83.8350789790066244
  0
ARC
  5
A512
  8
0
 10
89.0292700527249679
 20
28.9700684781907789
 30
0.0
 40
0.9795484964345854
 50
246.2874509386302861
 51
271.2097092333081036
  0
ARC
  5
A513
  8
0
 10
88.4713555764470527
 20
27.6470359727237813
 30
0.0
 40
0.4566451207871875
 50
68.9537975399396714
 51
92.8262883354133379
  0
ARC
  5
A514
  8
0
 10
88.4452426920082075
 20
28.1405282657153002
 30
0.0
 40
0.0375751525417331
 50
248.4837514547886883
 51
275.4926349367191278
  0
ARC
  5
A515
  8
0
 10
88.4359345533082006
 20
28.1145116190082014
 30
0.0
 40
0.0099966426972665
 50
165.8723675572321952
 51
243.4190544590896934
  0
ARC
  5
A516
  8
0
 10
88.5264353021820227
 20
28.0907694923032807
 30
0.0
 40
0.103559401587606
 50
135.759371262989589
 51
165.3554107354298139
  0
LINE
  5
A517
  8
0
 10
88.4522436833035357
 20
28.16302012098825
 30
0.0
 11
88.555423817470114
 21
28.675895831383361
 31
0.0
  0
LINE
  5
A518
  8
0
 10
95.3864781697354687
 20
31.7081832843010396
 30
0.0
 11
101.8414269034085038
 21
23.7267176941502491
 31
0.0
  0
ENDBLK
  5
A51A
  8
0
  0
ENDSEC
  0
SECTION
  2
ENTITIES
  0
ATTDEF
  5
3930
  8
DEFPOINTS
 10
3619.5128076192390836
 20
316.4999890729558842
 30
0.0
 40
0.001
  1
K-11160X-1
  3

  2
MODELNUMBER
 70
     0
1001
ACDBATTR
1070
     0
1070
     1
  0
ATTDEF
  5
3931
  8
DEFPOINTS
 10
3619.5128076192390836
 20
316.4983224062892191
 30
0.0
 40
0.001
  1
ODEON
  3

  2
TRADENAME
 70
     0
1001
ACDBATTR
1070
     0
1070
     1
  0
ATTDEF
  5
3932
  8
DEFPOINTS
 10
3619.5128076192390836
 20
316.4966557396226108
 30
0.0
 40
0.001
  1
BATHROOM SINK
  3

  2
PRODUCT
 70
     0
1001
ACDBATTR
1070
     0
1070
     1
  0
LINE
  5
A6F6
  8
0
 10
3629.8959315832439643
 20
325.3505163896272734
 30
0.0
 11
3609.1363299938398086
 21
325.3505163896272734
 31
0.0
  0
ARC
  5
A6F7
  8
0
 10
3609.1661399591398549
 20
324.9178189954536151
 30
0.0
 40
0.4337230325402866
 50
93.9410698860674245
 51
170.9275985550339101
  0
LINE
  5
A6F8
  8
0
 10
3608.7378428560959946
 20
324.98620949537559
 30
0.0
 11
3608.6002867102420169
 21
323.2736937041274246
 31
0.0
  0
ARC
  5
A6F9
  8
0
 10
3888.0354285816429183
 20
313.1441845697298163
 30
0.0
 40
279.6186786822249246
 50
177.9239400551680035
 51
178.906576203102702
  0
ARC
  5
A6FA
  8
0
 10
3622.5576447888411167
 20
318.5336274947283073
 30
0.0
 40
14.0900806557651297
 50
180.2178256821030971
 51
197.6752360432209912
  0
ARC
  5
A6FB
  8
0
 10
3617.9922192505550811
 20
317.503485710554628
 30
0.0
 40
9.4360834011225805
 50
200.133011370931996
 51
240.6111286143440964
  0
ARC
  5
A6FC
  8
0
 10
3619.5339442025219796
 20
320.0567449299234113
 30
0.0
 40
12.4176678398801705
 50
240.1942609664698125
 51
262.6220941641853983
  0
ARC
  5
A6FD
  8
0
 10
3619.6283470356661383
 20
321.5004331848761012
 30
0.0
 40
13.8618297733348008
 50
263.0014034348877772
 51
269.5361659845763143
  0
CIRCLE
  5
A6FE
  8
0
 10
3619.5161307885418864
 20
322.6515163896273179
 30
0.0
 40
0.5999999999999986
  0
ARC
  5
A6FF
  8
0
 10
3619.5698792146190499
 20
316.5722810499850084
 30
0.0
 40
8.2616502442183162
 50
90.3727559994564587
 51
114.4351048248279028
  0
ARC
  5
A700
  8
0
 10
3619.2095036261271161
 20
317.4365162000602254
 30
0.0
 40
7.3258095153465428
 50
114.6650815951151969
 51
135.964956791235096
  0
ARC
  5
A701
  8
0
 10
3620.1318167869471836
 20
316.5447579263426974
 30
0.0
 40
8.6087336695213441
 50
135.964956791235096
 51
141.8455297075261115
  0
ARC
  5
A702
  8
0
 10
3615.9791350317641445
 20
320.4113780148791761
 30
0.0
 40
2.992492515321107
 50
150.9797201791826069
 51
159.7941875095282001
  0
ARC
  5
A703
  8
0
 10
3619.9155206855011784
 20
337.2596154230445791
 30
0.0
 40
17.1928569760431316
 50
246.9024700529132019
 51
268.6688999236392874
  0
ARC
  5
A704
  8
0
 10
3612.9061914414028251
 20
320.8640961399439107
 30
0.0
 40
0.6383024357867779
 50
65.5083473085337999
 51
124.5240292045285031
  0
ARC
  5
A705
  8
0
 10
3616.0210697865118163
 20
317.8380260718739123
 30
0.0
 40
4.9702543787288986
 50
134.386006969239304
 51
156.7322009520044048
  0
ARC
  5
A706
  8
0
 10
3617.6102713278428382
 20
317.1447638603975179
 30
0.0
 40
6.7040688667133077
 50
156.654453553202103
 51
177.1721022773593006
  0
ARC
  5
A707
  8
0
 10
3617.8642598196797735
 20
317.0813556529881225
 30
0.0
 40
6.9610617393226031
 50
176.7539674375360903
 51
201.604536741824603
  0
ARC
  5
A708
  8
0
 10
3618.4405159124921738
 20
317.4783758553675739
 30
0.0
 40
7.6446277812496968
 50
202.7809604117387039
 51
251.7667394231683033
  0
ARC
  5
A709
  8
0
 10
3619.6420740213470708
 20
320.7584647750434783
 30
0.0
 40
11.1365695381416199
 50
251.175414938621401
 51
269.352029411300407
  0
CIRCLE
  5
A70A
  8
0
 10
3619.5161307885418864
 20
317.4755163896272734
 30
0.0
 40
0.8700000000000001
  0
CIRCLE
  5
A70B
  8
0
 10
3619.5161307885418864
 20
317.4755163896272734
 30
0.0
 40
1.4870571079560939
  0
ARC
  5
A70C
  8
0
 10
3629.8959320286130605
 20
324.950426298278785
 30
0.0
 40
0.4000900913487576
 50
5.1312677788588026
 51
90.0000637800544467
  0
LINE
  5
A70D
  8
0
 10
3630.294418720990052
 20
324.98620949537559
 30
0.0
 11
3630.4319748668431203
 21
323.2736937041274246
 31
0.0
  0
ARC
  5
A70E
  8
0
 10
3350.9968329954431283
 20
313.1441845697298163
 30
0.0
 40
279.6186786822249246
 50
1.093423796897327
 51
2.0760599448320018
  0
ARC
  5
A70F
  8
0
 10
3616.4746167882440204
 20
318.5336274947283073
 30
0.0
 40
14.0900806557651297
 50
342.3247639567790088
 51
359.7821743178968177
  0
ARC
  5
A710
  8
0
 10
3621.040042326530056
 20
317.503485710554628
 30
0.0
 40
9.4360834011225805
 50
299.3888713856558184
 51
339.8669886290679756
  0
ARC
  5
A711
  8
0
 10
3619.4983173745631575
 20
320.0567449299234113
 30
0.0
 40
12.4176678398801705
 50
277.3779058358146017
 51
299.8057390335301875
  0
ARC
  5
A712
  8
0
 10
3619.4623823624660872
 20
316.5722810499850084
 30
0.0
 40
8.2616502442183481
 50
65.5648951751720546
 51
89.6272440005435271
  0
ARC
  5
A713
  8
0
 10
3619.822757950958021
 20
317.4365162000602254
 30
0.0
 40
7.3258095153465428
 50
44.0350432087648471
 51
65.3349184048847462
  0
ARC
  5
A714
  8
0
 10
3618.9004447901379535
 20
316.5447579263426974
 30
0.0
 40
8.6087336695213441
 50
38.1544702924738672
 51
44.0350432087648471
  0
ARC
  5
A715
  8
0
 10
3623.0531265453241758
 20
320.4113780148808814
 30
0.0
 40
2.9924925153171631
 50
20.2058124904625984
 51
29.0202798208202211
  0
ARC
  5
A716
  8
0
 10
3626.1260701356818572
 20
320.8640961399439107
 30
0.0
 40
0.6383024357867779
 50
55.4759707954714898
 51
114.4916526914662001
  0
ARC
  5
A717
  8
0
 10
3623.011191790572866
 20
317.8380260718739123
 30
0.0
 40
4.9702543787288986
 50
23.2677990479955383
 51
45.6139930307606818
  0
ARC
  5
A718
  8
0
 10
3621.4219902492418441
 20
317.1447638603975179
 30
0.0
 40
6.7040688667133077
 50
2.8278977226407149
 51
23.3455464467978615
  0
ARC
  5
A719
  8
0
 10
3621.1680017574039994
 20
317.0813556529881225
 30
0.0
 40
6.9610617393226031
 50
338.3954632581754254
 51
3.246032562463903
  0
ARC
  5
A71A
  8
0
 10
3620.5917456645929633
 20
317.4783758553675739
 30
0.0
 40
7.6446277812496968
 50
288.233260576831583
 51
337.2190395882612961
  0
ARC
  5
A71B
  8
0
 10
3619.4039145461670159
 20
321.500433134315017
 30
0.0
 40
13.8618297225718994
 50
270.4638339132321789
 51
276.9985965710973801
  0
ARC
  5
A71C
  8
0
 10
3619.3901875557380663
 20
320.7584647750437057
 30
0.0
 40
11.1365695381417602
 50
270.6479705886997067
 51
288.8245850613786274
  0
ARC
  5
A71D
  8
0
 10
3619.0542576450011438
 20
337.548262709766675
 30
0.0
 40
17.4829667804297983
 50
271.5138427147787183
 51
292.9147874184354237
  0
ARC
  5
A71E
  8
0
 10
3619.5175603799170858
 20
307.4775677196292918
 30
0.0
 40
12.5839607992940898
 50
87.8135398242029765
 51
92.1994878648168452
  0
ARC
  5
A71F
  8
0
 10
3619.5155867546682202
 20
324.8375763051963077
 30
0.0
 40
4.8094306542326724
 50
264.2603314851755272
 51
275.752696203867572
  0
POINT
  5
A720
  8
DEFPOINTS
 10
3619.5161307885418864
 20
322.6515163896273179
 30
0.0
  0
ENDSEC
  0
EOF
