  0
SECTION
  2
HEADER
  9
$ACADVER
  1
AC1009
  9
$INSBASE
 10
3814.740079762546884
 20
-38.6931906590667225
 30
0.0
  9
$EXTMIN
 10
3782.5634638935462135
 20
-38.6939364286567127
 30
-0.0015258207003583
  9
$EXTMAX
 10
3814.8691812187657888
 20
-18.4404785556391886
 30
0.0000000349246037
  9
$LIMMIN
 10
0.0
 20
0.0
  9
$LIMMAX
 10
11.6929133858000007
 20
8.2677165353999982
  9
$ORTHOMODE
 70
     1
  9
$REGENMODE
 70
     1
  9
$FILLMODE
 70
     1
  9
$QTEXTMODE
 70
     0
  9
$MIRRTEXT
 70
     0
  9
$DRAGMODE
 70
     2
  9
$LTSCALE
 40
0.6431102362
  9
$OSMODE
 70
  4095
  9
$ATTMODE
 70
     1
  9
$TEXTSIZE
 40
0.2
  9
$TRACEWID
 40
0.05
  9
$TEXTSTYLE
  7
STANDARD
  9
$CLAYER
  8
0
  9
$CELTYPE
  6
BYLAYER
  9
$CECOLOR
 62
   256
  9
$DIMSCALE
 40
1.0
  9
$DIMASZ
 40
0.1875
  9
$DIMEXO
 40
0.0625
  9
$DIMDLI
 40
0.4443307087
  9
$DIMRND
 40
0.0
  9
$DIMDLE
 40
0.0
  9
$DIMEXE
 40
0.125
  9
$DIMTP
 40
0.01
  9
$DIMTM
 40
0.01
  9
$DIMTXT
 40
2.0
  9
$DIMCEN
 40
0.1052362205
  9
$DIMTSZ
 40
0.0
  9
$DIMTOL
 70
     1
  9
$DIMLIM
 70
     0
  9
$DIMTIH
 70
     1
  9
$DIMTOH
 70
     1
  9
$DIMSE1
 70
     0
  9
$DIMSE2
 70
     0
  9
$DIMTAD
 70
     0
  9
$DIMZIN
 70
     0
  9
$DIMBLK
  1

  9
$DIMASO
 70
     1
  9
$DIMSHO
 70
     1
  9
$DIMPOST
  1
\X
  9
$DIMAPOST
  1

  9
$DIMALT
 70
     1
  9
$DIMALTD
 70
     2
  9
$DIMALTF
 40
25.3999999999999986
  9
$DIMLFAC
 40
1.0
  9
$DIMTOFL
 70
     0
  9
$DIMTVP
 40
0.0
  9
$DIMTIX
 70
     0
  9
$DIMSOXD
 70
     0
  9
$DIMSAH
 70
     0
  9
$DIMBLK1
  1

  9
$DIMBLK2
  1

  9
$DIMSTYLE
  2
STANDARD
  9
$DIMCLRD
 70
     0
  9
$DIMCLRE
 70
     0
  9
$DIMCLRT
 70
     0
  9
$DIMTFAC
 40
1.0
  9
$DIMGAP
 40
0.09
  9
$LUNITS
 70
     2
  9
$LUPREC
 70
     4
  9
$SKETCHINC
 40
0.1
  9
$FILLETRAD
 40
0.0
  9
$AUNITS
 70
     0
  9
$AUPREC
 70
     0
  9
$MENU
  1
.
  9
$ELEVATION
 40
0.0
  9
$PELEVATION
 40
0.0
  9
$THICKNESS
 40
0.0
  9
$LIMCHECK
 70
     0
  9
$BLIPMODE
 70
     0
  9
$CHAMFERA
 40
0.0
  9
$CHAMFERB
 40
0.0
  9
$SKPOLY
 70
     0
  9
$TDCREATE
 40
2458060.468368056230247
  9
$TDUPDATE
 40
2459837.3702314808033407
  9
$TDINDWG
 40
0.4468936343
  9
$TDUSRTIMER
 40
0.4468936343
  9
$USRTIMER
 70
     1
  9
$ANGBASE
 50
0.0
  9
$ANGDIR
 70
     0
  9
$PDMODE
 70
     0
  9
$PDSIZE
 40
0.3125
  9
$PLINEWID
 40
0.0
  9
$COORDS
 70
     1
  9
$SPLFRAME
 70
     0
  9
$SPLINETYPE
 70
     6
  9
$SPLINESEGS
 70
     8
  9
$ATTDIA
 70
     1
  9
$ATTREQ
 70
     1
  9
$HANDLING
 70
     1
  9
$HANDSEED
  5
CD2F
  9
$SURFTAB1
 70
     6
  9
$SURFTAB2
 70
     6
  9
$SURFTYPE
 70
     6
  9
$SURFU
 70
     6
  9
$SURFV
 70
     6
  9
$UCSNAME
  2

  9
$UCSORG
 10
0.0
 20
0.0
 30
0.0
  9
$UCSXDIR
 10
1.0
 20
0.0
 30
0.0
  9
$UCSYDIR
 10
0.0
 20
1.0
 30
0.0
  9
$PUCSNAME
  2

  9
$PUCSORG
 10
0.0
 20
0.0
 30
0.0
  9
$PUCSXDIR
 10
1.0
 20
0.0
 30
0.0
  9
$PUCSYDIR
 10
0.0
 20
1.0
 30
0.0
  9
$USERI1
 70
     0
  9
$USERI2
 70
     0
  9
$USERI3
 70
     0
  9
$USERI4
 70
     0
  9
$USERI5
 70
     0
  9
$USERR1
 40
0.0
  9
$USERR2
 40
0.0
  9
$USERR3
 40
0.0
  9
$USERR4
 40
0.0
  9
$USERR5
 40
0.0
  9
$WORLDVIEW
 70
     1
  9
$SHADEDGE
 70
     3
  9
$SHADEDIF
 70
    70
  9
$TILEMODE
 70
     1
  9
$MAXACTVP
 70
    64
  9
$PLIMCHECK
 70
     0
  9
$PEXTMIN
 10
1.0000000000000000E+20
 20
1.0000000000000000E+20
 30
1.0000000000000000E+20
  9
$PEXTMAX
 10
-1.0000000000000000E+20
 20
-1.0000000000000000E+20
 30
-1.0000000000000000E+20
  9
$PLIMMIN
 10
0.0
 20
0.0
  9
$PLIMMAX
 10
12.0
 20
9.0
  9
$UNITMODE
 70
     0
  9
$VISRETAIN
 70
     1
  9
$PLINEGEN
 70
     0
  9
$PSLTSCALE
 70
     1
  0
ENDSEC
  0
SECTION
  2
TABLES
  0
TABLE
  2
VPORT
 70
     1
  0
VPORT
  2
*ACTIVE
 70
     0
 10
0.0
 20
0.0
 11
1.0
 21
1.0
 12
-30.6114362329062715
 22
-119.4602510102142929
 13
0.0
 23
0.0
 14
1.0
 24
1.0
 15
0.0
 25
0.0
 16
0.0
 26
0.0
 36
327.1425206445442768
 17
3829.3277587890629547
 27
90.8930435180664063
 37
0.0
 40
20.4139872617072413
 41
2.5251322751322749
 42
50.0
 43
0.0
 44
0.0
 50
0.0
 51
0.0
 71
     0
 72
   100
 73
     1
 74
     1
 75
     0
 76
     0
 77
     0
 78
     1
  0
ENDTAB
  0
TABLE
  2
LTYPE
 70
     2
  0
LTYPE
  2
CONTINUOUS
 70
     0
  3
Solid line
 72
    65
 73
     0
 40
0.0
  0
LTYPE
  2
PHANTOM2
 70
     0
  3
___ _ _ ___ _ _ ___ _ _ ___ _ _
 72
    65
 73
     6
 40
1.25
 49
0.625
 49
-0.125
 49
0.125
 49
-0.125
 49
0.125
 49
-0.125
  0
ENDTAB
  0
TABLE
  2
LAYER
 70
     2
  0
LAYER
  2
0
 70
     0
 62
   255
  6
CONTINUOUS
  0
LAYER
  2
DEFPOINTS
 70
     0
 62
     7
  6
CONTINUOUS
  0
ENDTAB
  0
TABLE
  2
STYLE
 70
     1
  0
STYLE
  2
STANDARD
 70
     0
 40
0.0
 41
0.8
 50
0.0
 71
     0
 42
0.2
  3
txt
  4

  0
ENDTAB
  0
TABLE
  2
VIEW
 70
     0
  0
ENDTAB
  0
TABLE
  2
UCS
 70
     0
  0
ENDTAB
  0
TABLE
  2
APPID
 70
     9
  0
APPID
  2
ACAD
 70
     0
  0
APPID
  2
ACAD_MLEADERVER
 70
     0
  0
APPID
  2
ACAD_EXEMPT_FROM_CAD_STANDARDS
 70
     0
  0
APPID
  2
ACAD_NAV_VCDISPLAY
 70
     0
  0
APPID
  2
ACAECLAYERSTANDARD
 70
     0
  0
APPID
  2
ACCMTRANSPARENCY
 70
     0
  0
APPID
  2
ACAD_DSTYLE_DIMJAG
 70
     0
  0
APPID
  2
ACAD_DSTYLE_DIMTALN
 70
     0
  0
APPID
  2
ACDBATTR
 70
     0
  0
ENDTAB
  0
TABLE
  2
DIMSTYLE
 70
     1
  0
DIMSTYLE
  2
STANDARD
 70
     0
  3

  4

  5

  6

  7

 40
1.0
 41
0.1875
 42
0.0625
 43
0.38
 44
0.125
 45
0.0
 46
0.0
 47
0.01
 48
0.01
140
0.15625
141
0.09
142
0.0
143
25.3999999999999986
144
1.0
145
0.0
146
1.0
147
0.09
 71
     1
 72
     0
 73
     1
 74
     1
 75
     0
 76
     0
 77
     0
 78
     4
170
     0
171
     2
172
     0
173
     0
174
     0
175
     0
176
     0
177
     0
178
     0
  0
ENDTAB
  0
ENDSEC
  0
SECTION
  2
BLOCKS
  0
BLOCK
  8
0
  2
$MODEL_SPACE
 70
     0
 10
0.0
 20
0.0
 30
0.0
  3
$MODEL_SPACE
  1

  0
ENDBLK
  5
21
  8
0
  0
BLOCK
 67
     1
  8
0
  2
$PAPER_SPACE
 70
     0
 10
0.0
 20
0.0
 30
0.0
  3
$PAPER_SPACE
  1

  0
ENDBLK
  5
1D
 67
     1
  8
0
  0
ENDSEC
  0
SECTION
  2
ENTITIES
  0
ATTDEF
  5
C84A
  8
DEFPOINTS
 10
3814.7399093891681332
 20
-38.6891700924780721
 30
0.0
 40
0.001
  1
K-1122-RAW
  3

  2
MODELNUMBER
 70
     0
1001
ACDBATTR
1070
     0
1070
     1
  0
ATTDEF
  5
C84B
  8
DEFPOINTS
 10
3814.7399093891681332
 20
-38.6908367591447302
 30
0.0
 40
0.001
  1
ARCHER
  3

  2
TRADENAME
 70
     0
1001
ACDBATTR
1070
     0
1070
     1
  0
ATTDEF
  5
C84C
  8
DEFPOINTS
 10
3814.7399093891681332
 20
-38.6925034258113882
 30
0.0
 40
0.001
  1
BATH
  3

  2
PRODUCT
 70
     0
1001
ACDBATTR
1070
     0
1070
     1
  0
LINE
  5
CB85
  8
0
 10
3782.7400821155470112
 20
-38.6931906590667225
 30
0.0
 11
3783.2575821155469384
 21
-38.6931906590667225
 31
0.0
  0
LINE
  5
CB86
  8
0
 10
3784.4383054200470724
 20
-18.4431906590667083
 30
0.0
 11
3814.7400821213459494
 21
-18.4431906590667083
 31
0.0
  0
LINE
  5
CB87
  8
0
 10
3782.7400821155470112
 20
-20.1886181649047884
 30
0.0
 11
3782.7400821155470112
 21
-38.6931906590667225
 31
0.0
  0
ARC
  5
CB88
  8
0
 10
3784.4417843389301197
 20
-18.826589511856529
 30
0.0
 40
0.3834146360279802
 50
90.5198813131931672
 51
134.4801187039280137
  0
LINE
  5
CB89
  8
0
 10
3784.1731403773469538
 20
-18.5530256161667211
 30
0.0
 11
3782.8865816832599194
 21
-19.8395843094534889
 31
0.0
  0
ARC
  5
CB8A
  8
0
 10
3783.2401466966648513
 20
-20.1932477076890606
 30
0.0
 40
0.5000860105583868
 50
134.9920293990219022
 51
179.4695771408667895
  0
LINE
  5
CB8B
  8
0
 10
3783.2575821155469384
 20
-38.6931906590667225
 30
0.0
 11
3783.2575821155469384
 21
-37.7556906590667225
 31
0.0
  0
LINE
  5
CB8C
  8
0
 10
3783.2575821155469384
 20
-37.7556906590667225
 30
0.0
 11
3782.8200821155460289
 21
-37.7556906590667225
 31
0.0
  0
LINE
  5
CB8D
  8
0
 10
3782.8200821155460289
 20
-38.6931906590667225
 30
0.0
 11
3782.8200821155460289
 21
-20.1931906590667083
 31
0.0
  0
ARC
  5
CB8E
  8
0
 10
3783.2400821159249062
 20
-20.1931906591067616
 30
0.0
 40
0.4200000003785292
 50
134.9988797505903051
 51
179.9999999945368927
  0
LINE
  5
CB8F
  8
0
 10
3782.9431030742762232
 20
-19.8962000041377287
 30
0.0
 11
3784.2297340757118036
 21
-18.6096193142404793
 31
0.0
  0
ARC
  5
CB90
  8
0
 10
3784.4383971110269158
 20
-18.8182905092909998
 30
0.0
 40
0.2950998643689546
 50
90.0178024304656645
 51
134.9988797505907883
  0
LINE
  5
CB91
  8
0
 10
3784.438305420245797
 20
-18.5231906591667084
 30
0.0
 11
3814.740079762546884
 21
-18.5231906590761
 31
0.0
  0
LINE
  5
CB92
  8
0
 10
3814.740079762546884
 20
-18.5231906590761
 30
0.0
 11
3814.740079762546884
 21
-18.4431906591667101
 31
0.0
  0
LINE
  5
CB93
  8
0
 10
3785.8560532953038091
 20
-19.8668793891531692
 30
0.0
 11
3811.6243506709979556
 21
-19.8668793891531692
 31
0.0
  0
ARC
  5
CB94
  8
0
 10
3783.2605540164149716
 20
-20.2636986932141703
 30
0.0
 40
0.4922238279839542
 50
96.6330197371658528
 51
124.7266401327439951
  0
ARC
  5
CB95
  8
0
 10
3765.6313903682012096
 20
-545.6796346215354561
 30
0.0
 40
526.1983589804952999
 50
87.9676034847733774
 51
88.0862611134482734
  0
ARC
  5
CB96
  8
0
 10
3833.3480746208961136
 20
1362.5369662052169133
 30
0.0
 40
1383.2193912766310859
 50
267.9676034847734059
 51
268.0323965157979842
  0
ARC
  5
CB97
  8
0
 10
3765.5532879438492273
 20
1318.9627059659719635
 30
0.0
 40
1339.6220367861169507
 50
271.9701578357485232
 51
272.076610967628028
  0
ARC
  5
CB98
  8
0
 10
3814.0886652259500806
 20
-19.4514278503467715
 30
0.0
 40
0.328203226844027
 50
271.1960872637195052
 51
358.2311845183851915
  0
LINE
  5
CB99
  8
0
 10
3814.416675817156829
 20
-19.4623649346674306
 30
0.0
 11
3814.4453628901801494
 21
-18.805322939795559
 31
0.0
  0
ARC
  5
CB9A
  8
0
 10
3814.740082115451969
 20
-18.81819065906258
 30
0.0
 40
0.294999999905252
 50
90.0004569882847392
 51
177.5000000003165042
  0
ARC
  5
CB9B
  8
0
 10
3811.8199162868359053
 20
-20.4198307008373412
 30
0.0
 40
0.570168107984599
 50
103.148996730365198
 51
140.6746123344653085
  0
ARC
  5
CB9C
  8
0
 10
10733.2309714420007367
 20
-6940.5073553323054512
 30
0.0
 40
9787.9849318340802711
 50
135.0058083479109996
 51
135.0091358778406914
  0
ARC
  5
CB9D
  8
0
 10
3811.2794306020878139
 20
-20.7618016346648488
 30
0.0
 40
0.4269295487114842
 50
135.112324189240411
 51
175.2349287218086999
  0
LINE
  5
CB9E
  8
0
 10
3810.8539766560111275
 20
-20.7263364499124307
 30
0.0
 11
3810.4965863797769998
 21
-24.8230132516777608
 31
0.0
  0
ARC
  5
CB9F
  8
0
 10
3810.0433177901841191
 20
-24.7833574116532702
 30
0.0
 40
0.4549999999115849
 50
272.9999999958311037
 51
355.0000249707402986
  0
ARC
  5
CBA0
  8
0
 10
3814.9449889989559779
 20
-118.3128158745514042
 30
0.0
 40
93.2028132406392444
 50
92.9999999958310468
 51
93.2275925640106351
  0
ARC
  5
CBA1
  8
0
 10
3809.7336413209141028
 20
-25.5506161387164887
 30
0.0
 40
0.2950000119592702
 50
97.0462399831375109
 51
174.9999995911807957
  0
LINE
  5
CBA2
  8
0
 10
3809.4397638732461928
 20
-25.5249051914667184
 30
0.0
 11
3808.6680650354642239
 21
-34.3450154636808733
 31
0.0
  0
ARC
  5
CBA3
  8
0
 10
3805.9594998090719855
 20
-33.8245068879318325
 30
0.0
 40
2.7591959343858661
 50
319.8684888716956038
 51
348.9175048827584078
  0
ARC
  5
CBA4
  8
0
 10
3804.2673780918430566
 20
-32.6514125529813128
 30
0.0
 40
4.8129484864815906
 50
294.13768086186559
 51
322.1754677242789171
  0
ARC
  5
CBA5
  8
0
 10
3805.132131094936085
 20
-34.0046612892025735
 30
0.0
 40
3.2330039240890178
 50
281.5927479357326888
 51
289.9558171222814735
  0
LINE
  5
CBA6
  8
0
 10
3806.2410936689761911
 20
-37.0410503460242921
 30
0.0
 11
3806.2410821155472149
 21
-37.5361398765667218
 31
0.0
  0
LINE
  5
CBA7
  8
0
 10
3806.2410821155472149
 20
-37.5361398765667218
 30
0.0
 11
3801.2410821155458507
 21
-37.7107435284667076
 31
0.0
  0
LINE
  5
CBA8
  8
0
 10
3801.2410821155458507
 20
-37.7107435284667076
 30
0.0
 11
3801.2410821155458507
 21
-37.3133781809667227
 31
0.0
  0
LINE
  5
CBA9
  8
0
 10
3801.2410821155458507
 20
-37.3133781809667227
 30
0.0
 11
3806.2410821155472149
 21
-37.1573857647677812
 31
0.0
  0
ARC
  5
CBAA
  8
0
 10
3785.4132825533570212
 20
-21.0726117212876716
 30
0.0
 40
1.2515905601513071
 50
29.0617692362726707
 51
75.1790754074533822
  0
ARC
  5
CBAB
  8
0
 10
3784.9510388509311269
 20
-21.3294894307990006
 30
0.0
 40
1.7804151039050999
 50
19.80601236864916
 51
29.0617692362726707
  0
LINE
  5
CBAC
  8
0
 10
3786.6261338876679474
 20
-20.7262195408568388
 30
0.0
 11
3786.9835929702358044
 21
-24.8231112310247504
 31
0.0
  0
ARC
  5
CBAD
  8
0
 10
3787.4368113631699089
 20
-24.7834008881809709
 30
0.0
 40
0.4549547483242426
 50
185.0073858882190052
 51
267.004124977753122
  0
LINE
  5
CBAE
  8
0
 10
3787.4130335807558367
 20
-25.2377338498800512
 30
0.0
 11
3787.7619633378621984
 21
-25.2559952936704484
 31
0.0
  0
ARC
  5
CBAF
  8
0
 10
3787.7464985505030199
 20
-25.5514880574860896
 30
0.0
 40
0.2958971664539272
 50
5.460333873789442
 51
87.0041249777531647
  0
LINE
  5
CBB0
  8
0
 10
3788.0410530286071662
 20
-25.5233314855267288
 30
0.0
 11
3788.8048631302399372
 21
-34.3547929166751231
 31
0.0
  0
ARC
  5
CBB1
  8
0
 10
3791.906775324227965
 20
-33.6473733880399806
 30
0.0
 40
3.1815564820866631
 50
192.8471056148935929
 51
226.0231261893515011
  0
ARC
  5
CBB2
  8
0
 10
3793.05228874989416
 20
-32.882838632189511
 30
0.0
 40
4.5366407212362549
 50
222.3141888655063099
 51
246.4417962084750968
  0
ARC
  5
CBB3
  8
0
 10
3792.0041355842768098
 20
-35.0931056871773279
 30
0.0
 40
2.0930944083174818
 50
248.5608355762431074
 51
263.8877225683164056
  0
LINE
  5
CBB4
  8
0
 10
3791.239082115545898
 20
-37.0413709135043021
 30
0.0
 11
3791.239082115545898
 21
-37.5361398765667218
 31
0.0
  0
LINE
  5
CBB5
  8
0
 10
3791.239082115545898
 20
-37.5361398765667218
 30
0.0
 11
3796.2390821155468075
 21
-37.710743723966722
 31
0.0
  0
LINE
  5
CBB6
  8
0
 10
3796.2390821155468075
 20
-37.710743723966722
 30
0.0
 11
3796.2390821155468075
 21
-37.3133781809667227
 31
0.0
  0
LINE
  5
CBB7
  8
0
 10
3796.2390821155468075
 20
-37.3133781809667227
 30
0.0
 11
3791.239082115545898
 21
-37.1573857647667225
 31
0.0
  0
LINE
  5
CBB8
  8
0
 10
3796.2390821155468075
 20
-37.3205060016667218
 30
0.0
 11
3796.6865181931498228
 21
-37.3361308138667169
 31
0.0
  0
LINE
  5
CBB9
  8
0
 10
3796.6865181931498228
 20
-37.3361308138667169
 30
0.0
 11
3800.793646037842791
 21
-37.3361308138667169
 31
0.0
  0
LINE
  5
CBBA
  8
0
 10
3800.793646037842791
 20
-37.3361308138667169
 30
0.0
 11
3801.2410821155458507
 21
-37.3205060016667218
 31
0.0
  0
LINE
  5
CBBB
  8
0
 10
3801.2410821155458507
 20
-37.6405352779199873
 30
0.0
 11
3800.3103378620471631
 21
-37.6560760169667219
 31
0.0
  0
ARC
  5
CBBC
  8
0
 10
3800.8086528219341744
 20
-37.7658688693880578
 30
0.0
 40
0.4299999999209485
 50
92.0000000682053241
 51
135.0000000062065055
  0
LINE
  5
CBBD
  8
0
 10
3800.504596906047027
 20
-37.4618129535667066
 30
0.0
 11
3800.2723003696219166
 21
-37.6941094900419174
 31
0.0
  0
ARC
  5
CBBE
  8
0
 10
3800.0813815388628427
 20
-37.5031906593246092
 30
0.0
 40
0.2699999997421119
 50
269.9999999540647764
 51
315.000000006207074
  0
LINE
  5
CBBF
  8
0
 10
3800.0813815386459282
 20
-37.7731906590667066
 30
0.0
 11
3797.398782692345776
 21
-37.7731906569159293
 31
0.0
  0
ARC
  5
CBC0
  8
0
 10
3797.3987826925631452
 20
-37.5031906510577997
 30
0.0
 40
0.2700000058581402
 50
225.0000011692752935
 51
269.9999999540647764
  0
ARC
  5
CBC1
  8
0
 10
3796.6715114186349638
 20
-37.76586884741441
 30
0.0
 40
0.42999997762649
 50
44.9999988256897581
 51
88.0000011743117767
  0
LINE
  5
CBC2
  8
0
 10
3796.9755673249669599
 20
-37.4618129535667066
 30
0.0
 11
3797.2093552425408234
 21
-37.6955893109837206
 31
0.0
  0
LINE
  5
CBC3
  8
0
 10
3797.1698263927460175
 20
-37.6560760179667184
 30
0.0
 11
3796.2390821155468075
 21
-37.6404353960422284
 31
0.0
  0
LINE
  5
CBC4
  8
0
 10
3795.2400821155461017
 20
-37.6758578752561988
 30
0.0
 11
3795.2400821155461017
 21
-38.6931906590667225
 31
0.0
  0
LINE
  5
CBC5
  8
0
 10
3795.2400821155461017
 20
-38.6931906590667225
 30
0.0
 11
3791.7400821155470112
 21
-38.6931906590667225
 31
0.0
  0
LINE
  5
CBC6
  8
0
 10
3791.7400821155470112
 20
-38.6931906590667225
 30
0.0
 11
3791.7400821155470112
 21
-37.5536351820761993
 31
0.0
  0
LINE
  5
CBC7
  8
0
 10
3802.2400821155470112
 20
-37.6758578752561988
 30
0.0
 11
3802.2400821155470112
 21
-38.6931906590667225
 31
0.0
  0
LINE
  5
CBC8
  8
0
 10
3802.2400821155470112
 20
-38.6931906590667225
 30
0.0
 11
3805.7400821155470112
 21
-38.6931906590667225
 31
0.0
  0
LINE
  5
CBC9
  8
0
 10
3805.7400821155470112
 20
-38.6931906590667225
 30
0.0
 11
3805.7400821155470112
 21
-37.5536351820761922
 31
0.0
  0
LINE
  5
CBCA
  8
0
 10
3795.1150821154460573
 20
-21.7643279381667192
 30
0.0
 11
3802.3650821155461017
 21
-21.7643279381667192
 31
0.0
  0
ARC
  5
CBCB
  8
0
 10
3802.3650821155461017
 20
-21.8893288466441511
 30
0.0
 40
0.1250009084774355
 50
0.2184431242710688
 51
90.0
  0
LINE
  5
CBCC
  8
0
 10
3802.4900821155470112
 20
-21.8888522753667196
 30
0.0
 11
3802.4900821155470112
 21
-22.5114739616667201
 31
0.0
  0
ARC
  5
CBCD
  8
0
 10
3802.3654324884200832
 20
-22.5113491017308611
 30
0.0
 40
0.1246496896614304
 50
269.8389493514470132
 51
359.9426075702990033
  0
LINE
  5
CBCE
  8
0
 10
3802.3650821155461017
 20
-22.6359982989667188
 30
0.0
 11
3795.1151107564960512
 21
-22.6359982989667188
 31
0.0
  0
ARC
  5
CBCF
  8
0
 10
3795.1150291032768109
 20
-22.5110506207445304
 30
0.0
 40
0.1249477049023498
 50
180.1941267713806951
 51
270.037442746231477
  0
LINE
  5
CBD0
  8
0
 10
3794.9900821155470112
 20
-22.5114739616667201
 30
0.0
 11
3794.9900821155470112
 21
-21.8917903800964488
 31
0.0
  0
ARC
  5
CBD1
  8
0
 10
3795.116946965950774
 20
-21.8911805475074601
 30
0.0
 40
0.1268663161125106
 50
90.8422402003000542
 51
180.2754156437208053
  0
ARC
  5
CBD2
  8
0
 10
3794.739667337893934
 20
-30.5613318060102408
 30
0.0
 40
0.9058359148387172
 50
354.6815516019805727
 51
179.9260790934295926
  0
ARC
  5
CBD3
  8
0
 10
3794.739667337893934
 20
-30.5613318060102408
 30
0.0
 40
0.9058359148387237
 50
179.9260790934295926
 51
354.6815516019805727
  0
ARC
  5
CBD4
  8
0
 10
3802.7393767662038044
 20
-30.5569190111746103
 30
0.0
 40
0.904592769652327
 50
27.7895372050226186
 51
192.3469079091285039
  0
ARC
  5
CBD5
  8
0
 10
3802.7393767662038044
 20
-30.5569190111746103
 30
0.0
 40
0.9045927696523335
 50
192.3469079091186131
 51
27.7895372050226186
  0
LINE
  5
CBD6
  8
0
 10
3782.8200821155460289
 20
-36.5843087065667234
 30
0.0
 11
3783.2403710131470689
 21
-35.5836208550667195
 31
0.0
  0
LINE
  5
CBD7
  8
0
 10
3783.2403710131470689
 20
-35.5836208550667195
 30
0.0
 11
3783.0095902102470973
 21
-22.6857854413667184
 31
0.0
  0
LINE
  5
CBD8
  8
0
 10
3783.0095902102470973
 20
-22.6857854413667184
 30
0.0
 11
3782.8200821155460289
 21
-21.5614955595667084
 31
0.0
  0
LINE
  5
CBD9
  8
0
 10
3783.0261134767420117
 20
-23.6092347451296192
 30
0.0
 11
3783.662570147146198
 21
-23.6144499785667215
 31
0.0
  0
ARC
  5
CBDA
  8
0
 10
3783.6622816413641885
 20
-23.6496586479254809
 30
0.0
 40
0.0352098513714678
 50
354.7533050858593811
 51
89.5305192144919033
  0
LINE
  5
CBDB
  8
0
 10
3783.6973439706462159
 20
-23.6528783837667191
 30
0.0
 11
3783.7058193416969516
 21
-24.1272613339167208
 31
0.0
  0
ARC
  5
CBDC
  8
0
 10
3783.6758220693559451
 20
-24.1276282950682912
 30
0.0
 40
0.029999999990454
 50
271.2714065681910824
 51
359.0950797350175776
  0
LINE
  5
CBDD
  8
0
 10
3783.6764877216469358
 20
-24.1576209092667185
 30
0.0
 11
3783.0361800189111818
 21
-24.1718318175294193
 31
0.0
  0
LINE
  5
CBDE
  8
0
 10
3783.215676852847082
 20
-34.2035181299667173
 30
0.0
 11
3783.8557940571458857
 21
-34.194878135566718
 31
0.0
  0
ARC
  5
CBDF
  8
0
 10
3783.8561989611657737
 20
-34.2248765379908804
 30
0.0
 40
0.0300011348996412
 50
1.025585450577899
 51
90.7733039383499545
  0
LINE
  5
CBE0
  8
0
 10
3783.8861952899469543
 20
-34.2243395510667199
 30
0.0
 11
3783.8947883523419478
 21
-34.7043518441797403
 31
0.0
  0
ARC
  5
CBE1
  8
0
 10
3783.8596946026591468
 20
-34.7031188695145332
 30
0.0
 40
0.0351154025079844
 50
272.5969084488693284
 51
357.9878126607047761
  0
LINE
  5
CBE2
  8
0
 10
3783.861285649446927
 20
-34.7381982090667165
 30
0.0
 11
3783.2257450353267814
 21
-34.7662068747675619
 31
0.0
  0
ARC
  5
CBE4
  8
0
 10
3794.2072868555360401
 20
-31.6634632680125883
 30
0.0
 40
0.9493575819468002
 50
17.0123267048550488
 51
111.4222897427141987
  0
ARC
  5
CBE5
  8
0
 10
3803.2558408034160493
 20
-31.6703786006265808
 30
0.0
 40
0.9473630055301754
 50
67.8728778850795464
 51
161.983872123488311
  0
ENDSEC
  0
EOF
