  0
SECTION
  2
HEADER
  9
$ACADVER
  1
AC1009
  9
$INSBASE
 10
4487.0980438428077832
 20
291.4691578700644072
 30
0.0
  9
$EXTMIN
 10
4453.8503905991474312
 20
272.6079530660668979
 30
-0.0000000000112498
  9
$EXTMAX
 10
4520.0336246132255837
 20
293.2950112090193784
 30
0.0000000000002956
  9
$LIMMIN
 10
0.0
 20
0.0
  9
$LIMMAX
 10
11.6929133858000007
 20
8.2677165353999982
  9
$ORTHOMODE
 70
     0
  9
$REGENMODE
 70
     1
  9
$FILLMODE
 70
     1
  9
$QTEXTMODE
 70
     0
  9
$MIRRTEXT
 70
     0
  9
$DRAGMODE
 70
     2
  9
$LTSCALE
 40
0.6431102362
  9
$OSMODE
 70
   575
  9
$ATTMODE
 70
     1
  9
$TEXTSIZE
 40
0.2
  9
$TRACEWID
 40
0.05
  9
$TEXTSTYLE
  7
STANDARD
  9
$CLAYER
  8
0
  9
$CELTYPE
  6
BYLAYER
  9
$CECOLOR
 62
   256
  9
$DIMSCALE
 40
1.0
  9
$DIMASZ
 40
0.1875
  9
$DIMEXO
 40
0.0625
  9
$DIMDLI
 40
0.4443307087
  9
$DIMRND
 40
0.0
  9
$DIMDLE
 40
0.0
  9
$DIMEXE
 40
0.125
  9
$DIMTP
 40
0.01
  9
$DIMTM
 40
0.01
  9
$DIMTXT
 40
2.0
  9
$DIMCEN
 40
0.1052362205
  9
$DIMTSZ
 40
0.0
  9
$DIMTOL
 70
     1
  9
$DIMLIM
 70
     0
  9
$DIMTIH
 70
     1
  9
$DIMTOH
 70
     1
  9
$DIMSE1
 70
     0
  9
$DIMSE2
 70
     0
  9
$DIMTAD
 70
     0
  9
$DIMZIN
 70
     0
  9
$DIMBLK
  1

  9
$DIMASO
 70
     1
  9
$DIMSHO
 70
     1
  9
$DIMPOST
  1
\X
  9
$DIMAPOST
  1

  9
$DIMALT
 70
     1
  9
$DIMALTD
 70
     2
  9
$DIMALTF
 40
25.3999999999999986
  9
$DIMLFAC
 40
1.0
  9
$DIMTOFL
 70
     0
  9
$DIMTVP
 40
0.0
  9
$DIMTIX
 70
     0
  9
$DIMSOXD
 70
     0
  9
$DIMSAH
 70
     0
  9
$DIMBLK1
  1

  9
$DIMBLK2
  1

  9
$DIMSTYLE
  2
STANDARD
  9
$DIMCLRD
 70
     0
  9
$DIMCLRE
 70
     0
  9
$DIMCLRT
 70
     0
  9
$DIMTFAC
 40
1.0
  9
$DIMGAP
 40
0.09
  9
$LUNITS
 70
     2
  9
$LUPREC
 70
     4
  9
$SKETCHINC
 40
0.1
  9
$FILLETRAD
 40
0.0
  9
$AUNITS
 70
     0
  9
$AUPREC
 70
     0
  9
$MENU
  1
.
  9
$ELEVATION
 40
0.0
  9
$PELEVATION
 40
0.0
  9
$THICKNESS
 40
0.0
  9
$LIMCHECK
 70
     0
  9
$BLIPMODE
 70
     0
  9
$CHAMFERA
 40
0.0
  9
$CHAMFERB
 40
0.0
  9
$SKPOLY
 70
     0
  9
$TDCREATE
 40
2458060.468368056230247
  9
$TDUPDATE
 40
2459388.0956250000745058
  9
$TDINDWG
 40
0.5672408565
  9
$TDUSRTIMER
 40
0.5672408565
  9
$USRTIMER
 70
     1
  9
$ANGBASE
 50
0.0
  9
$ANGDIR
 70
     0
  9
$PDMODE
 70
     0
  9
$PDSIZE
 40
0.3125
  9
$PLINEWID
 40
0.0
  9
$COORDS
 70
     2
  9
$SPLFRAME
 70
     0
  9
$SPLINETYPE
 70
     6
  9
$SPLINESEGS
 70
     8
  9
$ATTDIA
 70
     1
  9
$ATTREQ
 70
     1
  9
$HANDLING
 70
     1
  9
$HANDSEED
  5
2172D
  9
$SURFTAB1
 70
     6
  9
$SURFTAB2
 70
     6
  9
$SURFTYPE
 70
     6
  9
$SURFU
 70
     6
  9
$SURFV
 70
     6
  9
$UCSNAME
  2

  9
$UCSORG
 10
0.0
 20
0.0
 30
0.0
  9
$UCSXDIR
 10
1.0
 20
0.0
 30
0.0
  9
$UCSYDIR
 10
0.0
 20
1.0
 30
0.0
  9
$PUCSNAME
  2

  9
$PUCSORG
 10
0.0
 20
0.0
 30
0.0
  9
$PUCSXDIR
 10
1.0
 20
0.0
 30
0.0
  9
$PUCSYDIR
 10
0.0
 20
1.0
 30
0.0
  9
$USERI1
 70
     0
  9
$USERI2
 70
     0
  9
$USERI3
 70
     0
  9
$USERI4
 70
     0
  9
$USERI5
 70
     0
  9
$USERR1
 40
0.0
  9
$USERR2
 40
0.0
  9
$USERR3
 40
0.0
  9
$USERR4
 40
0.0
  9
$USERR5
 40
0.0
  9
$WORLDVIEW
 70
     1
  9
$SHADEDGE
 70
     3
  9
$SHADEDIF
 70
    70
  9
$TILEMODE
 70
     1
  9
$MAXACTVP
 70
    64
  9
$PLIMCHECK
 70
     0
  9
$PEXTMIN
 10
1.0000000000000000E+20
 20
1.0000000000000000E+20
 30
1.0000000000000000E+20
  9
$PEXTMAX
 10
-1.0000000000000000E+20
 20
-1.0000000000000000E+20
 30
-1.0000000000000000E+20
  9
$PLIMMIN
 10
0.0
 20
0.0
  9
$PLIMMAX
 10
12.0
 20
9.0
  9
$UNITMODE
 70
     0
  9
$VISRETAIN
 70
     1
  9
$PLINEGEN
 70
     0
  9
$PSLTSCALE
 70
     1
  0
ENDSEC
  0
SECTION
  2
TABLES
  0
TABLE
  2
VPORT
 70
     1
  0
VPORT
  2
*ACTIVE
 70
     0
 10
0.0
 20
0.0
 11
1.0
 21
1.0
 12
575.5766507637375753
 22
150.3718768802901877
 13
0.0
 23
0.0
 14
1.0
 24
1.0
 15
0.0
 25
0.0
 16
0.0
 26
0.0
 36
60.4960186965801583
 17
3911.3653564453120453
 27
132.5796051025390057
 37
0.0
 40
31.8284955432088914
 41
2.3799682034976151
 42
50.0
 43
0.0
 44
0.0
 50
0.0
 51
0.0
 71
     0
 72
   100
 73
     1
 74
     1
 75
     0
 76
     0
 77
     0
 78
     0
  0
ENDTAB
  0
TABLE
  2
LTYPE
 70
     2
  0
LTYPE
  2
CONTINUOUS
 70
     0
  3
Solid line
 72
    65
 73
     0
 40
0.0
  0
LTYPE
  2
PHANTOM2
 70
     0
  3
___ _ _ ___ _ _ ___ _ _ ___ _ _
 72
    65
 73
     6
 40
1.25
 49
0.625
 49
-0.125
 49
0.125
 49
-0.125
 49
0.125
 49
-0.125
  0
ENDTAB
  0
TABLE
  2
LAYER
 70
     2
  0
LAYER
  2
0
 70
     0
 62
   255
  6
CONTINUOUS
  0
LAYER
  2
DEFPOINTS
 70
     0
 62
     7
  6
CONTINUOUS
  0
ENDTAB
  0
TABLE
  2
STYLE
 70
     1
  0
STYLE
  2
STANDARD
 70
     0
 40
0.0
 41
0.8
 50
0.0
 71
     0
 42
0.2
  3
txt
  4

  0
ENDTAB
  0
TABLE
  2
VIEW
 70
     3
  0
ENDTAB
  0
TABLE
  2
UCS
 70
     0
  0
ENDTAB
  0
TABLE
  2
APPID
 70
    11
  0
APPID
  2
ACAD
 70
     0
  0
APPID
  2
ACAD_MLEADERVER
 70
     0
  0
APPID
  2
ACAD_EXEMPT_FROM_CAD_STANDARDS
 70
     0
  0
APPID
  2
ACAD_NAV_VCDISPLAY
 70
     0
  0
APPID
  2
ACAECLAYERSTANDARD
 70
     0
  0
APPID
  2
ACCMTRANSPARENCY
 70
     0
  0
APPID
  2
ACAD_DSTYLE_DIMJAG
 70
     0
  0
APPID
  2
ACAD_DSTYLE_DIMTALN
 70
     0
  0
APPID
  2
ACDBATTR
 70
     0
  0
APPID
  2
ACADANNOTATIVE
 70
     0
  0
APPID
  2
DCO15
 70
     0
  0
ENDTAB
  0
TABLE
  2
DIMSTYLE
 70
     1
  0
DIMSTYLE
  2
STANDARD
 70
     0
  3

  4

  5

  6

  7

 40
1.0
 41
0.1875
 42
0.0625
 43
0.38
 44
0.125
 45
0.0
 46
0.0
 47
0.01
 48
0.01
140
0.15625
141
0.09
142
0.0
143
25.3999999999999986
144
1.0
145
0.0
146
1.0
147
0.09
 71
     1
 72
     0
 73
     1
 74
     1
 75
     0
 76
     0
 77
     0
 78
     4
170
     0
171
     2
172
     0
173
     0
174
     0
175
     0
176
     0
177
     0
178
     0
  0
ENDTAB
  0
ENDSEC
  0
SECTION
  2
BLOCKS
  0
BLOCK
  8
0
  2
$MODEL_SPACE
 70
     0
 10
0.0
 20
0.0
 30
0.0
  3
$MODEL_SPACE
  1

  0
ENDBLK
  5
21
  8
0
  0
BLOCK
 67
     1
  8
0
  2
$PAPER_SPACE
 70
     0
 10
0.0
 20
0.0
 30
0.0
  3
$PAPER_SPACE
  1

  0
ENDBLK
  5
1D
 67
     1
  8
0
  0
ENDSEC
  0
SECTION
  2
ENTITIES
  0
ATTDEF
  5
20106
  8
DEFPOINTS
 10
4487.098064688402701
 20
291.4681014369706986
 30
0.0
 40
0.001
  1
K-11301T
  3

  2
MODELNUMBER
 70
     0
1001
ACDBATTR
1070
     0
1070
     1
  0
ATTDEF
  5
20107
  8
DEFPOINTS
 10
4487.0979388787463904
 20
291.4664345965915118
 30
0.0
 40
0.001
  1
REGATTA
  3

  2
TRADENAME
 70
     0
1001
ACDBATTR
1070
     0
1070
     1
  0
ATTDEF
  5
20108
  8
DEFPOINTS
 10
4487.098064688402701
 20
291.4647681036374252
 30
0.0
 40
0.001
  1
BATH
  3

  2
PRODUCT
 70
     0
1001
ACDBATTR
1070
     0
1070
     1
  0
LINE
  5
21699
  8
0
 10
4454.1846580160572557
 20
291.4888429094643243
 30
0.0
 11
4454.1846580160572557
 21
293.1620712558644186
 31
0.0
  0
LINE
  5
2169A
  8
0
 10
4468.5875861632566739
 20
277.1476765633644277
 30
0.0
 11
4468.2828886816578233
 21
278.9263330305644217
 31
0.0
  0
LINE
  5
2169B
  8
0
 10
4478.1413245039566391
 20
272.6108901535642985
 30
0.0
 11
4480.5035292283573654
 21
272.6108901535642985
 31
0.0
  0
LINE
  5
2169C
  8
0
 10
4499.1782521723571335
 20
272.6108901535642985
 30
0.0
 11
4501.5404568967578598
 21
272.6108901535642985
 31
0.0
  0
LINE
  5
2169D
  8
0
 10
4507.3924268388573182
 20
273.2014413346643096
 30
0.0
 11
4505.0557848282569466
 21
273.2014413346643096
 31
0.0
  0
LINE
  5
2169E
  8
0
 10
4478.1413245039566391
 20
274.4704542178644147
 30
0.0
 11
4478.1413245039566391
 21
272.6108901535642985
 31
0.0
  0
LINE
  5
2169F
  8
0
 10
4480.5035292283573654
 20
274.3851515061642772
 30
0.0
 11
4480.5035292283573654
 21
272.6108901535642985
 31
0.0
  0
LINE
  5
216A0
  8
0
 10
4504.4348386615565687
 20
273.3835066754642753
 30
0.0
 11
4504.2252186143568906
 21
273.518025170664373
 31
0.0
  0
LINE
  5
216A1
  8
0
 10
4454.2043430554567749
 20
291.4691578700644072
 30
0.0
 11
4519.9917446301569726
 21
291.4691578700644072
 31
0.0
  0
LINE
  5
216A2
  8
0
 10
4519.8933194333567371
 20
293.2801814920642869
 30
0.0
 11
4454.3027682522570103
 21
293.2801814920642869
 31
0.0
  0
LINE
  5
216A3
  8
0
 10
4499.1782521723571335
 20
273.7549349639642742
 30
0.0
 11
4499.1782521723571335
 21
272.6108901535642985
 31
0.0
  0
LINE
  5
216A4
  8
0
 10
4501.5404568967578598
 20
273.694090644864275
 30
0.0
 11
4501.5404568967578598
 21
272.6108901535642985
 31
0.0
  0
LINE
  5
216A5
  8
0
 10
4507.977898834557891
 20
273.3616353127644061
 30
0.0
 11
4508.2131433750582801
 21
273.5008455784642933
 31
0.0
  0
LINE
  5
216A6
  8
0
 10
4516.9751503447578216
 20
291.3046883164644214
 30
0.0
 11
4517.0481070240575718
 21
291.4691578700644072
 31
0.0
  0
LINE
  5
216A7
  8
0
 10
4514.5254970482574208
 20
275.1785396703642732
 30
0.0
 11
4516.9605102995110428
 21
291.2545462207178275
 31
0.0
  0
LINE
  5
216A8
  8
0
 10
4520.0114296695574012
 20
293.1620712558644186
 30
0.0
 11
4520.0114296695574012
 21
291.4888429094643243
 31
0.0
  0
ARC
  5
216A9
  8
0
 10
4515.8252189334589275
 20
291.0948643844619141
 30
0.0
 40
0.2010625342173176
 50
153.0857884976229002
 51
172.2231921561468937
  0
ARC
  5
216AA
  8
0
 10
4517.1541780563993598
 20
291.2252091067347806
 30
0.0
 40
0.1958771715003911
 50
156.0612102170073001
 51
171.3862274868488953
  0
ARC
  5
216AB
  8
0
 10
4454.3027682522570103
 20
293.1620712558644186
 30
0.0
 40
0.1181102362
 50
90.0
 51
180.0
  0
ARC
  5
216AC
  8
0
 10
4519.8933194333567371
 20
293.1620712558644186
 30
0.0
 40
0.1181102362
 50
0.0
 51
90.0
  0
ARC
  5
216AD
  8
0
 10
4454.2043430554567749
 20
291.4888429094643243
 30
0.0
 40
0.0196850394
 50
180.0
 51
270.0
  0
ARC
  5
216AE
  8
0
 10
4519.9917446301569726
 20
291.4888429094643243
 30
0.0
 40
0.0196850394
 50
270.0
 51
0.0
  0
ARC
  5
216AF
  8
0
 10
4504.1155115714946078
 20
330.5946719280706816
 30
0.0
 40
57.3772397400288199
 50
276.9186739414171825
 51
278.0484033656445035
  0
ARC
  5
216B0
  8
0
 10
4558.3974866735443356
 20
365.1003623536918781
 30
0.0
 40
124.0077004356155044
 50
216.4245109519872869
 51
219.5970792111708931
  0
ARC
  5
216B1
  8
0
 10
4594.0559898153296672
 20
395.4226705451490034
 30
0.0
 40
170.8123696551868989
 50
219.8105952105470067
 51
222.1138415721090098
  0
ARC
  5
216B2
  8
0
 10
4464.3295921477983939
 20
278.221882920625319
 30
0.0
 40
4.0163677107570424
 50
23.5282636531288212
 51
41.3418734538186499
  0
ARC
  5
216B3
  8
0
 10
4464.4445133708750291
 20
278.2600721956018219
 30
0.0
 40
3.895770594712594
 50
9.8472210666196762
 51
23.6880186348411499
  0
ARC
  5
216B4
  8
0
 10
4471.4979444049658923
 20
277.6462428169891723
 30
0.0
 40
2.9527535292232989
 50
189.7208407040834004
 51
267.4040630192488948
  0
ARC
  5
216B5
  8
0
 10
4414.1063734171957549
 20
-1419.3984663556059331
 30
0.0
 40
1695.0623234965330539
 50
87.8350025122323927
 51
88.064226655387202
  0
ARC
  5
216B6
  8
0
 10
4476.9288048335365602
 20
208.1435645160244974
 30
0.0
 40
66.3379717919623033
 50
86.9110319773379274
 51
88.9526944126091053
  0
ARC
  5
216B7
  8
0
 10
4561.9473974658139923
 20
2437.7998647617819188
 30
0.0
 40
2164.9676696703550078
 50
267.8440826991682115
 51
268.3385843553376162
  0
ARC
  5
216B8
  8
0
 10
4488.2732437732020117
 20
-195.5036478916356089
 30
0.0
 40
469.3852754314215758
 50
88.3803144012993158
 51
88.6687541979002276
  0
ARC
  5
216B9
  8
0
 10
4509.846079172059035
 20
656.6499028276265335
 30
0.0
 40
383.0549169209155025
 50
268.7575818056797061
 51
269.0997074700590019
  0
ARC
  5
216BA
  8
0
 10
4503.7999067013179229
 20
272.8552416178739009
 30
0.0
 40
0.7875101657903057
 50
57.3114836324771915
 51
88.0023189262405623
  0
ARC
  5
216BB
  8
0
 10
4505.0591377907867354
 20
274.3627989738009774
 30
0.0
 40
1.161362479305559
 50
237.4824773607215889
 51
269.8345814746446081
  0
ARC
  5
216BC
  8
0
 10
4507.388475953213856
 20
274.3658603677603764
 30
0.0
 40
1.164425735774385
 50
270.1944044176726152
 51
300.410505675220918
  0
ARC
  5
216BD
  8
0
 10
4508.614107056832836
 20
272.8232239179642988
 30
0.0
 40
0.7873645844726967
 50
90.5045111996922742
 51
120.6137390023229017
  0
ARC
  5
216BE
  8
0
 10
4512.2512868497251475
 20
1183.0174022900589534
 30
0.0
 40
909.4141455015375186
 50
269.4692600251876797
 51
269.7704095099459778
  0
ARC
  5
216BF
  8
0
 10
4507.8624128039427887
 20
465.2412326832965732
 30
0.0
 40
191.6321219346455962
 50
270.2226755412546026
 51
270.9462765860690752
  0
ARC
  5
216C0
  8
0
 10
4507.6923213165737252
 20
475.5724143639433805
 30
0.0
 40
201.9647036906991957
 50
270.9461205407837951
 51
271.4544748709315058
  0
ARC
  5
216C1
  8
0
 10
4512.7738241513898174
 20
275.4438665345505228
 30
0.0
 40
1.771653544707676
 50
271.452116229698504
 51
351.386849735445594
  0
ARC
  5
216C2
  8
0
 10
4512.0648992024662221
 20
275.5404149389710255
 30
0.0
 40
1.759829947197262
 50
272.7351693433602122
 51
351.6732272314046099
  0
ARC
  5
216C3
  8
0
 10
1927.8678017644540432
 20
580.4674701727440151
 30
0.0
 40
2603.8842681026308128
 50
353.2693180943950892
 51
353.6200779280731012
  0
ARC
  5
216C4
  8
0
 10
4505.3194221358371578
 20
378.4431046022796181
 30
0.0
 40
87.8818832183192171
 50
275.2011879908914125
 51
276.5025770127464853
  0
ARC
  5
216C5
  8
0
 10
4514.7255609511048533
 20
295.7829984122819269
 30
0.0
 40
4.6883490678592086
 50
276.6914719254968986
 51
281.3213061070230765
  0
ARC
  5
216C6
  8
0
 10
4516.208644300607375
 20
288.3349854833638801
 30
0.0
 40
2.9058943774557222
 50
95.041241983954265
 51
101.1655379854543071
  0
ARC
  5
216C7
  8
0
 10
4485.7151806269939698
 20
709.939417155757269
 30
0.0
 40
419.8002166472845147
 50
274.1305790727932958
 51
274.2704210477858169
  0
ARC
  5
216C8
  8
0
 10
4498.7748321134258731
 20
489.1777115586596096
 30
0.0
 40
198.7850128383012134
 50
271.7209389005976163
 51
274.1863331895419833
  0
ARC
  5
216C9
  8
0
 10
4513.0538764919883761
 20
119.8024628223626991
 30
0.0
 40
170.8820372324447021
 50
92.7871353359633133
 51
96.5180680993052391
  0
ARC
  5
216CA
  8
0
 10
4498.6741075596519295
 20
236.9438889843665947
 30
0.0
 40
52.874715590236363
 50
95.4459520388566034
 51
117.6791202247848958
  0
ARC
  5
216CB
  8
0
 10
4482.8838082627826225
 20
263.5040279519221826
 30
0.0
 40
22.0805471948324588
 50
113.4050525165400956
 51
132.3395578797016015
  0
ENDSEC
  0
EOF
