  0
SECTION
  2
HEADER
  9
$ACADVER
  1
AC1009
  9
$INSBASE
 10
3289.8793716542090806
 20
201.2116920969278056
 30
0.0
  9
$EXTMIN
 10
3256.8118717323259261
 20
182.9361168110885956
 30
-0.0015258207003583
  9
$EXTMAX
 10
3322.9320124767959896
 20
203.0251122706214062
 30
0.0000000349246037
  9
$LIMMIN
 10
0.0
 20
0.0
  9
$LIMMAX
 10
11.6929133858000007
 20
8.2677165353999982
  9
$ORTHOMODE
 70
     0
  9
$REGENMODE
 70
     1
  9
$FILLMODE
 70
     1
  9
$QTEXTMODE
 70
     0
  9
$MIRRTEXT
 70
     0
  9
$DRAGMODE
 70
     2
  9
$LTSCALE
 40
0.6431102362
  9
$OSMODE
 70
  4095
  9
$ATTMODE
 70
     1
  9
$TEXTSIZE
 40
0.2
  9
$TRACEWID
 40
0.05
  9
$TEXTSTYLE
  7
STANDARD
  9
$CLAYER
  8
0
  9
$CELTYPE
  6
BYLAYER
  9
$CECOLOR
 62
   256
  9
$DIMSCALE
 40
1.0
  9
$DIMASZ
 40
0.1875
  9
$DIMEXO
 40
0.0625
  9
$DIMDLI
 40
0.4443307087
  9
$DIMRND
 40
0.0
  9
$DIMDLE
 40
0.0
  9
$DIMEXE
 40
0.125
  9
$DIMTP
 40
0.01
  9
$DIMTM
 40
0.01
  9
$DIMTXT
 40
2.0
  9
$DIMCEN
 40
0.1052362205
  9
$DIMTSZ
 40
0.0
  9
$DIMTOL
 70
     1
  9
$DIMLIM
 70
     0
  9
$DIMTIH
 70
     1
  9
$DIMTOH
 70
     1
  9
$DIMSE1
 70
     0
  9
$DIMSE2
 70
     0
  9
$DIMTAD
 70
     0
  9
$DIMZIN
 70
     0
  9
$DIMBLK
  1

  9
$DIMASO
 70
     1
  9
$DIMSHO
 70
     1
  9
$DIMPOST
  1
\X
  9
$DIMAPOST
  1

  9
$DIMALT
 70
     1
  9
$DIMALTD
 70
     2
  9
$DIMALTF
 40
25.3999999999999986
  9
$DIMLFAC
 40
1.0
  9
$DIMTOFL
 70
     0
  9
$DIMTVP
 40
0.0
  9
$DIMTIX
 70
     0
  9
$DIMSOXD
 70
     0
  9
$DIMSAH
 70
     0
  9
$DIMBLK1
  1

  9
$DIMBLK2
  1

  9
$DIMSTYLE
  2
STANDARD
  9
$DIMCLRD
 70
     0
  9
$DIMCLRE
 70
     0
  9
$DIMCLRT
 70
     0
  9
$DIMTFAC
 40
1.0
  9
$DIMGAP
 40
0.09
  9
$LUNITS
 70
     2
  9
$LUPREC
 70
     4
  9
$SKETCHINC
 40
0.1
  9
$FILLETRAD
 40
0.0
  9
$AUNITS
 70
     0
  9
$AUPREC
 70
     0
  9
$MENU
  1
.
  9
$ELEVATION
 40
0.0
  9
$PELEVATION
 40
0.0
  9
$THICKNESS
 40
0.0
  9
$LIMCHECK
 70
     0
  9
$BLIPMODE
 70
     0
  9
$CHAMFERA
 40
0.0
  9
$CHAMFERB
 40
0.0
  9
$SKPOLY
 70
     0
  9
$TDCREATE
 40
2458060.468368056230247
  9
$TDUPDATE
 40
2459781.6074189809150994
  9
$TDINDWG
 40
0.3884561343
  9
$TDUSRTIMER
 40
0.3884561343
  9
$USRTIMER
 70
     1
  9
$ANGBASE
 50
0.0
  9
$ANGDIR
 70
     0
  9
$PDMODE
 70
     0
  9
$PDSIZE
 40
0.3125
  9
$PLINEWID
 40
0.0
  9
$COORDS
 70
     1
  9
$SPLFRAME
 70
     0
  9
$SPLINETYPE
 70
     6
  9
$SPLINESEGS
 70
     8
  9
$ATTDIA
 70
     1
  9
$ATTREQ
 70
     1
  9
$HANDLING
 70
     1
  9
$HANDSEED
  5
807E
  9
$SURFTAB1
 70
     6
  9
$SURFTAB2
 70
     6
  9
$SURFTYPE
 70
     6
  9
$SURFU
 70
     6
  9
$SURFV
 70
     6
  9
$UCSNAME
  2

  9
$UCSORG
 10
0.0
 20
0.0
 30
0.0
  9
$UCSXDIR
 10
1.0
 20
0.0
 30
0.0
  9
$UCSYDIR
 10
0.0
 20
1.0
 30
0.0
  9
$PUCSNAME
  2

  9
$PUCSORG
 10
0.0
 20
0.0
 30
0.0
  9
$PUCSXDIR
 10
1.0
 20
0.0
 30
0.0
  9
$PUCSYDIR
 10
0.0
 20
1.0
 30
0.0
  9
$USERI1
 70
     0
  9
$USERI2
 70
     0
  9
$USERI3
 70
     0
  9
$USERI4
 70
     0
  9
$USERI5
 70
     0
  9
$USERR1
 40
0.0
  9
$USERR2
 40
0.0
  9
$USERR3
 40
0.0
  9
$USERR4
 40
0.0
  9
$USERR5
 40
0.0
  9
$WORLDVIEW
 70
     1
  9
$SHADEDGE
 70
     3
  9
$SHADEDIF
 70
    70
  9
$TILEMODE
 70
     1
  9
$MAXACTVP
 70
    64
  9
$PLIMCHECK
 70
     0
  9
$PEXTMIN
 10
1.0000000000000000E+20
 20
1.0000000000000000E+20
 30
1.0000000000000000E+20
  9
$PEXTMAX
 10
-1.0000000000000000E+20
 20
-1.0000000000000000E+20
 30
-1.0000000000000000E+20
  9
$PLIMMIN
 10
0.0
 20
0.0
  9
$PLIMMAX
 10
12.0
 20
9.0
  9
$UNITMODE
 70
     0
  9
$VISRETAIN
 70
     1
  9
$PLINEGEN
 70
     0
  9
$PSLTSCALE
 70
     1
  0
ENDSEC
  0
SECTION
  2
TABLES
  0
TABLE
  2
VPORT
 70
     1
  0
VPORT
  2
*ACTIVE
 70
     0
 10
0.0
 20
0.0
 11
1.0
 21
1.0
 12
200.0606628076857021
 22
-4.1809560485317263
 13
0.0
 23
0.0
 14
1.0
 24
1.0
 15
0.0
 25
0.0
 16
0.0
 26
0.0
 36
95.5902297660485658
 17
3089.811279296875
 27
197.161570589386713
 37
0.0
 40
33.0769211905111007
 41
2.005224660397074
 42
50.0
 43
0.0
 44
0.0
 50
0.0
 51
0.0
 71
     0
 72
   100
 73
     1
 74
     1
 75
     0
 76
     0
 77
     0
 78
     0
  0
ENDTAB
  0
TABLE
  2
LTYPE
 70
     2
  0
LTYPE
  2
CONTINUOUS
 70
     0
  3
Solid line
 72
    65
 73
     0
 40
0.0
  0
LTYPE
  2
PHANTOM2
 70
     0
  3
___ _ _ ___ _ _ ___ _ _ ___ _ _
 72
    65
 73
     6
 40
1.25
 49
0.625
 49
-0.125
 49
0.125
 49
-0.125
 49
0.125
 49
-0.125
  0
ENDTAB
  0
TABLE
  2
LAYER
 70
     2
  0
LAYER
  2
0
 70
     0
 62
   255
  6
CONTINUOUS
  0
LAYER
  2
DEFPOINTS
 70
     0
 62
     7
  6
CONTINUOUS
  0
ENDTAB
  0
TABLE
  2
STYLE
 70
     1
  0
STYLE
  2
STANDARD
 70
     0
 40
0.0
 41
0.8
 50
0.0
 71
     0
 42
0.2
  3
txt
  4

  0
ENDTAB
  0
TABLE
  2
VIEW
 70
     0
  0
ENDTAB
  0
TABLE
  2
UCS
 70
     0
  0
ENDTAB
  0
TABLE
  2
APPID
 70
     9
  0
APPID
  2
ACAD
 70
     0
  0
APPID
  2
ACAD_MLEADERVER
 70
     0
  0
APPID
  2
ACAD_EXEMPT_FROM_CAD_STANDARDS
 70
     0
  0
APPID
  2
ACAD_NAV_VCDISPLAY
 70
     0
  0
APPID
  2
ACAECLAYERSTANDARD
 70
     0
  0
APPID
  2
ACCMTRANSPARENCY
 70
     0
  0
APPID
  2
ACAD_DSTYLE_DIMJAG
 70
     0
  0
APPID
  2
ACAD_DSTYLE_DIMTALN
 70
     0
  0
APPID
  2
ACDBATTR
 70
     0
  0
ENDTAB
  0
TABLE
  2
DIMSTYLE
 70
     1
  0
DIMSTYLE
  2
STANDARD
 70
     0
  3

  4

  5

  6

  7

 40
1.0
 41
0.1875
 42
0.0625
 43
0.38
 44
0.125
 45
0.0
 46
0.0
 47
0.01
 48
0.01
140
0.15625
141
0.09
142
0.0
143
25.3999999999999986
144
1.0
145
0.0
146
1.0
147
0.09
 71
     1
 72
     0
 73
     1
 74
     1
 75
     0
 76
     0
 77
     0
 78
     4
170
     0
171
     2
172
     0
173
     0
174
     0
175
     0
176
     0
177
     0
178
     0
  0
ENDTAB
  0
ENDSEC
  0
SECTION
  2
BLOCKS
  0
BLOCK
  8
0
  2
$MODEL_SPACE
 70
     0
 10
0.0
 20
0.0
 30
0.0
  3
$MODEL_SPACE
  1

  0
ENDBLK
  5
21
  8
0
  0
BLOCK
 67
     1
  8
0
  2
$PAPER_SPACE
 70
     0
 10
0.0
 20
0.0
 30
0.0
  3
$PAPER_SPACE
  1

  0
ENDBLK
  5
1D
 67
     1
  8
0
  0
ENDSEC
  0
SECTION
  2
ENTITIES
  0
ATTDEF
  5
7D5C
  8
DEFPOINTS
 10
3289.8728629871811791
 20
201.2184090071040998
 30
0.0
 40
0.001
  1
K-11303T-GE1
  3

  2
MODELNUMBER
 70
     0
1001
ACDBATTR
1070
     0
1070
     1
  0
ATTDEF
  5
7D5D
  8
DEFPOINTS
 10
3289.8728629871811791
 20
201.2167423404374063
 30
0.0
 40
0.001
  1
REGATTA
  3

  2
TRADENAME
 70
     0
1001
ACDBATTR
1070
     0
1070
     1
  0
ATTDEF
  5
7D5E
  8
DEFPOINTS
 10
3289.8728629871811791
 20
201.2150756737707979
 30
0.0
 40
0.001
  1
BATH
  3

  2
PRODUCT
 70
     0
1001
ACDBATTR
1070
     0
1070
     1
  0
ARC
  5
7F31
  8
0
 10
3322.6746472447089218
 20
202.9046054828278045
 30
0.0
 40
0.1181102361999979
 50
0.0
 51
90.0
  0
LINE
  5
7F32
  8
0
 10
3322.7927574809091311
 20
202.9046054828278045
 30
0.0
 11
3322.7927574810091755
 21
201.2313771363290016
 31
0.0
  0
LINE
  5
7F33
  8
0
 10
3322.7730724416092016
 20
201.2116920969278056
 30
0.0
 11
3256.9856708668089595
 21
201.2116920969278056
 31
0.0
  0
LINE
  5
7F34
  8
0
 10
3322.6746472447089218
 20
203.0227157190277865
 30
0.0
 11
3257.084096063609195
 21
203.0227157190277865
 31
0.0
  0
ARC
  5
7F35
  8
0
 10
3322.7730724416092016
 20
201.2313771363278079
 30
0.0
 40
0.0196850394000023
 50
270.0
 51
0.0000000034278746
  0
ARC
  5
7F36
  8
0
 10
3257.084096063609195
 20
202.9046054828278045
 30
0.0
 40
0.1181102361999979
 50
90.0
 51
180.0000000000015916
  0
LINE
  5
7F37
  8
0
 10
3256.9659858274089856
 20
202.9046054828278045
 30
0.0
 11
3256.9659858273089412
 21
201.2313771363290016
 31
0.0
  0
ARC
  5
7F38
  8
0
 10
3256.9856708667089151
 20
201.2313771363278079
 30
0.0
 40
0.0196850394000023
 50
179.999999996572086
 51
270.0
  0
ARC
  5
7F39
  8
0
 10
3319.9375291396809189
 20
200.9671302513932858
 30
0.0
 40
0.1979701811330256
 50
156.1366062114759927
 51
171.3802065908772931
  0
LINE
  5
7F3A
  8
0
 10
3319.8296083419090792
 20
201.2116920969278056
 30
0.0
 11
3319.7564829120087779
 21
201.0472205508278023
 31
0.0
  0
LINE
  5
7F3B
  8
0
 10
3319.7417950983522132
 20
200.9968014105029965
 30
0.0
 11
3317.306825120609119
 21
184.9210761995277892
 31
0.0
  0
ARC
  5
7F3C
  8
0
 10
3315.5551520083217838
 20
185.1864006078313025
 30
0.0
 40
1.771653389901928
 50
271.45222492788929
 51
351.3869293070094955
  0
ARC
  5
7F3D
  8
0
 10
3310.6306087449079314
 20
377.1904310742525013
 30
0.0
 40
193.83882604593731
 50
270.2235572974987008
 51
271.4690519625759748
  0
ARC
  5
7F3E
  8
0
 10
-176463.7473636140057351
 20
303975.2936604988062754
 30
0.0
 40
352999.3875568090006709
 50
300.6156901423673844
 51
300.6157345115486237
  0
ARC
  5
7F3F
  8
0
 10
3311.3930023537041052
 20
182.685267378160006
 30
0.0
 40
0.6678407755511373
 50
90.5210325208811071
 51
91.2967077780906351
  0
ARC
  5
7F40
  8
0
 10
3311.3979306920100498
 20
182.4826377836349991
 30
0.0
 40
0.8705300736886806
 50
91.3191903226863246
 51
92.0494927497268236
  0
ARC
  5
7F41
  8
0
 10
3311.3926536784410928
 20
182.6089893973195046
 30
0.0
 40
0.7440548237521903
 50
92.7369916374270957
 51
95.4831328482515431
  0
ARC
  5
7F42
  8
0
 10
3311.3934033265381913
 20
182.6204099346635132
 30
0.0
 40
0.7326842539720659
 50
92.0809794595458015
 51
92.8381931329153929
  0
ARC
  5
7F43
  8
0
 10
3311.3945808065618621
 20
182.5739429643475944
 30
0.0
 40
0.7791263527461326
 50
95.3779380625857129
 51
98.4784260618734919
  0
ARC
  5
7F44
  8
0
 10
3311.3962191795280887
 20
182.5618740663433925
 30
0.0
 40
0.7913049279376501
 50
98.4669181608981461
 51
105.6372780760169974
  0
ARC
  5
7F45
  8
0
 10
3311.3967377488138482
 20
182.5627076245012859
 30
0.0
 40
0.7906423319732255
 50
105.689748692843196
 51
111.3637086307517023
  0
ARC
  5
7F46
  8
0
 10
3311.3986255876498035
 20
182.5586712432063905
 30
0.0
 40
0.795089127524949
 50
111.3844422011117956
 51
120.5496198109217971
  0
ARC
  5
7F47
  8
0
 10
3310.1728996948718304
 20
184.0970801257911091
 30
0.0
 40
1.1531048043771339
 50
270.0369753147281244
 51
300.5632532009831834
  0
LINE
  5
7F48
  8
0
 10
3310.173643840609202
 20
182.9439755615277932
 30
0.0
 11
3307.8372177138089683
 21
182.9439755615277932
 31
0.0
  0
ARC
  5
7F49
  8
0
 10
3311.7969175849489147
 20
190.4031323218808041
 30
0.0
 40
8.5985149210256715
 50
236.1691426026685008
 51
238.0881298775960033
  0
ARC
  5
7F4A
  8
0
 10
3306.5391298898348396
 20
180.972109587270495
 30
0.0
 40
2.4137071753560839
 50
88.1324806717521341
 51
88.619464413635697
  0
ARC
  5
7F4B
  8
0
 10
3306.6601800677622123
 20
183.966638369920787
 30
0.0
 40
0.5836451317909508
 50
265.8348694858605086
 51
267.0479955425602157
  0
ARC
  5
7F4C
  8
0
 10
3306.5808777211450433
 20
182.5954824020817
 30
0.0
 40
0.7898112442806438
 50
81.9226733452521927
 51
84.8086374361548536
  0
ARC
  5
7F4D
  8
0
 10
3306.577446079881156
 20
182.5559550317460946
 30
0.0
 40
0.8294869938668423
 50
84.8196179789281359
 51
86.3589787270240379
  0
ARC
  5
7F4E
  8
0
 10
3306.5835152663321423
 20
182.6085519435160052
 30
0.0
 40
0.7765011480733481
 50
77.5363761909847398
 51
81.9798572613238861
  0
ARC
  5
7F4F
  8
0
 10
3306.5793057086389126
 20
182.5911672298155963
 30
0.0
 40
0.7943847465990893
 50
71.2493573689120581
 51
77.5105271267395892
  0
ARC
  5
7F50
  8
0
 10
3306.5840345520377923
 20
182.6046090892820075
 30
0.0
 40
0.7801362220125748
 50
65.7913681062997853
 51
71.26088652488815
  0
ARC
  5
7F51
  8
0
 10
3306.4092076056949736
 20
182.2472137014808879
 30
0.0
 40
1.1778619128558421
 50
59.3453996463304208
 51
65.1639144158110355
  0
ARC
  5
7F52
  8
0
 10
3307.8379618595458851
 20
184.0970801257911091
 30
0.0
 40
1.1531048043771339
 50
239.4367467990167029
 51
269.9630246852719893
  0
ARC
  5
7F53
  8
0
 10
3312.8810333036772136
 20
580.7659151453791537
 30
0.0
 40
397.4304781270911917
 50
268.7209594060119002
 51
269.0940618913921867
  0
ARC
  5
7F54
  8
0
 10
3336.4026952101530696
 20
1460.1547850564179498
 30
0.0
 40
1277.1311958680289536
 50
267.9692726265852798
 51
268.5466031106151945
  0
ARC
  5
7F55
  8
0
 10
3380.1463517483471151
 20
2808.7282680299849744
 30
0.0
 40
2626.4109619050741458
 50
268.0090108591018065
 51
268.0580854622151037
  0
ARC
  5
7F56
  8
0
 10
3352.5324962536437852
 20
2010.6532229136550995
 30
0.0
 40
1827.8583472041520963
 50
267.8185539779439068
 51
268.0049422981246039
  0
ARC
  5
7F57
  8
0
 10
3264.4251726555658024
 20
-276.5764573429779034
 30
0.0
 40
461.0685482251719236
 50
87.6965403254577751
 51
87.976020848339104
  0
ARC
  5
7F58
  8
0
 10
3042.6705741361379296
 20
-6178.0990620771017348
 30
0.0
 40
6366.754923359586428
 50
87.8573415748978164
 51
87.8764856444525293
  0
LINE
  5
7F59
  8
0
 10
3278.5832472191359557
 20
184.2836256274316895
 30
0.0
 11
3274.2168678199091119
 21
184.4358282575277883
 31
0.0
  0
ARC
  5
7F5A
  8
0
 10
3274.2809774885158731
 20
187.3897275137510121
 30
0.0
 40
2.9545948733328871
 50
189.7334240694696916
 51
268.7566817481612134
  0
ARC
  5
7F5B
  8
0
 10
3368.5034018589740299
 20
280.5677449407912718
 30
0.0
 40
133.3008112780131
 50
216.53584268167819
 51
222.4379957609770031
  0
ARC
  5
7F5C
  8
0
 10
3267.1064546843440439
 20
187.9639117362864909
 30
0.0
 40
4.0200548281156987
 50
10.0995898328769407
 51
41.3052432040324717
  0
LINE
  5
7F5D
  8
0
 10
3271.0642164930090985
 20
188.6688672575276939
 30
0.0
 11
3271.368913974708903
 21
186.8902107902277976
 31
0.0
  0
ARC
  5
7F5E
  8
0
 10
3310.9016789278289252
 20
247.8021265968625926
 30
0.0
 40
47.4836237459006085
 50
272.0766887944250243
 51
275.531221155081198
  0
ARC
  5
7F5F
  8
0
 10
3320.8692392192920124
 20
-74.1048857728901282
 30
0.0
 40
274.5784494457216738
 50
91.7211222775873551
 51
92.3069270523528758
  0
ARC
  5
7F60
  8
0
 10
3318.4964705680417865
 20
-5.0056652453073411
 30
0.0
 40
205.440131536987991
 50
92.4214341965464286
 51
93.461673336559798
  0
ARC
  5
7F61
  8
0
 10
3317.9666595289731958
 20
3.8352402741498959
 30
0.0
 40
196.5833627668262977
 50
93.4631277572150481
 51
95.189645878461846
  0
ARC
  5
7F62
  8
0
 10
3310.7723075794310716
 20
81.9355481121086342
 30
0.0
 40
118.1525015908085976
 50
95.1409181038021643
 51
97.8033917963527557
  0
ARC
  5
7F63
  8
0
 10
3303.8215513169448059
 20
132.3063597772028004
 30
0.0
 40
67.3044165986431437
 50
97.7630974463429965
 51
102.1144944517205033
  0
ARC
  5
7F64
  8
0
 10
3299.6205787543308361
 20
152.1647279829105059
 30
0.0
 40
47.0066883187317472
 50
102.1878432373105028
 51
108.3394817792603959
  0
ARC
  5
7F65
  8
0
 10
3300.6646762851710264
 20
149.7233994509969079
 30
0.0
 40
49.6530411746437821
 50
108.5967046112155003
 51
117.7074311564934987
  0
ARC
  5
7F66
  8
0
 10
3272.9784813266342098
 20
201.1927126880387959
 30
0.0
 40
8.7817514127274592
 50
292.3772890583784942
 51
297.1672899035993964
  0
ARC
  5
7F67
  8
0
 10
3316.1176372757167883
 20
117.9372302690928933
 30
0.0
 40
84.9864521161248661
 50
116.9670469064136995
 51
117.414237743827897
  0
ARC
  5
7F68
  8
0
 10
3279.5269770580021031
 20
185.4029079745554895
 30
0.0
 40
8.3121886581597337
 50
112.6815095228786987
 51
118.1989972210627968
  0
ARC
  5
7F69
  8
0
 10
3284.5601972798090173
 20
176.5858079817986095
 30
0.0
 40
18.4631428653295409
 50
119.0351814306088016
 51
137.4067835576892094
  0
ARC
  5
7F6A
  8
0
 10
3274.1463678689351582
 20
189.2629574246489881
 30
0.0
 40
4.268524736257258
 50
129.9460899676585086
 51
143.6816339673983975
  0
ARC
  5
7F6B
  8
0
 10
3281.8114845975628668
 20
180.5218183611737004
 30
0.0
 40
15.8936182234802796
 50
119.1398996854724004
 51
130.8980595742712865
  0
ARC
  5
7F6C
  8
0
 10
3288.0551484242869265
 20
169.6164547264210967
 30
0.0
 40
28.4593992883881803
 50
110.9545907699401965
 51
119.4280479125231977
  0
ARC
  5
7F6D
  8
0
 10
3324.342486502716838
 20
54.503124860346297
 30
0.0
 40
149.1148082449149967
 50
106.1092531802207048
 51
108.1561009800340969
  0
ARC
  5
7F6E
  8
0
 10
3304.2224321466442234
 20
124.7152045756594987
 30
0.0
 40
76.077093835972363
 50
94.9347851511012095
 51
106.2234493235858963
  0
ARC
  5
7F6F
  8
0
 10
3405.0364346559799742
 20
-1372.8002287625329245
 30
0.0
 40
1576.9691888651721001
 50
93.5995347458269293
 51
93.9036516898881501
  0
ARC
  5
7F70
  8
0
 10
3313.6909129422720071
 20
99.2884925671035177
 30
0.0
 40
102.057383902914296
 50
92.9384207394978432
 51
94.3046616809566842
  0
ARC
  5
7F71
  8
0
 10
3272.419319572159111
 20
190.6512685013624093
 30
0.0
 40
2.0569474460619608
 50
146.3492504346926069
 51
190.6112506173163013
  0
ARC
  5
7F72
  8
0
 10
3312.7593845490901003
 20
240.1143560867072893
 30
0.0
 40
39.6680350728942983
 50
273.9302929679395788
 51
277.7970821669889006
  0
ARC
  5
7F73
  8
0
 10
3319.0723810221179519
 20
205.5768502540431086
 30
0.0
 40
4.6287107011178064
 50
274.2637489475060875
 51
278.3153991067608217
  0
ARC
  5
7F74
  8
0
 10
3320.8700285164632078
 20
180.3971269872303935
 30
0.0
 40
20.6151284537910904
 50
94.0431142868358876
 51
96.8609135801262795
  0
ARC
  5
7F75
  8
0
 10
3319.3311505041820055
 20
195.3785966698569894
 30
0.0
 40
5.5632707894033411
 50
99.5583947720140827
 51
102.3532536480530979
  0
LINE
  5
7F76
  8
0
 10
3311.3507076332898578
 20
183.3518609272929893
 30
0.0
 11
3306.6075363569639194
 21
183.384847219840708
 31
0.0
  0
ENDSEC
  0
EOF
