  0
SECTION
  2
HEADER
  9
$ACADVER
  1
AC1009
  9
$INSBASE
 10
3301.733868107788112
 20
200.0003645776482131
 30
0.0
  9
$EXTMIN
 10
3286.3875247860778472
 20
181.7215076834370961
 30
-0.0015258207003583
  9
$EXTMAX
 10
3316.9036548871790728
 20
201.8264848420178907
 30
0.0000000349246037
  9
$LIMMIN
 10
0.0
 20
0.0
  9
$LIMMAX
 10
11.6929133858000007
 20
8.2677165353999982
  9
$ORTHOMODE
 70
     0
  9
$REGENMODE
 70
     1
  9
$FILLMODE
 70
     1
  9
$QTEXTMODE
 70
     0
  9
$MIRRTEXT
 70
     0
  9
$DRAGMODE
 70
     2
  9
$LTSCALE
 40
0.6431102362
  9
$OSMODE
 70
  4095
  9
$ATTMODE
 70
     1
  9
$TEXTSIZE
 40
0.2
  9
$TRACEWID
 40
0.05
  9
$TEXTSTYLE
  7
STANDARD
  9
$CLAYER
  8
0
  9
$CELTYPE
  6
BYLAYER
  9
$CECOLOR
 62
   256
  9
$DIMSCALE
 40
1.0
  9
$DIMASZ
 40
0.1875
  9
$DIMEXO
 40
0.0625
  9
$DIMDLI
 40
0.4443307087
  9
$DIMRND
 40
0.0
  9
$DIMDLE
 40
0.0
  9
$DIMEXE
 40
0.125
  9
$DIMTP
 40
0.01
  9
$DIMTM
 40
0.01
  9
$DIMTXT
 40
2.0
  9
$DIMCEN
 40
0.1052362205
  9
$DIMTSZ
 40
0.0
  9
$DIMTOL
 70
     1
  9
$DIMLIM
 70
     0
  9
$DIMTIH
 70
     1
  9
$DIMTOH
 70
     1
  9
$DIMSE1
 70
     0
  9
$DIMSE2
 70
     0
  9
$DIMTAD
 70
     0
  9
$DIMZIN
 70
     0
  9
$DIMBLK
  1

  9
$DIMASO
 70
     1
  9
$DIMSHO
 70
     1
  9
$DIMPOST
  1
\X
  9
$DIMAPOST
  1

  9
$DIMALT
 70
     1
  9
$DIMALTD
 70
     2
  9
$DIMALTF
 40
25.3999999999999986
  9
$DIMLFAC
 40
1.0
  9
$DIMTOFL
 70
     0
  9
$DIMTVP
 40
0.0
  9
$DIMTIX
 70
     0
  9
$DIMSOXD
 70
     0
  9
$DIMSAH
 70
     0
  9
$DIMBLK1
  1

  9
$DIMBLK2
  1

  9
$DIMSTYLE
  2
STANDARD
  9
$DIMCLRD
 70
     0
  9
$DIMCLRE
 70
     0
  9
$DIMCLRT
 70
     0
  9
$DIMTFAC
 40
1.0
  9
$DIMGAP
 40
0.09
  9
$LUNITS
 70
     2
  9
$LUPREC
 70
     4
  9
$SKETCHINC
 40
0.1
  9
$FILLETRAD
 40
0.0
  9
$AUNITS
 70
     0
  9
$AUPREC
 70
     0
  9
$MENU
  1
.
  9
$ELEVATION
 40
0.0
  9
$PELEVATION
 40
0.0
  9
$THICKNESS
 40
0.0
  9
$LIMCHECK
 70
     0
  9
$BLIPMODE
 70
     0
  9
$CHAMFERA
 40
0.0
  9
$CHAMFERB
 40
0.0
  9
$SKPOLY
 70
     0
  9
$TDCREATE
 40
2458060.468368056230247
  9
$TDUPDATE
 40
2459781.6073379628360271
  9
$TDINDWG
 40
0.3892431713
  9
$TDUSRTIMER
 40
0.3892431713
  9
$USRTIMER
 70
     1
  9
$ANGBASE
 50
0.0
  9
$ANGDIR
 70
     0
  9
$PDMODE
 70
     0
  9
$PDSIZE
 40
0.3125
  9
$PLINEWID
 40
0.0
  9
$COORDS
 70
     1
  9
$SPLFRAME
 70
     0
  9
$SPLINETYPE
 70
     6
  9
$SPLINESEGS
 70
     8
  9
$ATTDIA
 70
     1
  9
$ATTREQ
 70
     1
  9
$HANDLING
 70
     1
  9
$HANDSEED
  5
81DD
  9
$SURFTAB1
 70
     6
  9
$SURFTAB2
 70
     6
  9
$SURFTYPE
 70
     6
  9
$SURFU
 70
     6
  9
$SURFV
 70
     6
  9
$UCSNAME
  2

  9
$UCSORG
 10
0.0
 20
0.0
 30
0.0
  9
$UCSXDIR
 10
1.0
 20
0.0
 30
0.0
  9
$UCSYDIR
 10
0.0
 20
1.0
 30
0.0
  9
$PUCSNAME
  2

  9
$PUCSORG
 10
0.0
 20
0.0
 30
0.0
  9
$PUCSXDIR
 10
1.0
 20
0.0
 30
0.0
  9
$PUCSYDIR
 10
0.0
 20
1.0
 30
0.0
  9
$USERI1
 70
     0
  9
$USERI2
 70
     0
  9
$USERI3
 70
     0
  9
$USERI4
 70
     0
  9
$USERI5
 70
     0
  9
$USERR1
 40
0.0
  9
$USERR2
 40
0.0
  9
$USERR3
 40
0.0
  9
$USERR4
 40
0.0
  9
$USERR5
 40
0.0
  9
$WORLDVIEW
 70
     1
  9
$SHADEDGE
 70
     3
  9
$SHADEDIF
 70
    70
  9
$TILEMODE
 70
     1
  9
$MAXACTVP
 70
    64
  9
$PLIMCHECK
 70
     0
  9
$PEXTMIN
 10
1.0000000000000000E+20
 20
1.0000000000000000E+20
 30
1.0000000000000000E+20
  9
$PEXTMAX
 10
-1.0000000000000000E+20
 20
-1.0000000000000000E+20
 30
-1.0000000000000000E+20
  9
$PLIMMIN
 10
0.0
 20
0.0
  9
$PLIMMAX
 10
12.0
 20
9.0
  9
$UNITMODE
 70
     0
  9
$VISRETAIN
 70
     1
  9
$PLINEGEN
 70
     0
  9
$PSLTSCALE
 70
     1
  0
ENDSEC
  0
SECTION
  2
TABLES
  0
TABLE
  2
VPORT
 70
     1
  0
VPORT
  2
*ACTIVE
 70
     0
 10
0.0
 20
0.0
 11
1.0
 21
1.0
 12
211.8343105397534885
 22
-5.3875743266592329
 13
0.0
 23
0.0
 14
1.0
 24
1.0
 15
0.0
 25
0.0
 16
0.0
 26
0.0
 36
95.5902297660485658
 17
3089.811279296875
 27
197.161570589386713
 37
0.0
 40
20.2308955958996997
 41
2.005224660397074
 42
50.0
 43
0.0
 44
0.0
 50
0.0
 51
0.0
 71
     0
 72
   100
 73
     1
 74
     1
 75
     0
 76
     0
 77
     0
 78
     0
  0
ENDTAB
  0
TABLE
  2
LTYPE
 70
     2
  0
LTYPE
  2
CONTINUOUS
 70
     0
  3
Solid line
 72
    65
 73
     0
 40
0.0
  0
LTYPE
  2
PHANTOM2
 70
     0
  3
___ _ _ ___ _ _ ___ _ _ ___ _ _
 72
    65
 73
     6
 40
1.25
 49
0.625
 49
-0.125
 49
0.125
 49
-0.125
 49
0.125
 49
-0.125
  0
ENDTAB
  0
TABLE
  2
LAYER
 70
     2
  0
LAYER
  2
0
 70
     0
 62
   255
  6
CONTINUOUS
  0
LAYER
  2
DEFPOINTS
 70
     0
 62
     7
  6
CONTINUOUS
  0
ENDTAB
  0
TABLE
  2
STYLE
 70
     1
  0
STYLE
  2
STANDARD
 70
     0
 40
0.0
 41
0.8
 50
0.0
 71
     0
 42
0.2
  3
txt
  4

  0
ENDTAB
  0
TABLE
  2
VIEW
 70
     0
  0
ENDTAB
  0
TABLE
  2
UCS
 70
     0
  0
ENDTAB
  0
TABLE
  2
APPID
 70
     9
  0
APPID
  2
ACAD
 70
     0
  0
APPID
  2
ACAD_MLEADERVER
 70
     0
  0
APPID
  2
ACAD_EXEMPT_FROM_CAD_STANDARDS
 70
     0
  0
APPID
  2
ACAD_NAV_VCDISPLAY
 70
     0
  0
APPID
  2
ACAECLAYERSTANDARD
 70
     0
  0
APPID
  2
ACCMTRANSPARENCY
 70
     0
  0
APPID
  2
ACAD_DSTYLE_DIMJAG
 70
     0
  0
APPID
  2
ACAD_DSTYLE_DIMTALN
 70
     0
  0
APPID
  2
ACDBATTR
 70
     0
  0
ENDTAB
  0
TABLE
  2
DIMSTYLE
 70
     1
  0
DIMSTYLE
  2
STANDARD
 70
     0
  3

  4

  5

  6

  7

 40
1.0
 41
0.1875
 42
0.0625
 43
0.38
 44
0.125
 45
0.0
 46
0.0
 47
0.01
 48
0.01
140
0.15625
141
0.09
142
0.0
143
25.3999999999999986
144
1.0
145
0.0
146
1.0
147
0.09
 71
     1
 72
     0
 73
     1
 74
     1
 75
     0
 76
     0
 77
     0
 78
     4
170
     0
171
     2
172
     0
173
     0
174
     0
175
     0
176
     0
177
     0
178
     0
  0
ENDTAB
  0
ENDSEC
  0
SECTION
  2
BLOCKS
  0
BLOCK
  8
0
  2
$MODEL_SPACE
 70
     0
 10
0.0
 20
0.0
 30
0.0
  3
$MODEL_SPACE
  1

  0
ENDBLK
  5
21
  8
0
  0
BLOCK
 67
     1
  8
0
  2
$PAPER_SPACE
 70
     0
 10
0.0
 20
0.0
 30
0.0
  3
$PAPER_SPACE
  1

  0
ENDBLK
  5
1D
 67
     1
  8
0
  0
ENDSEC
  0
SECTION
  2
ENTITIES
  0
ATTDEF
  5
7D5C
  8
DEFPOINTS
 10
3301.7310053605660869
 20
199.9973438684016003
 30
0.0
 40
0.001
  1
K-11303T-GE1
  3

  2
MODELNUMBER
 70
     0
1001
ACDBATTR
1070
     0
1070
     1
  0
ATTDEF
  5
7D5D
  8
DEFPOINTS
 10
3301.7310053605660869
 20
199.9956772017349067
 30
0.0
 40
0.001
  1
REGATTA
  3

  2
TRADENAME
 70
     0
1001
ACDBATTR
1070
     0
1070
     1
  0
ATTDEF
  5
7D5E
  8
DEFPOINTS
 10
3301.7310053605660869
 20
199.9940105350682131
 30
0.0
 40
0.001
  1
BATH
  3

  2
PRODUCT
 70
     0
1001
ACDBATTR
1070
     0
1070
     1
  0
ARC
  5
805A
  8
0
 10
3286.6985411449018102
 20
201.6933108142154083
 30
0.0
 40
0.1180773897956055
 50
89.9846957617182852
 51
180.0159404560480141
  0
ARC
  5
805B
  8
0
 10
3287.0050298009300604
 20
201.6933152377374938
 30
0.0
 40
0.1180729675381938
 50
89.9825486191899699
 51
180.0180875999186014
  0
LINE
  5
805C
  8
0
 10
3286.5804637596761495
 20
201.6932779634825863
 30
0.0
 11
3286.5804637596761495
 21
200.0200496170986924
 31
0.0
  0
LINE
  5
805D
  8
0
 10
3286.6001485804999902
 20
200.0003645776482131
 30
0.0
 11
3316.867587635075779
 21
200.0003645776482131
 31
0.0
  0
ARC
  5
805E
  8
0
 10
3286.600142586840775
 20
200.0200434048809939
 30
0.0
 40
0.0196788281455892
 50
179.981912852647099
 51
270.0174508049141195
  0
LINE
  5
805F
  8
0
 10
3286.6985726844750388
 20
201.811388199798813
 30
0.0
 11
3316.769163531076174
 21
201.811388199798813
 31
0.0
  0
LINE
  5
8060
  8
0
 10
3286.8869568392751717
 20
200.0200496170986924
 30
0.0
 11
3286.8869568392751717
 21
201.6932779634977067
 31
0.0
  0
ARC
  5
8061
  8
0
 10
3286.9066356662838189
 20
200.0200434047434896
 30
0.0
 40
0.0196788280079856
 50
179.9819125893048977
 51
269.9825496477412798
  0
ARC
  5
8062
  8
0
 10
3295.9023178678548902
 20
197.0419339753711085
 30
0.0
 40
6.2358216005296043
 50
202.234639820723288
 51
211.3552265873011038
  0
ARC
  5
8063
  8
0
 10
3299.2399150826167897
 20
198.3634060302184139
 30
0.0
 40
9.8253677182091632
 50
195.1405767274918901
 51
202.0029082968449075
  0
ARC
  5
8064
  8
0
 10
3305.5457980359110479
 20
200.4590810635083926
 30
0.0
 40
16.4640177323041002
 50
193.2635392286950093
 51
196.448871666418313
  0
ARC
  5
8065
  8
0
 10
3301.321040024884951
 20
199.27123013723741
 30
0.0
 40
12.0808712073184701
 50
190.2500892218614013
 51
192.3772041088884066
  0
ARC
  5
8066
  8
0
 10
3304.7939511059539655
 20
199.7418379938056034
 30
0.0
 40
15.5828682463824908
 50
182.8560835562587101
 51
189.6805724098533972
  0
ARC
  5
8067
  8
0
 10
3524.4644725557041056
 20
217.4266810302904105
 30
0.0
 40
235.9573476828147989
 50
184.235359847105002
 51
184.4874066379202873
  0
LINE
  5
8068
  8
0
 10
3292.142469219738814
 20
184.7546093699727123
 30
0.0
 11
3289.5034093847848453
 21
200.0003645776482131
 31
0.0
  0
ARC
  5
8069
  8
0
 10
3295.0994116132378622
 20
185.1768234820137877
 30
0.0
 40
2.9820687938447858
 50
237.8019898926322071
 51
269.1906360177418946
  0
ARC
  5
806A
  8
0
 10
3295.0956522396868422
 20
185.1625222266740991
 30
0.0
 40
2.967967053946976
 50
205.4373482809430129
 51
237.7162932333899903
  0
ARC
  5
806B
  8
0
 10
3295.4863499138650695
 20
185.3310143643390973
 30
0.0
 40
3.3931962533988358
 50
189.7803077358256019
 51
205.172984235050393
  0
ARC
  5
806C
  8
0
 10
3315.9600241223988633
 20
1943.9645600856269994
 30
0.0
 40
1761.893505080021896
 50
269.3202389097481841
 51
269.46171135109131
  0
ARC
  5
806D
  8
0
 10
3301.3549887338831468
 20
109.1254668521878983
 30
0.0
 40
73.0493099609264362
 50
89.7028269478466598
 51
91.5277304985894773
  0
ARC
  5
806E
  8
0
 10
3300.5693253208110036
 20
182.9026974857150947
 30
0.0
 40
1.170049510070164
 50
238.6425434289807015
 51
269.9806677209926988
  0
ARC
  5
806F
  8
0
 10
3299.3351113630478721
 20
181.3692089359446129
 30
0.0
 40
0.7829494886730756
 50
58.3463573517296723
 51
84.6996200186053301
  0
LINE
  5
8070
  8
0
 10
3299.9604599794911337
 20
181.9035484216838086
 30
0.0
 11
3299.7459900210860724
 21
182.035683714298699
 31
0.0
  0
LINE
  5
8071
  8
0
 10
3300.5689305321661777
 20
181.732648042248087
 30
0.0
 11
3302.8988056833859446
 21
181.732648042248087
 31
0.0
  0
ARC
  5
8072
  8
0
 10
3316.7691950706498574
 20
201.6933108142235085
 30
0.0
 40
0.1180773897956055
 50
359.9840595439520143
 51
90.015304238281729
  0
ARC
  5
8073
  8
0
 10
3316.5650688833211461
 20
201.6933152377374938
 30
0.0
 40
0.1180729675381938
 50
359.9819124000812849
 51
90.0174513808100443
  0
LINE
  5
8074
  8
0
 10
3316.8872724558759728
 20
201.6932779634906865
 30
0.0
 11
3316.8872724558759728
 21
200.0200496171069062
 31
0.0
  0
ARC
  5
8075
  8
0
 10
3316.8675936286967953
 20
200.0200434048948068
 30
0.0
 40
0.019678828159406
 50
269.9825493064194006
 51
0.0180871306808566
  0
LINE
  5
8076
  8
0
 10
3316.6831418449760349
 20
200.0200496170986924
 30
0.0
 11
3316.6831418449760349
 21
201.6932779634977067
 31
0.0
  0
ARC
  5
8077
  8
0
 10
3316.6634630179678425
 20
200.0200434047434896
 30
0.0
 40
0.0196788280079945
 50
270.0174503523107887
 51
0.0180874106641291
  0
ARC
  5
8078
  8
0
 10
3307.4059897948059188
 20
197.1221570615296912
 30
0.0
 40
6.4137937027180181
 50
328.5535277476677152
 51
337.2319677791716117
  0
ARC
  5
8079
  8
0
 10
3304.3496166034069574
 20
198.3248046975294017
 30
0.0
 40
9.6977194145478975
 50
337.6684891128131198
 51
344.8916077723258127
  0
ARC
  5
807A
  8
0
 10
3296.7627888827200877
 20
200.7765779220898139
 30
0.0
 40
17.6656446312537412
 50
343.6280581422416276
 51
346.8044432041982077
  0
ARC
  5
807B
  8
0
 10
3296.3734639524727754
 20
200.3135501357116937
 30
0.0
 40
17.9471081717105498
 50
348.527606305743177
 51
349.9008837230547897
  0
ARC
  5
807C
  8
0
 10
3297.8051495849881576
 20
199.8551236832267932
 30
0.0
 40
16.4584380309349605
 50
350.5981072511169145
 51
356.9701634580134169
  0
ARC
  5
807D
  8
0
 10
6214.3687188238891395
 20
-16.6253717654521687
 30
0.0
 40
2908.1318973520378677
 50
175.7281004410698984
 51
175.7481566541208906
  0
LINE
  5
807E
  8
0
 10
3311.3063222829878214
 20
184.6503481824310882
 30
0.0
 11
3313.9496032355909847
 21
200.0003645776482131
 31
0.0
  0
ARC
  5
807F
  8
0
 10
3308.3796615020969512
 20
185.1481495078078865
 30
0.0
 40
2.9532577663051218
 50
270.5984864866620114
 51
307.5018800175250817
  0
ARC
  5
8080
  8
0
 10
3308.3697177711010227
 20
185.1608491005023041
 30
0.0
 40
2.9693863998200301
 50
307.5049159857181849
 51
334.6114194990103101
  0
ARC
  5
8081
  8
0
 10
3307.9326389063398892
 20
185.35034711614
 30
0.0
 40
3.4455388596076468
 50
334.8808654726489067
 51
348.2781362903505737
  0
ARC
  5
8082
  8
0
 10
3300.2504438020441739
 20
745.615408581552856
 30
0.0
 40
563.4794440949775662
 50
270.3868880235399956
 51
270.8297616990105894
  0
ARC
  5
8083
  8
0
 10
3302.293280865224915
 20
126.2899005668594015
 30
0.0
 40
55.8866935527366309
 50
88.1932625379237862
 51
90.5735269567304471
  0
ARC
  5
8084
  8
0
 10
3302.8933367783229187
 20
182.9028555004097996
 30
0.0
 40
1.170220237416759
 50
270.2677669632450943
 51
301.3563063892681271
  0
ARC
  5
8085
  8
0
 10
3304.1276195180239483
 20
181.3692089359446129
 30
0.0
 40
0.7829494886730756
 50
95.3003799813946841
 51
121.6536426482703064
  0
LINE
  5
8086
  8
0
 10
3303.5022709015811415
 20
181.9035484216838086
 30
0.0
 11
3303.7167408599862028
 21
182.035683714298699
 31
0.0
  0
ARC
  5
8087
  8
0
 10
3290.2740999523648497
 20
198.5917417561419995
 30
0.0
 40
0.9493833888808255
 50
98.8139274443181534
 51
132.9693488491660105
  0
ARC
  5
8088
  8
0
 10
3292.5237265397340707
 20
184.083365955211093
 30
0.0
 40
15.6311335626046493
 50
94.2985754265665861
 51
98.8139274443181534
  0
ARC
  5
8089
  8
0
 10
3294.0198310049759129
 20
164.1791947662551934
 30
0.0
 40
35.5914531815430593
 50
90.866144531772278
 51
94.2985754265665861
  0
ARC
  5
808A
  8
0
 10
3354.9152085534060461
 20
-6624.1498063324506802
 30
0.0
 40
6824.192913941586994
 50
90.4465139303536176
 51
90.5158004591137058
  0
ARC
  5
808B
  8
0
 10
3313.1936362631868178
 20
198.5917417561419995
 30
0.0
 40
0.9493833888808255
 50
48.0258401149746206
 51
81.186072555681875
  0
ARC
  5
808C
  8
0
 10
3310.9440096758171421
 20
184.083365955211093
 30
0.0
 40
15.6311335626046493
 50
81.186072555681875
 51
85.7014245734334139
  0
ARC
  5
808D
  8
0
 10
3309.4479052105748451
 20
164.1791947662551934
 30
0.0
 40
35.5914531815430593
 50
85.7014245734334139
 51
89.1338554682277078
  0
ARC
  5
808E
  8
0
 10
3248.5525276621460762
 20
-6624.1498063324506802
 30
0.0
 40
6824.192913941586994
 50
89.4841995408863369
 51
89.5534860696463966
  0
ARC
  5
808F
  8
0
 10
3301.819575560976773
 20
361.273737562166616
 30
0.0
 40
177.5639911763447003
 50
269.4694330293784788
 51
269.9723441926554983
  0
ARC
  5
8090
  8
0
 10
3025.7844013043218183
 20
-29446.835869928021566
 30
0.0
 40
29631.8236877005183487
 50
89.4694330293785782
 51
89.4798498474311685
  0
ARC
  5
8091
  8
0
 10
3294.825826466395938
 20
187.9044400058278939
 30
0.0
 40
4.1378544136737254
 50
229.5721484528328915
 51
269.4798498474311828
  0
ARC
  5
8092
  8
0
 10
3301.6481606545748946
 20
361.273737562166616
 30
0.0
 40
177.5639911763447003
 50
270.0276558073445017
 51
270.5305669706214076
  0
ARC
  5
8093
  8
0
 10
3577.6833349112298492
 20
-29446.835869928021566
 30
0.0
 40
29631.8236877005183487
 50
90.5201501525688457
 51
90.530566970621436
  0
ARC
  5
8094
  8
0
 10
3308.64190974915482
 20
187.9044400058278939
 30
0.0
 40
4.1378544136737254
 50
270.5201501525688172
 51
310.4278515471671085
  0
ENDSEC
  0
EOF
