  0
SECTION
  2
HEADER
  9
$ACADVER
  1
AC1009
  9
$INSBASE
 10
3745.7973968852847975
 20
-4.7712803994453594
 30
0.0
  9
$EXTMIN
 10
3715.5950524966251578
 20
-24.7720162095860594
 30
-0.0000000000000058
  9
$EXTMAX
 10
3775.8046502077381774
 20
-3.770840164258515
 30
0.0000000000000104
  9
$LIMMIN
 10
0.0
 20
0.0
  9
$LIMMAX
 10
11.6929133858000007
 20
8.2677165353999982
  9
$ORTHOMODE
 70
     1
  9
$REGENMODE
 70
     1
  9
$FILLMODE
 70
     1
  9
$QTEXTMODE
 70
     0
  9
$MIRRTEXT
 70
     0
  9
$DRAGMODE
 70
     2
  9
$LTSCALE
 40
0.6431102362
  9
$OSMODE
 70
  4095
  9
$ATTMODE
 70
     1
  9
$TEXTSIZE
 40
0.2
  9
$TRACEWID
 40
0.05
  9
$TEXTSTYLE
  7
STANDARD
  9
$CLAYER
  8
0
  9
$CELTYPE
  6
BYLAYER
  9
$CECOLOR
 62
   256
  9
$DIMSCALE
 40
1.0
  9
$DIMASZ
 40
0.1875
  9
$DIMEXO
 40
0.0625
  9
$DIMDLI
 40
0.4443307087
  9
$DIMRND
 40
0.0
  9
$DIMDLE
 40
0.0
  9
$DIMEXE
 40
0.125
  9
$DIMTP
 40
0.01
  9
$DIMTM
 40
0.01
  9
$DIMTXT
 40
2.0
  9
$DIMCEN
 40
0.1052362205
  9
$DIMTSZ
 40
0.0
  9
$DIMTOL
 70
     1
  9
$DIMLIM
 70
     0
  9
$DIMTIH
 70
     1
  9
$DIMTOH
 70
     1
  9
$DIMSE1
 70
     0
  9
$DIMSE2
 70
     0
  9
$DIMTAD
 70
     0
  9
$DIMZIN
 70
     0
  9
$DIMBLK
  1

  9
$DIMASO
 70
     1
  9
$DIMSHO
 70
     1
  9
$DIMPOST
  1
\X
  9
$DIMAPOST
  1

  9
$DIMALT
 70
     1
  9
$DIMALTD
 70
     2
  9
$DIMALTF
 40
25.3999999999999986
  9
$DIMLFAC
 40
1.0
  9
$DIMTOFL
 70
     0
  9
$DIMTVP
 40
0.0
  9
$DIMTIX
 70
     0
  9
$DIMSOXD
 70
     0
  9
$DIMSAH
 70
     0
  9
$DIMBLK1
  1

  9
$DIMBLK2
  1

  9
$DIMSTYLE
  2
STANDARD
  9
$DIMCLRD
 70
     0
  9
$DIMCLRE
 70
     0
  9
$DIMCLRT
 70
     0
  9
$DIMTFAC
 40
1.0
  9
$DIMGAP
 40
0.09
  9
$LUNITS
 70
     2
  9
$LUPREC
 70
     4
  9
$SKETCHINC
 40
0.1
  9
$FILLETRAD
 40
0.0
  9
$AUNITS
 70
     0
  9
$AUPREC
 70
     0
  9
$MENU
  1
.
  9
$ELEVATION
 40
0.0
  9
$PELEVATION
 40
0.0
  9
$THICKNESS
 40
0.0
  9
$LIMCHECK
 70
     0
  9
$BLIPMODE
 70
     0
  9
$CHAMFERA
 40
0.0
  9
$CHAMFERB
 40
0.0
  9
$SKPOLY
 70
     0
  9
$TDCREATE
 40
2458060.468368056230247
  9
$TDUPDATE
 40
2459837.3909953711554408
  9
$TDINDWG
 40
0.4507940972
  9
$TDUSRTIMER
 40
0.4507940972
  9
$USRTIMER
 70
     1
  9
$ANGBASE
 50
0.0
  9
$ANGDIR
 70
     0
  9
$PDMODE
 70
     0
  9
$PDSIZE
 40
0.3125
  9
$PLINEWID
 40
0.0
  9
$COORDS
 70
     1
  9
$SPLFRAME
 70
     0
  9
$SPLINETYPE
 70
     6
  9
$SPLINESEGS
 70
     8
  9
$ATTDIA
 70
     1
  9
$ATTREQ
 70
     1
  9
$HANDLING
 70
     1
  9
$HANDSEED
  5
D48D
  9
$SURFTAB1
 70
     6
  9
$SURFTAB2
 70
     6
  9
$SURFTYPE
 70
     6
  9
$SURFU
 70
     6
  9
$SURFV
 70
     6
  9
$UCSNAME
  2

  9
$UCSORG
 10
0.0
 20
0.0
 30
0.0
  9
$UCSXDIR
 10
1.0
 20
0.0
 30
0.0
  9
$UCSYDIR
 10
0.0
 20
1.0
 30
0.0
  9
$PUCSNAME
  2

  9
$PUCSORG
 10
0.0
 20
0.0
 30
0.0
  9
$PUCSXDIR
 10
1.0
 20
0.0
 30
0.0
  9
$PUCSYDIR
 10
0.0
 20
1.0
 30
0.0
  9
$USERI1
 70
     0
  9
$USERI2
 70
     0
  9
$USERI3
 70
     0
  9
$USERI4
 70
     0
  9
$USERI5
 70
     0
  9
$USERR1
 40
0.0
  9
$USERR2
 40
0.0
  9
$USERR3
 40
0.0
  9
$USERR4
 40
0.0
  9
$USERR5
 40
0.0
  9
$WORLDVIEW
 70
     1
  9
$SHADEDGE
 70
     3
  9
$SHADEDIF
 70
    70
  9
$TILEMODE
 70
     1
  9
$MAXACTVP
 70
    64
  9
$PLIMCHECK
 70
     0
  9
$PEXTMIN
 10
1.0000000000000000E+20
 20
1.0000000000000000E+20
 30
1.0000000000000000E+20
  9
$PEXTMAX
 10
-1.0000000000000000E+20
 20
-1.0000000000000000E+20
 30
-1.0000000000000000E+20
  9
$PLIMMIN
 10
0.0
 20
0.0
  9
$PLIMMAX
 10
12.0
 20
9.0
  9
$UNITMODE
 70
     0
  9
$VISRETAIN
 70
     1
  9
$PLINEGEN
 70
     0
  9
$PSLTSCALE
 70
     1
  0
ENDSEC
  0
SECTION
  2
TABLES
  0
TABLE
  2
VPORT
 70
     1
  0
VPORT
  2
*ACTIVE
 70
     0
 10
0.0
 20
0.0
 11
1.0
 21
1.0
 12
-83.6279074368812729
 22
-105.1644717049886992
 13
0.0
 23
0.0
 14
1.0
 24
1.0
 15
0.0
 25
0.0
 16
0.0
 26
0.0
 36
327.1425206445442768
 17
3829.3277587890629547
 27
90.8930435180664063
 37
0.0
 40
24.6783152303735598
 41
2.4474358974358972
 42
50.0
 43
0.0
 44
0.0
 50
0.0
 51
0.0
 71
     0
 72
   100
 73
     1
 74
     1
 75
     0
 76
     0
 77
     0
 78
     1
  0
ENDTAB
  0
TABLE
  2
LTYPE
 70
     2
  0
LTYPE
  2
CONTINUOUS
 70
     0
  3
Solid line
 72
    65
 73
     0
 40
0.0
  0
LTYPE
  2
PHANTOM2
 70
     0
  3
___ _ _ ___ _ _ ___ _ _ ___ _ _
 72
    65
 73
     6
 40
1.25
 49
0.625
 49
-0.125
 49
0.125
 49
-0.125
 49
0.125
 49
-0.125
  0
ENDTAB
  0
TABLE
  2
LAYER
 70
     2
  0
LAYER
  2
0
 70
     0
 62
   255
  6
CONTINUOUS
  0
LAYER
  2
DEFPOINTS
 70
     0
 62
     7
  6
CONTINUOUS
  0
ENDTAB
  0
TABLE
  2
STYLE
 70
     1
  0
STYLE
  2
STANDARD
 70
     0
 40
0.0
 41
0.8
 50
0.0
 71
     0
 42
0.2
  3
txt
  4

  0
ENDTAB
  0
TABLE
  2
VIEW
 70
     0
  0
ENDTAB
  0
TABLE
  2
UCS
 70
     0
  0
ENDTAB
  0
TABLE
  2
APPID
 70
     9
  0
APPID
  2
ACAD
 70
     0
  0
APPID
  2
ACAD_MLEADERVER
 70
     0
  0
APPID
  2
ACAD_EXEMPT_FROM_CAD_STANDARDS
 70
     0
  0
APPID
  2
ACAD_NAV_VCDISPLAY
 70
     0
  0
APPID
  2
ACAECLAYERSTANDARD
 70
     0
  0
APPID
  2
ACCMTRANSPARENCY
 70
     0
  0
APPID
  2
ACAD_DSTYLE_DIMJAG
 70
     0
  0
APPID
  2
ACAD_DSTYLE_DIMTALN
 70
     0
  0
APPID
  2
ACDBATTR
 70
     0
  0
ENDTAB
  0
TABLE
  2
DIMSTYLE
 70
     1
  0
DIMSTYLE
  2
STANDARD
 70
     0
  3

  4

  5

  6

  7

 40
1.0
 41
0.1875
 42
0.0625
 43
0.38
 44
0.125
 45
0.0
 46
0.0
 47
0.01
 48
0.01
140
0.15625
141
0.09
142
0.0
143
25.3999999999999986
144
1.0
145
0.0
146
1.0
147
0.09
 71
     1
 72
     0
 73
     1
 74
     1
 75
     0
 76
     0
 77
     0
 78
     4
170
     0
171
     2
172
     0
173
     0
174
     0
175
     0
176
     0
177
     0
178
     0
  0
ENDTAB
  0
ENDSEC
  0
SECTION
  2
BLOCKS
  0
BLOCK
  8
0
  2
$MODEL_SPACE
 70
     0
 10
0.0
 20
0.0
 30
0.0
  3
$MODEL_SPACE
  1

  0
ENDBLK
  5
21
  8
0
  0
BLOCK
 67
     1
  8
0
  2
$PAPER_SPACE
 70
     0
 10
0.0
 20
0.0
 30
0.0
  3
$PAPER_SPACE
  1

  0
ENDBLK
  5
1D
 67
     1
  8
0
  0
ENDSEC
  0
SECTION
  2
ENTITIES
  0
LINE
  5
CFF8
  8
0
 10
3775.4169955132911127
 20
-3.7712807969645001
 30
0.0
 11
3716.1687266792450828
 21
-3.771280796964493
 31
0.0
  0
LINE
  5
CFFA
  8
0
 10
3764.9433461269818508
 20
-24.7712803994453594
 30
0.0
 11
3763.4433461269818508
 21
-24.7712803994453594
 31
0.0
  0
LINE
  5
CFFB
  8
0
 10
3734.4433461269818508
 20
-24.7712803994453594
 30
0.0
 11
3732.9433461269818508
 21
-24.7712803994453594
 31
0.0
  0
ARC
  5
D03A
  8
0
 10
3716.1665848300722246
 20
-4.082145615013288
 30
0.0
 40
0.3108721965991624
 50
89.6052400626004584
 51
174.990312817096509
  0
LINE
  5
D03B
  8
0
 10
3715.856900181382116
 20
-4.0549989580453589
 30
0.0
 11
3715.7942437911510751
 21
-4.7712803994453621
 31
0.0
  0
LINE
  5
D03C
  8
0
 10
3715.7942437911510751
 20
-4.7712803994453621
 30
0.0
 11
3775.7888652804131198
 21
-4.7712803994453594
 31
0.0
  0
LINE
  5
D03E
  8
0
 10
3775.7261696642490278
 20
-4.0550006661254514
 30
0.0
 11
3775.7888652804131198
 21
-4.7712803994453621
 31
0.0
  0
ARC
  5
D03F
  8
0
 10
3775.4165435449817778
 20
-4.082089296445381
 30
0.0
 40
0.3108088281000149
 50
4.999973363103229
 51
89.9166822711755458
  0
LINE
  5
D040
  8
0
 10
3773.047625700682147
 20
-4.7712803994453621
 30
0.0
 11
3769.3628818674751528
 21
-22.10285942120397
 31
0.0
  0
ARC
  5
D041
  8
0
 10
3767.2434053397819298
 20
-21.5927425242453594
 30
0.0
 40
2.1800000000000028
 50
272.0001147563003769
 51
346.4673991402430033
  0
LINE
  5
D042
  8
0
 10
3767.3194906062008158
 20
-23.7714143747620597
 30
0.0
 11
3765.2083461269821782
 21
-23.841170748345359
 31
0.0
  0
LINE
  5
D043
  8
0
 10
3765.2065613907029729
 20
-23.5924604525761588
 30
0.0
 11
3765.2083461269821782
 21
-24.1636657413453584
 31
0.0
  0
LINE
  5
D044
  8
0
 10
3765.2083461269821782
 20
-24.1636657413453584
 30
0.0
 11
3764.9433461269818508
 21
-24.1685469206795283
 31
0.0
  0
LINE
  5
D045
  8
0
 10
3764.9433461172661737
 20
-23.9791247952644717
 30
0.0
 11
3764.9433461269818508
 21
-24.7712803994453594
 31
0.0
  0
LINE
  5
D046
  8
0
 10
3763.4433461269818508
 20
-24.7712803994453594
 30
0.0
 11
3763.4433461281919335
 21
-23.9850586394887699
 31
0.0
  0
LINE
  5
D047
  8
0
 10
3763.4433461281919335
 20
-23.9850586394887699
 30
0.0
 11
3764.9433461269818508
 21
-23.9791262050453611
 31
0.0
  0
LINE
  5
D048
  8
0
 10
3763.4433461277521928
 20
-24.2712803994453594
 30
0.0
 11
3761.7733461269817781
 21
-24.2712803994453594
 31
0.0
  0
ARC
  5
D049
  8
0
 10
3761.7733461269817781
 20
-23.9012803994453584
 30
0.0
 40
0.3700000000000019
 50
226.5395133277062882
 51
270.0
  0
LINE
  5
D04A
  8
0
 10
3763.4433461351832193
 20
-24.1845672020453684
 30
0.0
 11
3761.5188400853580788
 21
-24.1698444975232789
 31
0.0
  0
LINE
  5
D04B
  8
0
 10
3761.5188400853580788
 20
-24.1698444975232789
 30
0.0
 11
3760.2083461269821782
 21
-24.1422058582453616
 31
0.0
  0
LINE
  5
D04C
  8
0
 10
3760.2083461269821782
 20
-24.1422058582453616
 30
0.0
 11
3760.2083461269821782
 21
-23.5833913445453582
 31
0.0
  0
LINE
  5
D04D
  8
0
 10
3760.2083461269821782
 20
-23.5833913445453582
 30
0.0
 11
3765.2065613907029729
 21
-23.5924604525773098
 31
0.0
  0
LINE
  5
D04E
  8
0
 10
3760.1783461269828877
 20
-23.5830610484453587
 30
0.0
 11
3760.1783461269828877
 21
-24.1854505628523491
 31
0.0
  0
LINE
  5
D04F
  8
0
 10
3760.1783461269828877
 20
-24.1854505628523491
 30
0.0
 11
3755.1783461269828877
 21
-24.0107669446453613
 31
0.0
  0
LINE
  5
D050
  8
0
 10
3755.1783461269828877
 20
-24.0107669446453613
 30
0.0
 11
3755.1783461269828877
 21
-23.4938752404594595
 31
0.0
  0
LINE
  5
D051
  8
0
 10
3755.1783461269828877
 20
-23.4938752404594595
 30
0.0
 11
3760.1783461269828877
 21
-23.5830610484453587
 31
0.0
  0
LINE
  5
D052
  8
0
 10
3760.1783461269828877
 20
-23.810221983745361
 30
0.0
 11
3760.2083461269821782
 21
-23.8112696067453591
 31
0.0
  0
LINE
  5
D053
  8
0
 10
3755.1483461269831423
 20
-24.0097201582453685
 30
0.0
 11
3755.1483461269831423
 21
-23.4933290832453601
 31
0.0
  0
LINE
  5
D054
  8
0
 10
3755.1483461269831423
 20
-23.4933290832453601
 30
0.0
 11
3750.1483461269817781
 21
-23.3613356870453615
 31
0.0
  0
LINE
  5
D055
  8
0
 10
3750.1483461269817781
 20
-23.3613356870453615
 30
0.0
 11
3750.1483461269817781
 21
-23.8351763083453605
 31
0.0
  0
LINE
  5
D056
  8
0
 10
3750.1483461269817781
 20
-23.8351763083453605
 30
0.0
 11
3755.1483433738821986
 21
-24.0097989961453706
 31
0.0
  0
LINE
  5
D057
  8
0
 10
3755.1483476184821484
 20
-23.6345705652453617
 30
0.0
 11
3755.1783476341829555
 21
-23.6356181888453598
 31
0.0
  0
LINE
  5
D058
  8
0
 10
3750.1183461269829422
 20
-23.3606586428453618
 30
0.0
 11
3750.1183454708830141
 21
-23.8341475988453588
 31
0.0
  0
LINE
  5
D059
  8
0
 10
3750.1183454708830141
 20
-23.8341475988453588
 30
0.0
 11
3745.1183461269829422
 21
-23.6595365676453611
 31
0.0
  0
LINE
  5
D05A
  8
0
 10
3745.1183461269829422
 20
-23.6595365676453611
 30
0.0
 11
3745.1183461269829422
 21
-23.2097969270453603
 31
0.0
  0
LINE
  5
D05B
  8
0
 10
3745.1183461269829422
 20
-23.2097969270453603
 30
0.0
 11
3750.1183461269829422
 21
-23.3606586428453618
 31
0.0
  0
LINE
  5
D05C
  8
0
 10
3750.1183464410819397
 20
-23.4589190535453582
 30
0.0
 11
3750.1483461269817781
 21
-23.4589190535453582
 31
0.0
  0
LINE
  5
D05D
  8
0
 10
3745.0883461269831969
 20
-23.2089927342453706
 30
0.0
 11
3745.0883458768821583
 21
-23.6584961424453617
 31
0.0
  0
LINE
  5
D05E
  8
0
 10
3745.0883458768821583
 20
-23.6584961424453617
 30
0.0
 11
3740.0883461269818326
 21
-23.4838923037453604
 31
0.0
  0
LINE
  5
D05F
  8
0
 10
3740.0883461269818326
 20
-23.4838923037453604
 30
0.0
 11
3740.0883461269818326
 21
-23.049232322245409
 31
0.0
  0
LINE
  5
D060
  8
0
 10
3740.0883461269818326
 20
-23.049232322245409
 30
0.0
 11
3745.0883461269831969
 21
-23.2089927342453706
 31
0.0
  0
LINE
  5
D061
  8
0
 10
3745.0883462817828331
 20
-23.2832675774453612
 30
0.0
 11
3745.1183462825829338
 21
-23.2843152005453611
 31
0.0
  0
LINE
  5
D062
  8
0
 10
3740.0583460081829799
 20
-23.4828446764453602
 30
0.0
 11
3740.0583461269820873
 21
-23.0482564881453591
 31
0.0
  0
LINE
  5
D063
  8
0
 10
3740.0583461269820873
 20
-23.0482564881453591
 30
0.0
 11
3735.0583461269829968
 21
-22.8836486307453697
 31
0.0
  0
LINE
  5
D064
  8
0
 10
3735.0583461269829968
 20
-22.8836486307453697
 30
0.0
 11
3735.0583461269829968
 21
-23.3082408331453586
 31
0.0
  0
LINE
  5
D065
  8
0
 10
3735.0583461269829968
 20
-23.3082408331453586
 30
0.0
 11
3740.0583460081829799
 21
-23.4828446764453602
 31
0.0
  0
LINE
  5
D066
  8
0
 10
3740.0583461756828001
 20
-23.1076161032453591
 30
0.0
 11
3740.0883461269818326
 21
-23.10866372463774
 31
0.0
  0
LINE
  5
D067
  8
0
 10
3735.0283461269827967
 20
-22.8826510757453612
 30
0.0
 11
3735.0283460623818428
 21
-23.3071932078453585
 31
0.0
  0
LINE
  5
D068
  8
0
 10
3735.0283460623818428
 20
-23.3071932078453585
 30
0.0
 11
3734.4433461269818508
 21
-23.286764559945361
 31
0.0
  0
LINE
  5
D069
  8
0
 10
3734.4433461269818508
 20
-23.2412963840453592
 30
0.0
 11
3734.4433461269818508
 21
-24.7712803994453594
 31
0.0
  0
LINE
  5
D06A
  8
0
 10
3732.9433461269818508
 20
-24.7712803994453594
 30
0.0
 11
3732.9433461269818508
 21
-23.1910789346453612
 31
0.0
  0
LINE
  5
D06B
  8
0
 10
3732.9433461269818508
 20
-23.1910789346453612
 30
0.0
 11
3734.4433461269818508
 21
-23.2412963840453592
 31
0.0
  0
LINE
  5
D06C
  8
0
 10
3732.9433461269818508
 20
-23.2343834057453584
 30
0.0
 11
3730.0283461269818872
 21
-23.1325893626453585
 31
0.0
  0
LINE
  5
D06D
  8
0
 10
3730.0283461269818872
 20
-23.1325893626453585
 30
0.0
 11
3730.0283461269818872
 21
-22.7151993547453692
 31
0.0
  0
LINE
  5
D06E
  8
0
 10
3730.0283461269818872
 20
-22.7151993547453692
 30
0.0
 11
3735.0283461269827967
 21
-22.8826510757453612
 31
0.0
  0
LINE
  5
D06F
  8
0
 10
3735.0283461269827967
 20
-22.9319646309974203
 30
0.0
 11
3735.0583461656829058
 21
-22.9330122554453588
 31
0.0
  0
LINE
  5
D070
  8
0
 10
3730.0283461269818872
 20
-22.7573607835612286
 30
0.0
 11
3729.1847812447422257
 21
-22.7279532850853805
 31
0.0
  0
ARC
  5
D071
  8
0
 10
3729.2607268684168957
 20
-20.5494252084868698
 30
0.0
 40
2.1798514440859029
 50
184.9952125172719093
 51
268.0034215211251762
  0
LINE
  5
D072
  8
0
 10
3727.0891545499989661
 20
-20.7392303300396605
 30
0.0
 11
3726.8570770794658529
 21
-18.0840174115788805
 31
0.0
  0
ARC
  5
D073
  8
0
 10
3721.0626322264729424
 20
-18.5904777768753995
 30
0.0
 40
5.8165361905518589
 50
4.9952125172719102
 51
33.7632707888054995
  0
LINE
  5
D074
  8
0
 10
3725.8981567126938899
 20
-15.3578633242750993
 30
0.0
 11
3718.7469954769189826
 21
-4.7712803994453594
 31
0.0
  0
ARC
  5
D075
  8
0
 10
3745.7915461269021762
 20
-5.4807061213314716
 30
0.0
 40
0.8136014623461448
 50
119.313108602882707
 51
60.6868913971172503
  0
ATTDEF
  5
D0A9
  8
DEFPOINTS
 10
3745.7972408563650788
 20
-4.774652987627376
 30
0.0
 40
0.001
  1
K-1130-W1
  3

  2
MODELNUMBER
 70
     0
1001
ACDBATTR
1070
     0
1070
     1
  0
ATTDEF
  5
D0AA
  8
DEFPOINTS
 10
3745.7972408563650788
 20
-4.776319654294042
 30
0.0
 40
0.001
  1
UNDERSCORE
  3

  2
TRADENAME
 70
     0
1001
ACDBATTR
1070
     0
1070
     1
  0
ATTDEF
  5
D0AB
  8
DEFPOINTS
 10
3745.7972408563650788
 20
-4.7779863209607072
 30
0.0
 40
0.001
  1
BATH
  3

  2
PRODUCT
 70
     0
1001
ACDBATTR
1070
     0
1070
     1
  0
ENDSEC
  0
EOF
