  0
SECTION
  2
HEADER
  9
$ACADVER
  1
AC1009
  9
$INSBASE
 10
3796.2809382339069089
 20
-4.7712803994453621
 30
0.0
  9
$EXTMIN
 10
3780.2836370740278653
 20
-24.7712803994453594
 30
0.0
  9
$EXTMAX
 10
3812.2782393937859524
 20
-3.7712804426509559
 30
0.0
  9
$LIMMIN
 10
0.0
 20
0.0
  9
$LIMMAX
 10
11.6929133858000007
 20
8.2677165353999982
  9
$ORTHOMODE
 70
     1
  9
$REGENMODE
 70
     1
  9
$FILLMODE
 70
     1
  9
$QTEXTMODE
 70
     0
  9
$MIRRTEXT
 70
     0
  9
$DRAGMODE
 70
     2
  9
$LTSCALE
 40
0.6431102362
  9
$OSMODE
 70
  4095
  9
$ATTMODE
 70
     1
  9
$TEXTSIZE
 40
0.2
  9
$TRACEWID
 40
0.05
  9
$TEXTSTYLE
  7
STANDARD
  9
$CLAYER
  8
0
  9
$CELTYPE
  6
BYLAYER
  9
$CECOLOR
 62
   256
  9
$DIMSCALE
 40
1.0
  9
$DIMASZ
 40
0.1875
  9
$DIMEXO
 40
0.0625
  9
$DIMDLI
 40
0.4443307087
  9
$DIMRND
 40
0.0
  9
$DIMDLE
 40
0.0
  9
$DIMEXE
 40
0.125
  9
$DIMTP
 40
0.01
  9
$DIMTM
 40
0.01
  9
$DIMTXT
 40
2.0
  9
$DIMCEN
 40
0.1052362205
  9
$DIMTSZ
 40
0.0
  9
$DIMTOL
 70
     1
  9
$DIMLIM
 70
     0
  9
$DIMTIH
 70
     1
  9
$DIMTOH
 70
     1
  9
$DIMSE1
 70
     0
  9
$DIMSE2
 70
     0
  9
$DIMTAD
 70
     0
  9
$DIMZIN
 70
     0
  9
$DIMBLK
  1

  9
$DIMASO
 70
     1
  9
$DIMSHO
 70
     1
  9
$DIMPOST
  1
\X
  9
$DIMAPOST
  1

  9
$DIMALT
 70
     1
  9
$DIMALTD
 70
     2
  9
$DIMALTF
 40
25.3999999999999986
  9
$DIMLFAC
 40
1.0
  9
$DIMTOFL
 70
     0
  9
$DIMTVP
 40
0.0
  9
$DIMTIX
 70
     0
  9
$DIMSOXD
 70
     0
  9
$DIMSAH
 70
     0
  9
$DIMBLK1
  1

  9
$DIMBLK2
  1

  9
$DIMSTYLE
  2
STANDARD
  9
$DIMCLRD
 70
     0
  9
$DIMCLRE
 70
     0
  9
$DIMCLRT
 70
     0
  9
$DIMTFAC
 40
1.0
  9
$DIMGAP
 40
0.09
  9
$LUNITS
 70
     2
  9
$LUPREC
 70
     4
  9
$SKETCHINC
 40
0.1
  9
$FILLETRAD
 40
0.0
  9
$AUNITS
 70
     0
  9
$AUPREC
 70
     0
  9
$MENU
  1
.
  9
$ELEVATION
 40
0.0
  9
$PELEVATION
 40
0.0
  9
$THICKNESS
 40
0.0
  9
$LIMCHECK
 70
     0
  9
$BLIPMODE
 70
     0
  9
$CHAMFERA
 40
0.0
  9
$CHAMFERB
 40
0.0
  9
$SKPOLY
 70
     0
  9
$TDCREATE
 40
2458060.468368056230247
  9
$TDUPDATE
 40
2459837.3906481480225921
  9
$TDINDWG
 40
0.4500649306
  9
$TDUSRTIMER
 40
0.4500649306
  9
$USRTIMER
 70
     1
  9
$ANGBASE
 50
0.0
  9
$ANGDIR
 70
     0
  9
$PDMODE
 70
     0
  9
$PDSIZE
 40
0.3125
  9
$PLINEWID
 40
0.0
  9
$COORDS
 70
     1
  9
$SPLFRAME
 70
     0
  9
$SPLINETYPE
 70
     6
  9
$SPLINESEGS
 70
     8
  9
$ATTDIA
 70
     1
  9
$ATTREQ
 70
     1
  9
$HANDLING
 70
     1
  9
$HANDSEED
  5
D44A
  9
$SURFTAB1
 70
     6
  9
$SURFTAB2
 70
     6
  9
$SURFTYPE
 70
     6
  9
$SURFU
 70
     6
  9
$SURFV
 70
     6
  9
$UCSNAME
  2

  9
$UCSORG
 10
0.0
 20
0.0
 30
0.0
  9
$UCSXDIR
 10
1.0
 20
0.0
 30
0.0
  9
$UCSYDIR
 10
0.0
 20
1.0
 30
0.0
  9
$PUCSNAME
  2

  9
$PUCSORG
 10
0.0
 20
0.0
 30
0.0
  9
$PUCSXDIR
 10
1.0
 20
0.0
 30
0.0
  9
$PUCSYDIR
 10
0.0
 20
1.0
 30
0.0
  9
$USERI1
 70
     0
  9
$USERI2
 70
     0
  9
$USERI3
 70
     0
  9
$USERI4
 70
     0
  9
$USERI5
 70
     0
  9
$USERR1
 40
0.0
  9
$USERR2
 40
0.0
  9
$USERR3
 40
0.0
  9
$USERR4
 40
0.0
  9
$USERR5
 40
0.0
  9
$WORLDVIEW
 70
     1
  9
$SHADEDGE
 70
     3
  9
$SHADEDIF
 70
    70
  9
$TILEMODE
 70
     1
  9
$MAXACTVP
 70
    64
  9
$PLIMCHECK
 70
     0
  9
$PEXTMIN
 10
1.0000000000000000E+20
 20
1.0000000000000000E+20
 30
1.0000000000000000E+20
  9
$PEXTMAX
 10
-1.0000000000000000E+20
 20
-1.0000000000000000E+20
 30
-1.0000000000000000E+20
  9
$PLIMMIN
 10
0.0
 20
0.0
  9
$PLIMMAX
 10
12.0
 20
9.0
  9
$UNITMODE
 70
     0
  9
$VISRETAIN
 70
     1
  9
$PLINEGEN
 70
     0
  9
$PSLTSCALE
 70
     1
  0
ENDSEC
  0
SECTION
  2
TABLES
  0
TABLE
  2
VPORT
 70
     1
  0
VPORT
  2
*ACTIVE
 70
     0
 10
0.0
 20
0.0
 11
1.0
 21
1.0
 12
-31.2213840201213308
 22
-104.7976935812314991
 13
0.0
 23
0.0
 14
1.0
 24
1.0
 15
0.0
 25
0.0
 16
0.0
 26
0.0
 36
327.1425206445442768
 17
3829.3277587890629547
 27
90.8930435180664063
 37
0.0
 40
21.1624754864613713
 41
2.4474358974358972
 42
50.0
 43
0.0
 44
0.0
 50
0.0
 51
0.0
 71
     0
 72
   100
 73
     1
 74
     1
 75
     0
 76
     0
 77
     0
 78
     1
  0
ENDTAB
  0
TABLE
  2
LTYPE
 70
     2
  0
LTYPE
  2
CONTINUOUS
 70
     0
  3
Solid line
 72
    65
 73
     0
 40
0.0
  0
LTYPE
  2
PHANTOM2
 70
     0
  3
___ _ _ ___ _ _ ___ _ _ ___ _ _
 72
    65
 73
     6
 40
1.25
 49
0.625
 49
-0.125
 49
0.125
 49
-0.125
 49
0.125
 49
-0.125
  0
ENDTAB
  0
TABLE
  2
LAYER
 70
     2
  0
LAYER
  2
0
 70
     0
 62
   255
  6
CONTINUOUS
  0
LAYER
  2
DEFPOINTS
 70
     0
 62
     7
  6
CONTINUOUS
  0
ENDTAB
  0
TABLE
  2
STYLE
 70
     1
  0
STYLE
  2
STANDARD
 70
     0
 40
0.0
 41
0.8
 50
0.0
 71
     0
 42
0.2
  3
txt
  4

  0
ENDTAB
  0
TABLE
  2
VIEW
 70
     0
  0
ENDTAB
  0
TABLE
  2
UCS
 70
     0
  0
ENDTAB
  0
TABLE
  2
APPID
 70
     9
  0
APPID
  2
ACAD
 70
     0
  0
APPID
  2
ACAD_MLEADERVER
 70
     0
  0
APPID
  2
ACAD_EXEMPT_FROM_CAD_STANDARDS
 70
     0
  0
APPID
  2
ACAD_NAV_VCDISPLAY
 70
     0
  0
APPID
  2
ACAECLAYERSTANDARD
 70
     0
  0
APPID
  2
ACCMTRANSPARENCY
 70
     0
  0
APPID
  2
ACAD_DSTYLE_DIMJAG
 70
     0
  0
APPID
  2
ACAD_DSTYLE_DIMTALN
 70
     0
  0
APPID
  2
ACDBATTR
 70
     0
  0
ENDTAB
  0
TABLE
  2
DIMSTYLE
 70
     1
  0
DIMSTYLE
  2
STANDARD
 70
     0
  3

  4

  5

  6

  7

 40
1.0
 41
0.1875
 42
0.0625
 43
0.38
 44
0.125
 45
0.0
 46
0.0
 47
0.01
 48
0.01
140
0.15625
141
0.09
142
0.0
143
25.3999999999999986
144
1.0
145
0.0
146
1.0
147
0.09
 71
     1
 72
     0
 73
     1
 74
     1
 75
     0
 76
     0
 77
     0
 78
     4
170
     0
171
     2
172
     0
173
     0
174
     0
175
     0
176
     0
177
     0
178
     0
  0
ENDTAB
  0
ENDSEC
  0
SECTION
  2
BLOCKS
  0
BLOCK
  8
0
  2
$MODEL_SPACE
 70
     0
 10
0.0
 20
0.0
 30
0.0
  3
$MODEL_SPACE
  1

  0
ENDBLK
  5
21
  8
0
  0
BLOCK
 67
     1
  8
0
  2
$PAPER_SPACE
 70
     0
 10
0.0
 20
0.0
 30
0.0
  3
$PAPER_SPACE
  1

  0
ENDBLK
  5
1D
 67
     1
  8
0
  0
ENDSEC
  0
SECTION
  2
ENTITIES
  0
LINE
  5
CFF9
  8
0
 10
3780.6558165639098661
 20
-3.7712807969645001
 30
0.0
 11
3811.9063972936451137
 21
-3.7712807969645001
 31
0.0
  0
LINE
  5
CFFC
  8
0
 10
3787.5309302512819158
 20
-24.7712803994453594
 30
0.0
 11
3791.0309302512819158
 21
-24.7712803994453594
 31
0.0
  0
LINE
  5
CFFD
  8
0
 10
3801.5309302512828253
 20
-24.7712803994453594
 30
0.0
 11
3805.0309302512819158
 21
-24.7712803994453594
 31
0.0
  0
LINE
  5
D03D
  8
0
 10
3780.2836370740278653
 20
-4.7712803994453621
 30
0.0
 11
3812.2782393937859524
 21
-4.7712803994453621
 31
0.0
  0
ARC
  5
D076
  8
0
 10
3811.9059279846819663
 20
-4.082089263145356
 30
0.0
 40
0.3108088204999921
 50
5.0001660988183918
 51
89.9996562802088533
  0
LINE
  5
D077
  8
0
 10
3812.2155540052540346
 20
-4.054999591945097
 30
0.0
 11
3812.2782393937859524
 21
-4.7712803994453621
 31
0.0
  0
ARC
  5
D078
  8
0
 10
3780.6559295021829712
 20
-4.0820894922453732
 30
0.0
 40
0.310808715800009
 50
89.9998864059999875
 51
174.9999802133986009
  0
LINE
  5
D079
  8
0
 10
3780.3463035167369526
 20
-4.0550006208407217
 30
0.0
 11
3780.2836370740278653
 21
-4.7712803994453621
 31
0.0
  0
LINE
  5
D07A
  8
0
 10
3782.9482122909798818
 20
-4.7712803994453621
 30
0.0
 11
3784.4186561292158331
 21
-21.5700569691413513
 31
0.0
  0
ARC
  5
D07B
  8
0
 10
3786.6084962938671197
 20
-21.3783741425098306
 30
0.0
 40
2.1982134229280241
 50
185.0025092373851976
 51
266.9167110561360232
  0
LINE
  5
D07C
  8
0
 10
3786.4902597255318142
 20
-23.5734054330953597
 30
0.0
 11
3787.2509302512821705
 21
-23.6001735552453589
 31
0.0
  0
LINE
  5
D07D
  8
0
 10
3787.2509302512821705
 20
-23.5924468867453605
 30
0.0
 11
3787.2509302512821705
 21
-23.9754021343453587
 31
0.0
  0
LINE
  5
D07E
  8
0
 10
3787.2509302512821705
 20
-23.9754021343453587
 30
0.0
 11
3787.5307191073820832
 21
-23.9851725764453612
 31
0.0
  0
LINE
  5
D07F
  8
0
 10
3787.5309302512819158
 20
-23.9791287339453696
 30
0.0
 11
3787.5309302512819158
 21
-24.7712803994453594
 31
0.0
  0
LINE
  5
D080
  8
0
 10
3787.5309302512819158
 20
-23.9791262050453611
 30
0.0
 11
3791.0309302512819158
 21
-24.0974856366453594
 31
0.0
  0
LINE
  5
D081
  8
0
 10
3791.0309302512819158
 20
-24.0974856366453594
 30
0.0
 11
3791.0309302512819158
 21
-24.7712803994453594
 31
0.0
  0
LINE
  5
D082
  8
0
 10
3791.0309302512819158
 20
-24.1074026430453614
 30
0.0
 11
3793.2509302512821705
 21
-24.1849267521453584
 31
0.0
  0
LINE
  5
D083
  8
0
 10
3793.2509302512821705
 20
-24.1849267521453584
 30
0.0
 11
3793.2509302512821705
 21
-23.7884371622453585
 31
0.0
  0
LINE
  5
D084
  8
0
 10
3793.2509302512821705
 20
-23.7884371622453585
 30
0.0
 11
3787.2509302512821705
 21
-23.5924180852453702
 31
0.0
  0
LINE
  5
D085
  8
0
 10
3793.2509302512821705
 20
-23.8096981721453602
 30
0.0
 11
3794.1521869132830034
 21
-23.841170748345359
 31
0.0
  0
LINE
  5
D086
  8
0
 10
3794.1521869132830034
 20
-23.841170748345359
 30
0.0
 11
3798.4096735892821926
 21
-23.841170748345359
 31
0.0
  0
LINE
  5
D087
  8
0
 10
3798.4096735892821926
 20
-23.841170748345359
 30
0.0
 11
3799.3109302512821159
 21
-23.8096981721453602
 31
0.0
  0
LINE
  5
D088
  8
0
 10
3799.2809302512828253
 20
-23.8107457952318988
 30
0.0
 11
3799.2809302512828253
 21
-24.1422095528453617
 31
0.0
  0
LINE
  5
D089
  8
0
 10
3799.2809302512828253
 20
-24.1422095528453617
 30
0.0
 11
3797.9549437329719694
 21
-24.1703104184387207
 31
0.0
  0
ARC
  5
D08A
  8
0
 10
3798.4211904230510299
 20
-24.1709697210406596
 30
0.0
 40
0.3299999997741198
 50
91.9999999764615382
 51
134.9999999962547861
  0
LINE
  5
D08B
  8
0
 10
3798.187845185434071
 20
-23.9376244833935807
 30
0.0
 11
3797.9550514667248535
 21
-24.1704182020720886
 31
0.0
  0
ARC
  5
D08C
  8
0
 10
3797.7007234595689624
 20
-23.9002004642968302
 30
0.0
 40
0.3710799927679369
 50
270.0319292154745767
 51
313.2649059870831252
  0
LINE
  5
D08D
  8
0
 10
3797.7009302512828981
 20
-24.2712803994453594
 30
0.0
 11
3794.8609302512818431
 21
-24.2712803994453594
 31
0.0
  0
ARC
  5
D08E
  8
0
 10
3794.8609219075988221
 20
-23.9013566224867198
 30
0.0
 40
0.3699237770527432
 50
226.6398973199374041
 51
270.0012923145005743
  0
LINE
  5
D08F
  8
0
 10
3794.6069391222818012
 20
-24.1703107925453686
 30
0.0
 11
3794.3792551079068289
 21
-23.9428642741678814
 31
0.0
  0
ARC
  5
D090
  8
0
 10
3794.1405466024311863
 20
-24.1715154108463395
 30
0.0
 40
0.3305496829384769
 50
43.7672109301536523
 51
87.9819111376684475
  0
LINE
  5
D091
  8
0
 10
3793.2809302512819158
 20
-23.8107457952318988
 30
0.0
 11
3793.2809302512819158
 21
-24.1422095528453617
 31
0.0
  0
LINE
  5
D092
  8
0
 10
3793.2809302512819158
 20
-24.1422095528453617
 30
0.0
 11
3794.6069167644150184
 21
-24.1703104135501903
 31
0.0
  0
LINE
  5
D093
  8
0
 10
3799.3109302512821159
 20
-23.7884371622453585
 30
0.0
 11
3799.3109302512821159
 21
-24.1849267512453601
 31
0.0
  0
LINE
  5
D094
  8
0
 10
3799.3109302512821159
 20
-24.1849267512453601
 30
0.0
 11
3801.5309302512828253
 21
-24.1074026430453614
 31
0.0
  0
LINE
  5
D095
  8
0
 10
3801.5309302512828253
 20
-24.0974856366453594
 30
0.0
 11
3801.5309302512828253
 21
-24.7712803994453594
 31
0.0
  0
LINE
  5
D096
  8
0
 10
3805.0309302512819158
 20
-24.7712803994453594
 30
0.0
 11
3805.0309302512819158
 21
-23.9791287339453696
 31
0.0
  0
LINE
  5
D097
  8
0
 10
3805.0309302512819158
 20
-23.9791287339453696
 30
0.0
 11
3801.5309302512828253
 21
-24.0974856366453594
 31
0.0
  0
LINE
  5
D098
  8
0
 10
3805.0311413069821356
 20
-23.9851725795453596
 30
0.0
 11
3805.3109302512821159
 21
-23.9754021343453587
 31
0.0
  0
LINE
  5
D099
  8
0
 10
3805.3109302512821159
 20
-23.9754021343453587
 30
0.0
 11
3805.3109302512821159
 21
-23.5924180852453702
 31
0.0
  0
LINE
  5
D09A
  8
0
 10
3805.3109302512821159
 20
-23.5924180852453702
 30
0.0
 11
3799.3109302512821159
 21
-23.7884371622453585
 31
0.0
  0
LINE
  5
D09B
  8
0
 10
3805.3109302512821159
 20
-23.6001735552453589
 30
0.0
 11
3806.0468823395822255
 21
-23.5744735391453588
 31
0.0
  0
ARC
  5
D09C
  8
0
 10
3805.9712513774597937
 20
-21.3992736645687884
 30
0.0
 40
2.1765143088869068
 50
271.9913526174744902
 51
355.1032951746515209
  0
LINE
  5
D09D
  8
0
 10
3808.1398218596827974
 20
-21.585060102245361
 30
0.0
 11
3809.6136398826110963
 21
-4.7712803994453621
 31
0.0
  0
LINE
  5
D09E
  8
0
 10
3792.6559302512819158
 20
-5.8132462563453577
 30
0.0
 11
3799.9059302512828253
 21
-5.8132462563453622
 31
0.0
  0
ARC
  5
D09F
  8
0
 10
3799.9059302512828253
 20
-5.938276768570101
 30
0.0
 40
0.1250305122247397
 50
1.265830030798671
 51
90.0
  0
LINE
  5
D0A0
  8
0
 10
3800.0309302512828253
 20
-5.9355147064453604
 30
0.0
 11
3800.0309302512828253
 21
-6.5468569569453621
 31
0.0
  0
ARC
  5
D0A1
  8
0
 10
3799.9072704123627773
 20
-6.5454649958964017
 30
0.0
 40
0.1236676728868548
 50
269.3790852941052094
 51
359.3550846750875962
  0
LINE
  5
D0A2
  8
0
 10
3799.9059302512828253
 20
-6.6691254070453629
 30
0.0
 11
3792.6559302512819158
 21
-6.6691254070453629
 31
0.0
  0
ARC
  5
D0A3
  8
0
 10
3792.6545900900728157
 20
-6.5454649960283184
 30
0.0
 40
0.123667672756348
 50
180.6449152644711091
 51
270.6209147663200838
  0
LINE
  5
D0A4
  8
0
 10
3792.5309302512819158
 20
-6.5468569569453621
 30
0.0
 11
3792.5309302512819158
 21
-5.9355534330907096
 31
0.0
  0
ARC
  5
D0A5
  8
0
 10
3792.656654524294936
 20
-5.9390161193869631
 30
0.0
 40
0.1257719484658663
 50
90.3299465158655437
 51
178.4223637693883973
  0
ATTDEF
  5
D0AC
  8
DEFPOINTS
 10
3796.2735428699461409
 20
-4.774652987627376
 30
0.0
 40
0.001
  1
K-1130-W1
  3

  2
MODELNUMBER
 70
     0
1001
ACDBATTR
1070
     0
1070
     1
  0
ATTDEF
  5
D0AD
  8
DEFPOINTS
 10
3796.2735428699461409
 20
-4.776319654294042
 30
0.0
 40
0.001
  1
UNDERSCORE
  3

  2
TRADENAME
 70
     0
1001
ACDBATTR
1070
     0
1070
     1
  0
ATTDEF
  5
D0AE
  8
DEFPOINTS
 10
3796.2735428699461409
 20
-4.7779863209607072
 30
0.0
 40
0.001
  1
BATH
  3

  2
PRODUCT
 70
     0
1001
ACDBATTR
1070
     0
1070
     1
  0
ENDSEC
  0
EOF
