  0
SECTION
  2
HEADER
  9
$ACADVER
  1
AC1009
  9
$INSBASE
 10
3492.3263740102061092
 20
196.9345910737764029
 30
0.0
  9
$EXTMIN
 10
3487.694512927705091
 20
191.8415397070264135
 30
0.0
  9
$EXTMAX
 10
3496.9582350927048537
 20
202.0276424405265061
 30
0.0
  9
$LIMMIN
 10
0.0
 20
0.0
  9
$LIMMAX
 10
11.6929133858000007
 20
8.2677165353999982
  9
$ORTHOMODE
 70
     0
  9
$REGENMODE
 70
     1
  9
$FILLMODE
 70
     1
  9
$QTEXTMODE
 70
     0
  9
$MIRRTEXT
 70
     0
  9
$DRAGMODE
 70
     2
  9
$LTSCALE
 40
0.6431102362
  9
$OSMODE
 70
  3839
  9
$ATTMODE
 70
     1
  9
$TEXTSIZE
 40
0.2
  9
$TRACEWID
 40
0.05
  9
$TEXTSTYLE
  7
STANDARD
  9
$CLAYER
  8
0
  9
$CELTYPE
  6
BYLAYER
  9
$CECOLOR
 62
   256
  9
$DIMSCALE
 40
1.0
  9
$DIMASZ
 40
0.1875
  9
$DIMEXO
 40
0.0625
  9
$DIMDLI
 40
0.4443307087
  9
$DIMRND
 40
0.0
  9
$DIMDLE
 40
0.0
  9
$DIMEXE
 40
0.125
  9
$DIMTP
 40
0.01
  9
$DIMTM
 40
0.01
  9
$DIMTXT
 40
2.0
  9
$DIMCEN
 40
0.1052362205
  9
$DIMTSZ
 40
0.0
  9
$DIMTOL
 70
     1
  9
$DIMLIM
 70
     0
  9
$DIMTIH
 70
     1
  9
$DIMTOH
 70
     1
  9
$DIMSE1
 70
     0
  9
$DIMSE2
 70
     0
  9
$DIMTAD
 70
     0
  9
$DIMZIN
 70
     0
  9
$DIMBLK
  1

  9
$DIMASO
 70
     1
  9
$DIMSHO
 70
     1
  9
$DIMPOST
  1
\X
  9
$DIMAPOST
  1

  9
$DIMALT
 70
     1
  9
$DIMALTD
 70
     2
  9
$DIMALTF
 40
25.3999999999999986
  9
$DIMLFAC
 40
1.0
  9
$DIMTOFL
 70
     0
  9
$DIMTVP
 40
0.0
  9
$DIMTIX
 70
     0
  9
$DIMSOXD
 70
     0
  9
$DIMSAH
 70
     0
  9
$DIMBLK1
  1

  9
$DIMBLK2
  1

  9
$DIMSTYLE
  2
STANDARD
  9
$DIMCLRD
 70
     0
  9
$DIMCLRE
 70
     0
  9
$DIMCLRT
 70
     0
  9
$DIMTFAC
 40
1.0
  9
$DIMGAP
 40
0.09
  9
$LUNITS
 70
     2
  9
$LUPREC
 70
     4
  9
$SKETCHINC
 40
0.1
  9
$FILLETRAD
 40
0.0
  9
$AUNITS
 70
     0
  9
$AUPREC
 70
     0
  9
$MENU
  1
.
  9
$ELEVATION
 40
0.0
  9
$PELEVATION
 40
0.0
  9
$THICKNESS
 40
0.0
  9
$LIMCHECK
 70
     0
  9
$BLIPMODE
 70
     0
  9
$CHAMFERA
 40
0.0
  9
$CHAMFERB
 40
0.0
  9
$SKPOLY
 70
     0
  9
$TDCREATE
 40
2458060.468368056230247
  9
$TDUPDATE
 40
2459038.7306018518283963
  9
$TDINDWG
 40
0.5045440972
  9
$TDUSRTIMER
 40
0.5045440972
  9
$USRTIMER
 70
     1
  9
$ANGBASE
 50
0.0
  9
$ANGDIR
 70
     0
  9
$PDMODE
 70
     0
  9
$PDSIZE
 40
0.3125
  9
$PLINEWID
 40
0.0
  9
$COORDS
 70
     1
  9
$SPLFRAME
 70
     0
  9
$SPLINETYPE
 70
     6
  9
$SPLINESEGS
 70
     8
  9
$ATTDIA
 70
     1
  9
$ATTREQ
 70
     1
  9
$HANDLING
 70
     1
  9
$HANDSEED
  5
8C44
  9
$SURFTAB1
 70
     6
  9
$SURFTAB2
 70
     6
  9
$SURFTYPE
 70
     6
  9
$SURFU
 70
     6
  9
$SURFV
 70
     6
  9
$UCSNAME
  2

  9
$UCSORG
 10
0.0
 20
0.0
 30
0.0
  9
$UCSXDIR
 10
1.0
 20
0.0
 30
0.0
  9
$UCSYDIR
 10
0.0
 20
1.0
 30
0.0
  9
$PUCSNAME
  2

  9
$PUCSORG
 10
0.0
 20
0.0
 30
0.0
  9
$PUCSXDIR
 10
1.0
 20
0.0
 30
0.0
  9
$PUCSYDIR
 10
0.0
 20
1.0
 30
0.0
  9
$USERI1
 70
     0
  9
$USERI2
 70
     0
  9
$USERI3
 70
     0
  9
$USERI4
 70
     0
  9
$USERI5
 70
     0
  9
$USERR1
 40
0.0
  9
$USERR2
 40
0.0
  9
$USERR3
 40
0.0
  9
$USERR4
 40
0.0
  9
$USERR5
 40
0.0
  9
$WORLDVIEW
 70
     1
  9
$SHADEDGE
 70
     3
  9
$SHADEDIF
 70
    70
  9
$TILEMODE
 70
     1
  9
$MAXACTVP
 70
    64
  9
$PLIMCHECK
 70
     0
  9
$PEXTMIN
 10
1.0000000000000000E+20
 20
1.0000000000000000E+20
 30
1.0000000000000000E+20
  9
$PEXTMAX
 10
-1.0000000000000000E+20
 20
-1.0000000000000000E+20
 30
-1.0000000000000000E+20
  9
$PLIMMIN
 10
0.0
 20
0.0
  9
$PLIMMAX
 10
12.0
 20
9.0
  9
$UNITMODE
 70
     0
  9
$VISRETAIN
 70
     1
  9
$PLINEGEN
 70
     0
  9
$PSLTSCALE
 70
     1
  0
ENDSEC
  0
SECTION
  2
TABLES
  0
TABLE
  2
VPORT
 70
     1
  0
VPORT
  2
*ACTIVE
 70
     0
 10
0.0
 20
0.0
 11
1.0
 21
1.0
 12
0.0
 22
0.0
 13
0.0
 23
0.0
 14
1.0
 24
1.0
 15
0.0
 25
0.0
 16
0.0
 26
0.0
 36
57.1607190769261919
 17
3492.326416015625
 27
196.9345932006835938
 37
0.0
 40
13.7685323503802
 41
3.314341846758349
 42
50.0
 43
0.0
 44
0.0
 50
0.0
 51
0.0
 71
     0
 72
   100
 73
     1
 74
     1
 75
     0
 76
     0
 77
     0
 78
     0
  0
ENDTAB
  0
TABLE
  2
LTYPE
 70
     2
  0
LTYPE
  2
CONTINUOUS
 70
     0
  3
Solid line
 72
    65
 73
     0
 40
0.0
  0
LTYPE
  2
PHANTOM2
 70
     0
  3
___ _ _ ___ _ _ ___ _ _ ___ _ _
 72
    65
 73
     6
 40
1.25
 49
0.625
 49
-0.125
 49
0.125
 49
-0.125
 49
0.125
 49
-0.125
  0
ENDTAB
  0
TABLE
  2
LAYER
 70
     2
  0
LAYER
  2
0
 70
     0
 62
   255
  6
CONTINUOUS
  0
LAYER
  2
DEFPOINTS
 70
     0
 62
     7
  6
CONTINUOUS
  0
ENDTAB
  0
TABLE
  2
STYLE
 70
     1
  0
STYLE
  2
STANDARD
 70
     0
 40
0.0
 41
0.8
 50
0.0
 71
     0
 42
0.2
  3
txt
  4

  0
ENDTAB
  0
TABLE
  2
VIEW
 70
     0
  0
ENDTAB
  0
TABLE
  2
UCS
 70
     0
  0
ENDTAB
  0
TABLE
  2
APPID
 70
     9
  0
APPID
  2
ACAD
 70
     0
  0
APPID
  2
ACAD_MLEADERVER
 70
     0
  0
APPID
  2
ACAD_EXEMPT_FROM_CAD_STANDARDS
 70
     0
  0
APPID
  2
ACAD_NAV_VCDISPLAY
 70
     0
  0
APPID
  2
ACAECLAYERSTANDARD
 70
     0
  0
APPID
  2
ACCMTRANSPARENCY
 70
     0
  0
APPID
  2
ACAD_DSTYLE_DIMJAG
 70
     0
  0
APPID
  2
ACAD_DSTYLE_DIMTALN
 70
     0
  0
APPID
  2
ACDBATTR
 70
     0
  0
ENDTAB
  0
TABLE
  2
DIMSTYLE
 70
     1
  0
DIMSTYLE
  2
STANDARD
 70
     0
  3

  4

  5

  6

  7

 40
1.0
 41
0.1875
 42
0.0625
 43
0.38
 44
0.125
 45
0.0
 46
0.0
 47
0.01
 48
0.01
140
0.15625
141
0.09
142
0.0
143
25.3999999999999986
144
1.0
145
0.0
146
1.0
147
0.09
 71
     1
 72
     0
 73
     1
 74
     1
 75
     0
 76
     0
 77
     0
 78
     4
170
     0
171
     2
172
     0
173
     0
174
     0
175
     0
176
     0
177
     0
178
     0
  0
ENDTAB
  0
ENDSEC
  0
SECTION
  2
BLOCKS
  0
BLOCK
  8
0
  2
$MODEL_SPACE
 70
     0
 10
0.0
 20
0.0
 30
0.0
  3
$MODEL_SPACE
  1

  0
ENDBLK
  5
21
  8
0
  0
BLOCK
 67
     1
  8
0
  2
$PAPER_SPACE
 70
     0
 10
0.0
 20
0.0
 30
0.0
  3
$PAPER_SPACE
  1

  0
ENDBLK
  5
1D
 67
     1
  8
0
  0
BLOCK
  8
0
  2
_FILLED
 70
     0
 10
0.0
 20
0.0
 30
0.0
  3
_FILLED
  1

  0
SOLID
  5
6F59
  8
0
  6
BYBLOCK
 62
     0
 10
0.0
 20
0.0
 30
0.0
 11
-1.0
 21
0.1666666667
 31
0.0
 12
-1.0
 22
-0.1666666667
 32
0.0
 13
-1.0
 23
-0.1666666667
 33
0.0
  0
ENDBLK
  5
6F5A
  8
0
  6
BYBLOCK
 62
     0
  0
ENDSEC
  0
SECTION
  2
ENTITIES
  0
ATTDEF
  5
3930
  8
DEFPOINTS
 10
3492.3266063975129327
 20
196.9331240836982886
 30
0.0
 40
0.001
  1
K-11340IN
  3

  2
MODELNUMBER
 70
     0
1001
ACDBATTR
1070
     0
1070
     1
  0
ATTDEF
  5
3931
  8
DEFPOINTS
 10
3492.3266063975129327
 20
196.9314574170317087
 30
0.0
 40
0.001
  1
FOLIO
  3

  2
TRADENAME
 70
     0
1001
ACDBATTR
1070
     0
1070
     1
  0
ATTDEF
  5
3932
  8
DEFPOINTS
 10
3492.3266063975129327
 20
196.9297907503649867
 30
0.0
 40
0.001
  1
PEDESTAL
  3

  2
PRODUCT
 70
     0
1001
ACDBATTR
1070
     0
1070
     1
  0
ARC
  5
89B8
  8
0
 10
3492.3209224519077907
 20
169.9705669565011874
 30
0.0
 40
21.9657844776200797
 50
89.9857800987871457
 51
90.9191073164731876
  0
ARC
  5
89B9
  8
0
 10
3491.9756685065599413
 20
190.4341862659732101
 30
0.0
 40
1.499355804180456
 50
90.2710863964008041
 51
97.4708976231847402
  0
ARC
  5
89BA
  8
0
 10
3491.7804911750490646
 20
191.9163540394505105
 30
0.0
 40
0.0044658307890721
 50
87.0836954021812204
 51
252.3559397703072023
  0
ARC
  5
89BB
  8
0
 10
3492.0922026220819134
 20
193.2324734337821894
 30
0.0
 40
1.356982035739253
 50
256.6613093960302763
 51
268.1433035868611796
  0
ARC
  5
89BC
  8
0
 10
3492.3190383678129365
 20
196.5408107499337973
 30
0.0
 40
4.6724609448937731
 50
266.6774483000523901
 51
270.0899529234533247
  0
ARC
  5
89BD
  8
0
 10
3492.4718864703941108
 20
201.4421362359196053
 30
0.0
 40
9.6016992030924406
 50
262.4237648213609759
 51
269.1316569257144806
  0
ARC
  5
89BE
  8
0
 10
3491.657937235116151
 20
194.8597839054012866
 30
0.0
 40
2.9701200582845191
 50
241.7389617611866868
 51
261.246790123046992
  0
ARC
  5
89BF
  8
0
 10
3491.8631388441108356
 20
195.2016339920116934
 30
0.0
 40
3.3684351415846709
 50
231.595999941116105
 51
241.4178338653173057
  0
ARC
  5
89C0
  8
0
 10
3490.1592088577222057
 20
193.1494576936341048
 30
0.0
 40
0.7043617604567506
 50
183.2578198456575933
 51
236.5207743432684993
  0
LINE
  5
89C1
  8
0
 10
3489.4559853996061065
 20
193.1094294842264105
 30
0.0
 11
3489.0753407635061194
 21
201.8632928929264096
 31
0.0
  0
ARC
  5
89C2
  8
0
 10
3488.572128138869175
 20
199.4822067293345071
 30
0.0
 40
0.6061840821342079
 50
3.639152137473753
 51
54.0992154045979419
  0
LINE
  5
89C3
  8
0
 10
3488.9275844518051599
 20
199.9732362101464105
 30
0.0
 11
3488.0554102863861772
 21
200.5640538271507012
 31
0.0
  0
ARC
  5
89C4
  8
0
 10
3488.3863614635670274
 20
201.0531574218962874
 30
0.0
 40
0.5905514440509388
 50
187.5750054195883934
 51
235.9158148846422023
  0
LINE
  5
89C5
  8
0
 10
3487.8009636786059673
 20
200.9753085848263936
 30
0.0
 11
3487.694512927705091
 21
201.7914219681264001
 31
0.0
  0
ARC
  5
89C6
  8
0
 10
3487.9527369010747861
 20
201.7694184671009054
 30
0.0
 40
0.2591597470290603
 50
94.870460410163389
 51
175.1295394443174871
  0
CIRCLE
  5
89C7
  8
0
 10
3488.5862165291059682
 20
201.2402408657264061
 30
0.0
 40
0.157480315
  0
LINE
  5
89C8
  8
0
 10
3487.9307334007057761
 20
202.0276424405265061
 30
0.0
 11
3496.7220146197059876
 21
202.0276424405265061
 31
0.0
  0
ARC
  5
89C9
  8
0
 10
3489.2327379078637932
 20
201.8700982511606981
 30
0.0
 40
0.1575441968237655
 50
90.0176298599219251
 51
182.475747601275998
  0
ARC
  5
89CE
  8
0
 10
3492.331825568503973
 20
169.9705669565011874
 30
0.0
 40
21.9657844776200797
 50
89.0808926835268267
 51
90.0142199012128543
  0
ARC
  5
89CF
  8
0
 10
3492.6770795138518224
 20
190.4341862659732101
 30
0.0
 40
1.499355804180456
 50
82.5291023768152883
 51
89.7289136035992243
  0
ARC
  5
89D0
  8
0
 10
3492.8722568453631538
 20
191.9163540394505105
 30
0.0
 40
0.0044658307890721
 50
287.6440602296927977
 51
92.9163045978187654
  0
ARC
  5
89D1
  8
0
 10
3492.5605453983298503
 20
193.2324734337821894
 30
0.0
 40
1.356982035739253
 50
271.8566964131388204
 51
283.3386906039697237
  0
ARC
  5
89D2
  8
0
 10
3492.3337096525979177
 20
196.5408107499337973
 30
0.0
 40
4.6724609448937731
 50
269.9100470765466753
 51
273.3225516999476099
  0
ARC
  5
89D3
  8
0
 10
3492.2679263503341645
 20
200.2628204575545112
 30
0.0
 40
8.4214835752472315
 50
270.3976533454929267
 51
278.0469249074345157
  0
ARC
  5
89D4
  8
0
 10
3492.9948107852960675
 20
194.8597839054012866
 30
0.0
 40
2.9701200582845191
 50
278.753209876953008
 51
298.2610382388132848
  0
ARC
  5
89D5
  8
0
 10
3492.7896091763009281
 20
195.2016339920116934
 30
0.0
 40
3.3684351415846709
 50
298.5821661346827227
 51
308.4040000588839234
  0
ARC
  5
89D6
  8
0
 10
3494.4935391626891033
 20
193.1494576936341048
 30
0.0
 40
0.7043617604567506
 50
303.4792256567316144
 51
356.7421801543424067
  0
LINE
  5
89D7
  8
0
 10
3495.196762620806112
 20
193.1094294842264105
 30
0.0
 11
3495.5774072569060991
 21
201.8632928929264096
 31
0.0
  0
ARC
  5
89D8
  8
0
 10
3496.0809747538419288
 20
199.4818553536811123
 30
0.0
 40
0.6066768049292742
 50
125.908473839663003
 51
176.3226445613397004
  0
LINE
  5
89D9
  8
0
 10
3495.7251635686061491
 20
199.9732362101464105
 30
0.0
 11
3496.5973377340260413
 21
200.5640538271507012
 31
0.0
  0
ARC
  5
89DA
  8
0
 10
3496.2663865568451911
 20
201.0531574218962874
 30
0.0
 40
0.5905514440509388
 50
304.0841851153579114
 51
352.4249945804115214
  0
LINE
  5
89DB
  8
0
 10
3496.8517843418057964
 20
200.9753085848263936
 30
0.0
 11
3496.9582350927048537
 21
201.7914219681264001
 31
0.0
  0
ARC
  5
89DC
  8
0
 10
3496.7000111193369776
 20
201.7694184671009054
 30
0.0
 40
0.2591597470290603
 50
4.8704605556825067
 51
85.129539589836611
  0
CIRCLE
  5
89DD
  8
0
 10
3496.0665314913057955
 20
201.2402408657264061
 30
0.0
 40
0.157480315
  0
ARC
  5
89DE
  8
0
 10
3495.420010112547061
 20
201.8700982511606981
 30
0.0
 40
0.1575441968237655
 50
357.524252398724002
 51
89.9823701400780607
  0
ENDSEC
  0
EOF
