  0
SECTION
  2
HEADER
  9
$ACADVER
  1
AC1009
  9
$INSBASE
 10
3485.3782452742270834
 20
197.076639441419502
 30
0.0
  9
$EXTMIN
 10
3473.9679486122067829
 20
191.9835880746686883
 30
0.0
  9
$EXTMAX
 10
3485.3782712596748752
 20
202.1696908081694914
 30
0.0
  9
$LIMMIN
 10
0.0
 20
0.0
  9
$LIMMAX
 10
11.6929133858000007
 20
8.2677165353999982
  9
$ORTHOMODE
 70
     0
  9
$REGENMODE
 70
     1
  9
$FILLMODE
 70
     1
  9
$QTEXTMODE
 70
     0
  9
$MIRRTEXT
 70
     0
  9
$DRAGMODE
 70
     2
  9
$LTSCALE
 40
0.6431102362
  9
$OSMODE
 70
  3839
  9
$ATTMODE
 70
     1
  9
$TEXTSIZE
 40
0.2
  9
$TRACEWID
 40
0.05
  9
$TEXTSTYLE
  7
STANDARD
  9
$CLAYER
  8
0
  9
$CELTYPE
  6
BYLAYER
  9
$CECOLOR
 62
   256
  9
$DIMSCALE
 40
1.0
  9
$DIMASZ
 40
0.1875
  9
$DIMEXO
 40
0.0625
  9
$DIMDLI
 40
0.4443307087
  9
$DIMRND
 40
0.0
  9
$DIMDLE
 40
0.0
  9
$DIMEXE
 40
0.125
  9
$DIMTP
 40
0.01
  9
$DIMTM
 40
0.01
  9
$DIMTXT
 40
2.0
  9
$DIMCEN
 40
0.1052362205
  9
$DIMTSZ
 40
0.0
  9
$DIMTOL
 70
     1
  9
$DIMLIM
 70
     0
  9
$DIMTIH
 70
     1
  9
$DIMTOH
 70
     1
  9
$DIMSE1
 70
     0
  9
$DIMSE2
 70
     0
  9
$DIMTAD
 70
     0
  9
$DIMZIN
 70
     0
  9
$DIMBLK
  1

  9
$DIMASO
 70
     1
  9
$DIMSHO
 70
     1
  9
$DIMPOST
  1
\X
  9
$DIMAPOST
  1

  9
$DIMALT
 70
     1
  9
$DIMALTD
 70
     2
  9
$DIMALTF
 40
25.3999999999999986
  9
$DIMLFAC
 40
1.0
  9
$DIMTOFL
 70
     0
  9
$DIMTVP
 40
0.0
  9
$DIMTIX
 70
     0
  9
$DIMSOXD
 70
     0
  9
$DIMSAH
 70
     0
  9
$DIMBLK1
  1

  9
$DIMBLK2
  1

  9
$DIMSTYLE
  2
STANDARD
  9
$DIMCLRD
 70
     0
  9
$DIMCLRE
 70
     0
  9
$DIMCLRT
 70
     0
  9
$DIMTFAC
 40
1.0
  9
$DIMGAP
 40
0.09
  9
$LUNITS
 70
     2
  9
$LUPREC
 70
     4
  9
$SKETCHINC
 40
0.1
  9
$FILLETRAD
 40
0.0
  9
$AUNITS
 70
     0
  9
$AUPREC
 70
     0
  9
$MENU
  1
.
  9
$ELEVATION
 40
0.0
  9
$PELEVATION
 40
0.0
  9
$THICKNESS
 40
0.0
  9
$LIMCHECK
 70
     0
  9
$BLIPMODE
 70
     0
  9
$CHAMFERA
 40
0.0
  9
$CHAMFERB
 40
0.0
  9
$SKPOLY
 70
     0
  9
$TDCREATE
 40
2458060.468368056230247
  9
$TDUPDATE
 40
2459038.7314814808778465
  9
$TDINDWG
 40
0.5020209490999999
  9
$TDUSRTIMER
 40
0.5020209490999999
  9
$USRTIMER
 70
     1
  9
$ANGBASE
 50
0.0
  9
$ANGDIR
 70
     0
  9
$PDMODE
 70
     0
  9
$PDSIZE
 40
0.3125
  9
$PLINEWID
 40
0.0
  9
$COORDS
 70
     1
  9
$SPLFRAME
 70
     0
  9
$SPLINETYPE
 70
     6
  9
$SPLINESEGS
 70
     8
  9
$ATTDIA
 70
     1
  9
$ATTREQ
 70
     1
  9
$HANDLING
 70
     1
  9
$HANDSEED
  5
8C0D
  9
$SURFTAB1
 70
     6
  9
$SURFTAB2
 70
     6
  9
$SURFTYPE
 70
     6
  9
$SURFU
 70
     6
  9
$SURFV
 70
     6
  9
$UCSNAME
  2

  9
$UCSORG
 10
0.0
 20
0.0
 30
0.0
  9
$UCSXDIR
 10
1.0
 20
0.0
 30
0.0
  9
$UCSYDIR
 10
0.0
 20
1.0
 30
0.0
  9
$PUCSNAME
  2

  9
$PUCSORG
 10
0.0
 20
0.0
 30
0.0
  9
$PUCSXDIR
 10
1.0
 20
0.0
 30
0.0
  9
$PUCSYDIR
 10
0.0
 20
1.0
 30
0.0
  9
$USERI1
 70
     0
  9
$USERI2
 70
     0
  9
$USERI3
 70
     0
  9
$USERI4
 70
     0
  9
$USERI5
 70
     0
  9
$USERR1
 40
0.0
  9
$USERR2
 40
0.0
  9
$USERR3
 40
0.0
  9
$USERR4
 40
0.0
  9
$USERR5
 40
0.0
  9
$WORLDVIEW
 70
     1
  9
$SHADEDGE
 70
     3
  9
$SHADEDIF
 70
    70
  9
$TILEMODE
 70
     1
  9
$MAXACTVP
 70
    64
  9
$PLIMCHECK
 70
     0
  9
$PEXTMIN
 10
1.0000000000000000E+20
 20
1.0000000000000000E+20
 30
1.0000000000000000E+20
  9
$PEXTMAX
 10
-1.0000000000000000E+20
 20
-1.0000000000000000E+20
 30
-1.0000000000000000E+20
  9
$PLIMMIN
 10
0.0
 20
0.0
  9
$PLIMMAX
 10
12.0
 20
9.0
  9
$UNITMODE
 70
     0
  9
$VISRETAIN
 70
     1
  9
$PLINEGEN
 70
     0
  9
$PSLTSCALE
 70
     1
  0
ENDSEC
  0
SECTION
  2
TABLES
  0
TABLE
  2
VPORT
 70
     1
  0
VPORT
  2
*ACTIVE
 70
     0
 10
0.0
 20
0.0
 11
1.0
 21
1.0
 12
0.0
 22
0.0
 13
0.0
 23
0.0
 14
1.0
 24
1.0
 15
0.0
 25
0.0
 16
0.0
 26
0.0
 36
63.499484046271462
 17
3479.673095703125
 27
197.0766372680664063
 37
0.0
 40
15.2953761681500993
 41
3.314341846758349
 42
50.0
 43
0.0
 44
0.0
 50
0.0
 51
0.0
 71
     0
 72
   100
 73
     1
 74
     1
 75
     0
 76
     0
 77
     0
 78
     0
  0
ENDTAB
  0
TABLE
  2
LTYPE
 70
     2
  0
LTYPE
  2
CONTINUOUS
 70
     0
  3
Solid line
 72
    65
 73
     0
 40
0.0
  0
LTYPE
  2
PHANTOM2
 70
     0
  3
___ _ _ ___ _ _ ___ _ _ ___ _ _
 72
    65
 73
     6
 40
1.25
 49
0.625
 49
-0.125
 49
0.125
 49
-0.125
 49
0.125
 49
-0.125
  0
ENDTAB
  0
TABLE
  2
LAYER
 70
     2
  0
LAYER
  2
0
 70
     0
 62
   255
  6
CONTINUOUS
  0
LAYER
  2
DEFPOINTS
 70
     0
 62
     7
  6
CONTINUOUS
  0
ENDTAB
  0
TABLE
  2
STYLE
 70
     1
  0
STYLE
  2
STANDARD
 70
     0
 40
0.0
 41
0.8
 50
0.0
 71
     0
 42
0.2
  3
txt
  4

  0
ENDTAB
  0
TABLE
  2
VIEW
 70
     0
  0
ENDTAB
  0
TABLE
  2
UCS
 70
     0
  0
ENDTAB
  0
TABLE
  2
APPID
 70
     9
  0
APPID
  2
ACAD
 70
     0
  0
APPID
  2
ACAD_MLEADERVER
 70
     0
  0
APPID
  2
ACAD_EXEMPT_FROM_CAD_STANDARDS
 70
     0
  0
APPID
  2
ACAD_NAV_VCDISPLAY
 70
     0
  0
APPID
  2
ACAECLAYERSTANDARD
 70
     0
  0
APPID
  2
ACCMTRANSPARENCY
 70
     0
  0
APPID
  2
ACAD_DSTYLE_DIMJAG
 70
     0
  0
APPID
  2
ACAD_DSTYLE_DIMTALN
 70
     0
  0
APPID
  2
ACDBATTR
 70
     0
  0
ENDTAB
  0
TABLE
  2
DIMSTYLE
 70
     1
  0
DIMSTYLE
  2
STANDARD
 70
     0
  3

  4

  5

  6

  7

 40
1.0
 41
0.1875
 42
0.0625
 43
0.38
 44
0.125
 45
0.0
 46
0.0
 47
0.01
 48
0.01
140
0.15625
141
0.09
142
0.0
143
25.3999999999999986
144
1.0
145
0.0
146
1.0
147
0.09
 71
     1
 72
     0
 73
     1
 74
     1
 75
     0
 76
     0
 77
     0
 78
     4
170
     0
171
     2
172
     0
173
     0
174
     0
175
     0
176
     0
177
     0
178
     0
  0
ENDTAB
  0
ENDSEC
  0
SECTION
  2
BLOCKS
  0
BLOCK
  8
0
  2
$MODEL_SPACE
 70
     0
 10
0.0
 20
0.0
 30
0.0
  3
$MODEL_SPACE
  1

  0
ENDBLK
  5
21
  8
0
  0
BLOCK
 67
     1
  8
0
  2
$PAPER_SPACE
 70
     0
 10
0.0
 20
0.0
 30
0.0
  3
$PAPER_SPACE
  1

  0
ENDBLK
  5
1D
 67
     1
  8
0
  0
BLOCK
  8
0
  2
_FILLED
 70
     0
 10
0.0
 20
0.0
 30
0.0
  3
_FILLED
  1

  0
SOLID
  5
6F59
  8
0
  6
BYBLOCK
 62
     0
 10
0.0
 20
0.0
 30
0.0
 11
-1.0
 21
0.1666666667
 31
0.0
 12
-1.0
 22
-0.1666666667
 32
0.0
 13
-1.0
 23
-0.1666666667
 33
0.0
  0
ENDBLK
  5
6F5A
  8
0
  6
BYBLOCK
 62
     0
  0
ENDSEC
  0
SECTION
  2
ENTITIES
  0
ATTDEF
  5
3930
  8
DEFPOINTS
 10
3485.3670811272932042
 20
197.0753138501684134
 30
0.0
 40
0.001
  1
K-11340IN
  3

  2
MODELNUMBER
 70
     0
1001
ACDBATTR
1070
     0
1070
     1
  0
ATTDEF
  5
3931
  8
DEFPOINTS
 10
3485.3670811272932042
 20
197.0736471835016914
 30
0.0
 40
0.001
  1
FOLIO
  3

  2
TRADENAME
 70
     0
1001
ACDBATTR
1070
     0
1070
     1
  0
ATTDEF
  5
3932
  8
DEFPOINTS
 10
3485.3670811272932042
 20
197.0719805168351115
 30
0.0
 40
0.001
  1
PEDESTAL
  3

  2
PRODUCT
 70
     0
1001
ACDBATTR
1070
     0
1070
     1
  0
LINE
  5
8A50
  8
0
 10
3474.1254281764831831
 20
202.1696908081694914
 30
0.0
 11
3485.220764959277858
 21
202.1696908081694914
 31
0.0
  0
ARC
  5
8A51
  8
0
 10
3485.220764959277858
 20
202.0122104933402909
 30
0.0
 40
0.1574803148292929
 50
359.9999999756743136
 51
90.0000000621153617
  0
LINE
  5
8A52
  8
0
 10
3485.3782452741070301
 20
202.0122104932733862
 30
0.0
 11
3485.3782452743339491
 21
192.7108640362694985
 31
0.0
  0
ARC
  5
8A53
  8
0
 10
3485.1587974092431068
 20
192.7074868287683103
 30
0.0
 40
0.2194738504320126
 50
321.0598789290099262
 51
0.8816876043420279
  0
LINE
  5
8A54
  8
0
 10
3485.2214483451061824
 20
192.5163567195695009
 30
0.0
 11
3485.0632846442058508
 21
192.5151859438695112
 31
0.0
  0
ARC
  5
8A55
  8
0
 10
3485.0629701551738435
 20
192.3039014137683864
 30
0.0
 40
0.2112847641534812
 50
89.9147174619975118
 51
121.3041184303410063
  0
LINE
  5
8A56
  8
0
 10
3484.9058043292070579
 20
192.4147935552695117
 30
0.0
 11
3484.9058043292070579
 21
192.2666146199694879
 31
0.0
  0
ARC
  5
8A57
  8
0
 10
3485.2179873814147868
 20
192.6597438053996996
 30
0.0
 40
0.1434288487457937
 50
271.3826915789795748
 51
321.0332400636996226
  0
ARC
  5
8A58
  8
0
 10
3484.997940751961778
 20
192.4030346196273058
 30
0.0
 40
0.0928837605043253
 50
118.802079041529197
 51
172.7269291490204068
  0
LINE
  5
8A59
  8
0
 10
3484.9058043292070579
 20
192.2666146199694879
 30
0.0
 11
3484.8341114158070013
 21
192.2661347314694922
 31
0.0
  0
ARC
  5
8A5A
  8
0
 10
3484.836437825998928
 20
191.9185808216697922
 30
0.0
 40
0.3475616958202321
 50
90.3835131499771478
 51
105.217560903503994
  0
ARC
  5
8A5B
  8
0
 10
3484.7760549979161624
 20
192.1405576332824978
 30
0.0
 40
0.1175186763194768
 50
105.217560903503994
 51
147.7820683034568106
  0
LINE
  5
8A5C
  8
0
 10
3484.6766311009059791
 20
192.2032116673694873
 30
0.0
 11
3484.6766311009059791
 21
192.1169980061694957
 31
0.0
  0
LINE
  5
8A5D
  8
0
 10
3484.6766311009059791
 20
192.1169980061694957
 30
0.0
 11
3483.2520762182120961
 21
192.1086656602369942
 31
0.0
  0
ARC
  5
8A5E
  8
0
 10
3483.312997646722124
 20
188.2216934176979919
 30
0.0
 40
3.8874496311489319
 50
90.8979366824258932
 51
100.3052071354083949
  0
ARC
  5
8A5F
  8
0
 10
3488.2032326107450899
 20
161.3263936942512942
 30
0.0
 40
31.2237175771834288
 50
100.3052171930404057
 51
100.9310787329017955
  0
ARC
  5
8A60
  8
0
 10
3486.6780437685138168
 20
283.641621077741604
 30
0.0
 40
91.7633762873653041
 50
265.5852508992869048
 51
267.2543326394477958
  0
ARC
  5
8A61
  8
0
 10
3483.1654949719791148
 20
224.8700671546293961
 30
0.0
 40
32.9116857273893828
 50
257.4518342013989241
 51
263.8060250934547071
  0
ARC
  5
8A62
  8
0
 10
3480.3772973505570008
 20
214.6110561359975009
 30
0.0
 40
22.297404550164039
 50
255.4633357939937923
 51
258.7180451628457263
  0
ARC
  5
8A63
  8
0
 10
3474.9262128677978581
 20
193.5997936154709009
 30
0.0
 40
0.5905580203740789
 50
182.5004930724178962
 51
255.7315118671376126
  0
LINE
  5
8A64
  8
0
 10
3474.3362171495059556
 20
193.5740287590695061
 30
0.0
 11
3473.9679486122067829
 21
202.0122075081696096
 31
0.0
  0
ARC
  5
8A65
  8
0
 10
3474.1254319426179791
 20
202.0122074778037131
 30
0.0
 40
0.1574833304108927
 50
90.0013701999285445
 51
179.9999889522433989
  0
ARC
  5
8A6A
  8
0
 10
3482.0267387115832207
 20
200.9741046128266078
 30
0.0
 40
2.953408298757104
 50
333.5380173842311251
 51
347.1171985941198841
  0
LINE
  5
8A6B
  8
0
 10
3484.9058043002069098
 20
200.3156200529695923
 30
0.0
 11
3484.9057898546211618
 21
202.0121538788201008
 31
0.0
  0
ARC
  5
8A6C
  8
0
 10
3485.0632948843131089
 20
202.0121857755806047
 30
0.0
 40
0.1575050329217917
 50
90.0037250547024144
 51
180.0116031198276971
  0
LINE
  5
8A6D
  8
0
 10
3484.6707191008399604
 20
199.6580543552784945
 30
0.0
 11
3485.3782452741638735
 21
199.6580533622868074
 31
0.0
  0
ENDSEC
  0
EOF
