  0
SECTION
  2
HEADER
  9
$ACADVER
  1
AC1009
  9
$INSBASE
 10
4412.5237755734106031
 20
268.2948009546112758
 30
0.0
  9
$EXTMIN
 10
4377.1695504580293345
 20
268.2677389476523899
 30
-0.0000000349181948
  9
$EXTMAX
 10
4447.7712867043173901
 20
293.2600578145456893
 30
0.0000000814935746
  9
$LIMMIN
 10
0.0
 20
0.0
  9
$LIMMAX
 10
11.6929133858000007
 20
8.2677165353999982
  9
$ORTHOMODE
 70
     0
  9
$REGENMODE
 70
     1
  9
$FILLMODE
 70
     1
  9
$QTEXTMODE
 70
     0
  9
$MIRRTEXT
 70
     0
  9
$DRAGMODE
 70
     2
  9
$LTSCALE
 40
0.6431102362
  9
$OSMODE
 70
   575
  9
$ATTMODE
 70
     1
  9
$TEXTSIZE
 40
0.2
  9
$TRACEWID
 40
0.05
  9
$TEXTSTYLE
  7
STANDARD
  9
$CLAYER
  8
0
  9
$CELTYPE
  6
BYLAYER
  9
$CECOLOR
 62
   256
  9
$DIMSCALE
 40
1.0
  9
$DIMASZ
 40
0.1875
  9
$DIMEXO
 40
0.0625
  9
$DIMDLI
 40
0.4443307087
  9
$DIMRND
 40
0.0
  9
$DIMDLE
 40
0.0
  9
$DIMEXE
 40
0.125
  9
$DIMTP
 40
0.01
  9
$DIMTM
 40
0.01
  9
$DIMTXT
 40
2.0
  9
$DIMCEN
 40
0.1052362205
  9
$DIMTSZ
 40
0.0
  9
$DIMTOL
 70
     1
  9
$DIMLIM
 70
     0
  9
$DIMTIH
 70
     1
  9
$DIMTOH
 70
     1
  9
$DIMSE1
 70
     0
  9
$DIMSE2
 70
     0
  9
$DIMTAD
 70
     0
  9
$DIMZIN
 70
     0
  9
$DIMBLK
  1

  9
$DIMASO
 70
     1
  9
$DIMSHO
 70
     1
  9
$DIMPOST
  1
\X
  9
$DIMAPOST
  1

  9
$DIMALT
 70
     1
  9
$DIMALTD
 70
     2
  9
$DIMALTF
 40
25.3999999999999986
  9
$DIMLFAC
 40
1.0
  9
$DIMTOFL
 70
     0
  9
$DIMTVP
 40
0.0
  9
$DIMTIX
 70
     0
  9
$DIMSOXD
 70
     0
  9
$DIMSAH
 70
     0
  9
$DIMBLK1
  1

  9
$DIMBLK2
  1

  9
$DIMSTYLE
  2
STANDARD
  9
$DIMCLRD
 70
     0
  9
$DIMCLRE
 70
     0
  9
$DIMCLRT
 70
     0
  9
$DIMTFAC
 40
1.0
  9
$DIMGAP
 40
0.09
  9
$LUNITS
 70
     2
  9
$LUPREC
 70
     4
  9
$SKETCHINC
 40
0.1
  9
$FILLETRAD
 40
0.0
  9
$AUNITS
 70
     0
  9
$AUPREC
 70
     0
  9
$MENU
  1
.
  9
$ELEVATION
 40
0.0
  9
$PELEVATION
 40
0.0
  9
$THICKNESS
 40
0.0
  9
$LIMCHECK
 70
     0
  9
$BLIPMODE
 70
     0
  9
$CHAMFERA
 40
0.0
  9
$CHAMFERB
 40
0.0
  9
$SKPOLY
 70
     0
  9
$TDCREATE
 40
2458060.468368056230247
  9
$TDUPDATE
 40
2459388.0037037041038275
  9
$TDINDWG
 40
0.5642200231
  9
$TDUSRTIMER
 40
0.5642200231
  9
$USRTIMER
 70
     1
  9
$ANGBASE
 50
0.0
  9
$ANGDIR
 70
     0
  9
$PDMODE
 70
     0
  9
$PDSIZE
 40
0.3125
  9
$PLINEWID
 40
0.0
  9
$COORDS
 70
     2
  9
$SPLFRAME
 70
     0
  9
$SPLINETYPE
 70
     6
  9
$SPLINESEGS
 70
     8
  9
$ATTDIA
 70
     1
  9
$ATTREQ
 70
     1
  9
$HANDLING
 70
     1
  9
$HANDSEED
  5
2175D
  9
$SURFTAB1
 70
     6
  9
$SURFTAB2
 70
     6
  9
$SURFTYPE
 70
     6
  9
$SURFU
 70
     6
  9
$SURFV
 70
     6
  9
$UCSNAME
  2

  9
$UCSORG
 10
0.0
 20
0.0
 30
0.0
  9
$UCSXDIR
 10
1.0
 20
0.0
 30
0.0
  9
$UCSYDIR
 10
0.0
 20
1.0
 30
0.0
  9
$PUCSNAME
  2

  9
$PUCSORG
 10
0.0
 20
0.0
 30
0.0
  9
$PUCSXDIR
 10
1.0
 20
0.0
 30
0.0
  9
$PUCSYDIR
 10
0.0
 20
1.0
 30
0.0
  9
$USERI1
 70
     0
  9
$USERI2
 70
     0
  9
$USERI3
 70
     0
  9
$USERI4
 70
     0
  9
$USERI5
 70
     0
  9
$USERR1
 40
0.0
  9
$USERR2
 40
0.0
  9
$USERR3
 40
0.0
  9
$USERR4
 40
0.0
  9
$USERR5
 40
0.0
  9
$WORLDVIEW
 70
     1
  9
$SHADEDGE
 70
     3
  9
$SHADEDIF
 70
    70
  9
$TILEMODE
 70
     1
  9
$MAXACTVP
 70
    64
  9
$PLIMCHECK
 70
     0
  9
$PEXTMIN
 10
1.0000000000000000E+20
 20
1.0000000000000000E+20
 30
1.0000000000000000E+20
  9
$PEXTMAX
 10
-1.0000000000000000E+20
 20
-1.0000000000000000E+20
 30
-1.0000000000000000E+20
  9
$PLIMMIN
 10
0.0
 20
0.0
  9
$PLIMMAX
 10
12.0
 20
9.0
  9
$UNITMODE
 70
     0
  9
$VISRETAIN
 70
     1
  9
$PLINEGEN
 70
     0
  9
$PSLTSCALE
 70
     1
  0
ENDSEC
  0
SECTION
  2
TABLES
  0
TABLE
  2
VPORT
 70
     1
  0
VPORT
  2
*ACTIVE
 70
     0
 10
0.0
 20
0.0
 11
1.0
 21
1.0
 12
501.1050617735076003
 22
148.1842931537410095
 13
0.0
 23
0.0
 14
1.0
 24
1.0
 15
0.0
 25
0.0
 16
0.0
 26
0.0
 36
60.4960186965801583
 17
3911.3653564453120453
 27
132.5796051025390057
 37
0.0
 40
38.4209734378209973
 41
2.3799682034976151
 42
50.0
 43
0.0
 44
0.0
 50
0.0
 51
0.0
 71
     0
 72
   100
 73
     1
 74
     1
 75
     0
 76
     0
 77
     0
 78
     0
  0
ENDTAB
  0
TABLE
  2
LTYPE
 70
     2
  0
LTYPE
  2
CONTINUOUS
 70
     0
  3
Solid line
 72
    65
 73
     0
 40
0.0
  0
LTYPE
  2
PHANTOM2
 70
     0
  3
___ _ _ ___ _ _ ___ _ _ ___ _ _
 72
    65
 73
     6
 40
1.25
 49
0.625
 49
-0.125
 49
0.125
 49
-0.125
 49
0.125
 49
-0.125
  0
ENDTAB
  0
TABLE
  2
LAYER
 70
     2
  0
LAYER
  2
0
 70
     0
 62
   255
  6
CONTINUOUS
  0
LAYER
  2
DEFPOINTS
 70
     0
 62
     7
  6
CONTINUOUS
  0
ENDTAB
  0
TABLE
  2
STYLE
 70
     1
  0
STYLE
  2
STANDARD
 70
     0
 40
0.0
 41
0.8
 50
0.0
 71
     0
 42
0.2
  3
txt
  4

  0
ENDTAB
  0
TABLE
  2
VIEW
 70
     2
  0
ENDTAB
  0
TABLE
  2
UCS
 70
     0
  0
ENDTAB
  0
TABLE
  2
APPID
 70
    11
  0
APPID
  2
ACAD
 70
     0
  0
APPID
  2
ACAD_MLEADERVER
 70
     0
  0
APPID
  2
ACAD_EXEMPT_FROM_CAD_STANDARDS
 70
     0
  0
APPID
  2
ACAD_NAV_VCDISPLAY
 70
     0
  0
APPID
  2
ACAECLAYERSTANDARD
 70
     0
  0
APPID
  2
ACCMTRANSPARENCY
 70
     0
  0
APPID
  2
ACAD_DSTYLE_DIMJAG
 70
     0
  0
APPID
  2
ACAD_DSTYLE_DIMTALN
 70
     0
  0
APPID
  2
ACDBATTR
 70
     0
  0
APPID
  2
ACADANNOTATIVE
 70
     0
  0
APPID
  2
DCO15
 70
     0
  0
ENDTAB
  0
TABLE
  2
DIMSTYLE
 70
     1
  0
DIMSTYLE
  2
STANDARD
 70
     0
  3

  4

  5

  6

  7

 40
1.0
 41
0.1875
 42
0.0625
 43
0.38
 44
0.125
 45
0.0
 46
0.0
 47
0.01
 48
0.01
140
0.15625
141
0.09
142
0.0
143
25.3999999999999986
144
1.0
145
0.0
146
1.0
147
0.09
 71
     1
 72
     0
 73
     1
 74
     1
 75
     0
 76
     0
 77
     0
 78
     4
170
     0
171
     2
172
     0
173
     0
174
     0
175
     0
176
     0
177
     0
178
     0
  0
ENDTAB
  0
ENDSEC
  0
SECTION
  2
BLOCKS
  0
BLOCK
  8
0
  2
$MODEL_SPACE
 70
     0
 10
0.0
 20
0.0
 30
0.0
  3
$MODEL_SPACE
  1

  0
ENDBLK
  5
21
  8
0
  0
BLOCK
 67
     1
  8
0
  2
$PAPER_SPACE
 70
     0
 10
0.0
 20
0.0
 30
0.0
  3
$PAPER_SPACE
  1

  0
ENDBLK
  5
1D
 67
     1
  8
0
  0
BLOCK
  8
0
  2
_FILLED
 70
     0
 10
0.0
 20
0.0
 30
0.0
  3
_FILLED
  1

  0
SOLID
  5
2159E
  8
0
  6
BYBLOCK
 62
     0
 10
0.0
 20
0.0
 30
0.0
 11
-1.0
 21
0.1666666667
 31
0.0
 12
-1.0
 22
-0.1666666667
 32
0.0
 13
-1.0
 23
-0.1666666667
 33
0.0
  0
ENDBLK
  5
2159F
  8
0
  6
BYBLOCK
 62
     0
  0
ENDSEC
  0
SECTION
  2
ENTITIES
  0
ATTDEF
  5
20106
  8
DEFPOINTS
 10
4412.5239391561863158
 20
268.293568420865995
 30
0.0
 40
0.001
  1
K-11344T
  3

  2
MODELNUMBER
 70
     0
1001
ACDBATTR
1070
     0
1070
     1
  0
ATTDEF
  5
20107
  8
DEFPOINTS
 10
4412.5238133465300052
 20
268.2919015804869218
 30
0.0
 40
0.001
  1
ESCALE
  3

  2
TRADENAME
 70
     0
1001
ACDBATTR
1070
     0
1070
     1
  0
ATTDEF
  5
20108
  8
DEFPOINTS
 10
4412.5239391561863158
 20
268.2902350875327215
 30
0.0
 40
0.001
  1
BATH
  3

  2
PRODUCT
 70
     0
1001
ACDBATTR
1070
     0
1070
     1
  0
LINE
  5
21630
  8
0
 10
4377.5470148656522724
 20
289.9827025046113249
 30
0.0
 11
4377.5470153510523232
 21
289.982704651111419
 31
0.0
  0
LINE
  5
21631
  8
0
 10
4377.9168889853508517
 20
292.2707007631112788
 30
0.0
 11
4377.3853402800523327
 21
289.9827012272114075
 31
0.0
  0
LINE
  5
21632
  8
0
 10
4377.6651248152511471
 20
290.1008114647113985
 30
0.0
 11
4377.6688864428660963
 21
290.1148498828944753
 31
0.0
  0
LINE
  5
21633
  8
0
 10
4378.4609255566520005
 20
292.7935967815113827
 30
0.0
 11
4378.0333276031524292
 21
292.4248672608113111
 31
0.0
  0
LINE
  5
21634
  8
0
 10
4392.5237755655516594
 20
268.491651406613812
 30
0.0
 11
4392.5237755655516594
 21
268.2948009546112758
 31
0.0
  0
LINE
  5
21635
  8
0
 10
4394.4922795025531741
 20
268.4916513938281923
 30
0.0
 11
4394.4922795025531741
 21
268.2948009546112758
 31
0.0
  0
LINE
  5
21636
  8
0
 10
4392.5237755655516594
 20
268.2948009546112758
 30
0.0
 11
4394.4922795025531741
 21
268.2948009546112758
 31
0.0
  0
LINE
  5
21637
  8
0
 10
4401.5001535182509542
 20
268.2948009546112758
 30
0.0
 11
4403.4686574552515594
 21
268.2948009546112758
 31
0.0
  0
LINE
  5
21638
  8
0
 10
4407.7796810773534162
 20
268.2948009546112758
 30
0.0
 11
4404.2757440694522302
 21
268.2948009546112758
 31
0.0
  0
LINE
  5
21639
  8
0
 10
4404.2757440694522302
 20
268.3932261514112838
 30
0.0
 11
4407.7796810773534162
 21
268.3932261514112838
 31
0.0
  0
LINE
  5
2163A
  8
0
 10
4391.9852841694519157
 20
268.4916514101112739
 30
0.0
 11
4401.5001535182509542
 21
268.4916513483112794
 31
0.0
  0
LINE
  5
2163B
  8
0
 10
4404.0600025283420109
 20
268.4928112365072934
 30
0.0
 11
4420.9875486184782858
 21
268.4928112365072934
 31
0.0
  0
LINE
  5
2163C
  8
0
 10
4401.5001535182509542
 20
268.6491316633113229
 30
0.0
 11
4401.3032261029520669
 21
268.6491316633113229
 31
0.0
  0
LINE
  5
2163D
  8
0
 10
4401.5001535182509542
 20
268.7101930730113963
 30
0.0
 11
4401.5001535182509542
 21
268.2948009546112758
 31
0.0
  0
LINE
  5
2163E
  8
0
 10
4403.4686574552515594
 20
268.5742652901950009
 30
0.0
 11
4403.4686574552515594
 21
268.2948009546112758
 31
0.0
  0
LINE
  5
2163F
  8
0
 10
4404.5218070615510442
 20
268.4927479501189964
 30
0.0
 11
4404.5218070615510442
 21
268.3932261514112838
 31
0.0
  0
LINE
  5
21640
  8
0
 10
4407.5336180851518293
 20
268.4928112365072934
 30
0.0
 11
4407.5336180851518293
 21
268.3932261514112838
 31
0.0
  0
LINE
  5
21641
  8
0
 10
4377.5470144240443915
 20
289.9827012272114075
 30
0.0
 11
4377.3853402800523327
 21
289.9827012272114075
 31
0.0
  0
ARC
  5
21642
  8
0
 10
4969.378674243954265
 20
153.7013990229650062
 30
0.0
 40
606.6129706036032303
 50
166.7204716359474048
 51
166.9082589527014875
  0
ARC
  5
21643
  8
0
 10
4381.20376914055214
 20
319.9264388817113058
 30
0.0
 40
28.9229704679000008
 50
265.2405744509201782
 51
265.4016826682918122
  0
ARC
  5
21644
  8
0
 10
4407.7796810773534162
 20
268.5113363877114239
 30
0.0
 40
0.2165354331
 50
270.0
 51
355.0922025322018953
  0
ARC
  5
21645
  8
0
 10
4404.2757440694522302
 20
268.5113363877114239
 30
0.0
 40
0.2165354331
 50
184.9077974677981899
 51
270.0
  0
ARC
  5
21646
  8
0
 10
4404.2757440694522302
 20
268.5113363877114239
 30
0.0
 40
0.1181102362
 50
189.0305605985242892
 51
270.0
  0
ARC
  5
21647
  8
0
 10
4407.7796810773534162
 20
268.5113363877114239
 30
0.0
 40
0.1181102362
 50
270.0
 51
350.9761098205743224
  0
ARC
  5
21648
  8
0
 10
4400.7302256893672165
 20
269.0572415075254185
 30
0.0
 40
0.5659939841598578
 50
272.1644957334498827
 51
285.6764741144233994
  0
ARC
  5
21649
  8
0
 10
4398.5256129195931862
 20
276.4631045617138057
 30
0.0
 40
8.2929673491059646
 50
286.515977640311803
 51
289.5686452421684862
  0
ARC
  5
2164A
  8
0
 10
4402.7842091308011732
 20
264.2209386395945785
 30
0.0
 40
4.6692830481852816
 50
105.962049570830402
 51
108.4922077111037026
  0
ARC
  5
2164B
  8
0
 10
4402.2033982700377237
 20
266.3781958959630174
 30
0.0
 40
2.435726588654215
 50
88.7607901949786253
 51
106.781383317492498
  0
ARC
  5
2164C
  8
0
 10
4402.0988283559981937
 20
265.5013928689019735
 30
0.0
 40
3.3156907413833152
 50
75.9189933140732052
 51
87.2817318969048017
  0
ARC
  5
2164D
  8
0
 10
4326.0557788629894276
 20
-34.697345756689117
 30
0.0
 40
312.9958846996440798
 50
75.6805029497947856
 51
75.7868699773615759
  0
ARC
  5
2164E
  8
0
 10
4404.6108645556168995
 20
273.2260270448002757
 30
0.0
 40
4.789939924647431
 50
256.2043581850329019
 51
258.2711073417493139
  0
ARC
  5
2164F
  8
0
 10
4404.0055739629669915
 20
270.191500083750725
 30
0.0
 40
1.6959012850643409
 50
257.4531655445367733
 51
265.5304668105815153
  0
ARC
  5
21650
  8
0
 10
4404.1104227131809239
 20
271.871941175230404
 30
0.0
 40
3.3795060789728031
 50
265.9784806773668038
 51
269.1451499396426925
  0
ARC
  5
21651
  8
0
 10
4391.9835387570592502
 20
269.4737864806679113
 30
0.0
 40
0.9821366214949206
 50
202.7502502923892962
 51
270.1018237321957827
  0
ARC
  5
21652
  8
0
 10
4271.4313026470263139
 20
213.2534582121298001
 30
0.0
 40
132.0357954381007914
 50
25.0190496057407117
 51
32.8204108964708112
  0
ARC
  5
21653
  8
0
 10
4357.6141478277540955
 20
268.5348962318319082
 30
0.0
 40
29.6481434138650783
 50
33.312629026026201
 51
41.0243763412105622
  0
ARC
  5
21654
  8
0
 10
4370.0660376989208089
 20
279.4130544294172864
 30
0.0
 40
13.1138962725445793
 50
40.8773958278990719
 51
54.5868459594327078
  0
ARC
  5
21655
  8
0
 10
4411.6027185870880203
 20
913.0895848125347811
 30
0.0
 40
620.6718428637989291
 50
267.0223081706596986
 51
269.400024581022592
  0
ARC
  5
21656
  8
0
 10
4379.3008648224349599
 20
291.7606269826064249
 30
0.0
 40
1.4963162913220289
 50
87.7122633631372537
 51
91.0270022424328147
  0
ARC
  5
21657
  8
0
 10
4379.2688665994710391
 20
292.8877242423891971
 30
0.0
 40
0.3690150042586056
 50
89.1958728870647093
 51
111.8785137783347068
  0
ARC
  5
21658
  8
0
 10
4379.2723136340091514
 20
292.9813432781949132
 30
0.0
 40
0.2926637254867447
 50
139.8248745736858893
 51
168.1150458873235038
  0
ARC
  5
21659
  8
0
 10
4379.2261650362752334
 20
293.0126407236380146
 30
0.0
 40
0.2372842065928061
 50
113.5503696403069966
 51
138.4102231048599094
  0
ARC
  5
2165A
  8
0
 10
4380.5344081830071445
 20
290.5843740023158261
 30
0.0
 40
3.0298507372332
 50
126.7270925825600045
 51
133.1846206061923965
  0
ARC
  5
2165B
  8
0
 10
4379.5164577461728186
 20
291.9833256445185157
 30
0.0
 40
1.300026990300966
 50
108.4754415996740988
 51
127.6393865704770008
  0
ARC
  5
2165C
  8
0
 10
4378.153427202048988
 20
292.2131036017465817
 30
0.0
 40
0.2434497092953394
 50
119.5592975261598951
 51
166.3147802527037129
  0
ARC
  5
2165D
  8
0
 10
4383.451132150763442
 20
285.220218960278828
 30
0.0
 40
7.6703697304283791
 50
129.8860710004277905
 51
133.3470644735010922
  0
ARC
  5
2165E
  8
0
 10
4387.2768192592920968
 20
281.1785795783242747
 30
0.0
 40
13.2355018245096598
 50
133.3809559333170967
 51
136.6987668835616034
  0
ARC
  5
2165F
  8
0
 10
4368.9427102159552305
 20
298.6194125589349824
 30
0.0
 40
12.0693914142557102
 50
314.8612881623805038
 51
316.1359773853433239
  0
ARC
  5
21660
  8
0
 10
4378.7548493211443201
 20
288.7416954887250995
 30
0.0
 40
1.853554128445686
 50
134.4698351580753979
 51
136.5130908945411932
  0
ARC
  5
21661
  8
0
 10
4377.5326819180982056
 20
289.8960899386433994
 30
0.0
 40
0.172427848359884
 50
135.3392777976920911
 51
145.5227333242368104
  0
ARC
  5
21662
  8
0
 10
4377.4381825061291238
 20
289.9644385571168073
 30
0.0
 40
0.0559090867011541
 50
148.4437539253254954
 51
160.9344661186798078
  0
ARC
  5
21663
  8
0
 10
4377.5987752933033335
 20
289.9648077672350155
 30
0.0
 40
0.0547664449846662
 50
146.2715613317830048
 51
160.9300017849051017
  0
ARC
  5
21664
  8
0
 10
4377.7470326709253641
 20
289.8514805400902787
 30
0.0
 40
0.2412898539654028
 50
135.193390905946103
 51
143.4373530014345874
  0
ARC
  5
21665
  8
0
 10
4379.1138475457237291
 20
288.5386664335875935
 30
0.0
 40
2.1364282777632151
 50
134.5574452157432859
 51
136.0459452744779014
  0
ARC
  5
21666
  8
0
 10
4366.6786006128140798
 20
301.0778833804869237
 30
0.0
 40
15.5233529269796602
 50
314.7895560510966106
 51
315.1379925218053017
  0
ARC
  5
21667
  8
0
 10
4330.0454579091001506
 20
336.8250465495196977
 30
0.0
 40
66.7072164993567043
 50
315.5702158902811902
 51
316.0346130603334132
  0
ARC
  5
21668
  8
0
 10
4386.0155873569474352
 20
282.6235940141079936
 30
0.0
 40
11.2068265483607892
 50
132.5201605692450926
 51
135.2359447053632948
  0
ARC
  5
21669
  8
0
 10
4383.396570071374299
 20
285.4672329016008803
 30
0.0
 40
7.3408952593246992
 50
129.894850571404703
 51
132.454230028623698
  0
ARC
  5
2166A
  8
0
 10
4378.7017229051743925
 20
291.0805170557072188
 30
0.0
 40
0.0231370649850576
 50
100.7858113710685046
 51
125.5775055603812973
  0
ARC
  5
2166B
  8
0
 10
4378.7189686096653531
 20
291.0055538127044201
 30
0.0
 40
0.100045711362391
 50
93.038712487113358
 51
102.4540584139043062
  0
ARC
  5
2166C
  8
0
 10
4378.7342973983941192
 20
290.7428728517274976
 30
0.0
 40
0.363172548881546
 50
88.2204434224936165
 51
93.2567972982389364
  0
ARC
  5
2166D
  8
0
 10
4378.6982480884671531
 20
289.5182435722555283
 30
0.0
 40
1.5883319312604089
 50
85.7702424647927728
 51
88.2925124948127404
  0
ARC
  5
2166E
  8
0
 10
4378.5575765978328491
 20
291.0671126830848721
 30
0.0
 40
0.0462006090963947
 50
94.0199109763783838
 51
123.0102570008985055
  0
ARC
  5
2166F
  8
0
 10
4378.6042377953990581
 20
290.6659694891217214
 30
0.0
 40
0.4500053408636066
 50
86.2097299327296867
 51
96.366483423304345
  0
ARC
  5
21670
  8
0
 10
4378.4559153802283618
 20
287.3169919899099227
 30
0.0
 40
3.8021706706111411
 50
84.7477604182148951
 51
87.3156439512199682
  0
ARC
  5
21671
  8
0
 10
4391.4534815301130948
 20
449.5609715484574167
 30
0.0
 40
158.9620531528732954
 50
265.4651319120670223
 51
266.6447211871570744
  0
ARC
  5
21672
  8
0
 10
4411.8129826696540476
 20
806.002086521998649
 30
0.0
 40
515.9840257601662188
 50
266.7043393418741744
 51
267.2781035124310733
  0
ARC
  5
21673
  8
0
 10
4411.3525822084766332
 20
776.1531138724719767
 30
0.0
 40
486.147808264037792
 50
267.165244728099708
 51
270.1380331260854746
  0
LINE
  5
21674
  8
0
 10
4447.5005362811671148
 20
289.9827025046113249
 30
0.0
 11
4447.500535795767064
 21
289.982704651111419
 31
0.0
  0
LINE
  5
21675
  8
0
 10
4447.130662161469445
 20
292.2707007631112788
 30
0.0
 11
4447.662210866767964
 21
289.9827012272114075
 31
0.0
  0
LINE
  5
21676
  8
0
 10
4447.3824263315682401
 20
290.1008114647113985
 30
0.0
 11
4447.3786647039542004
 21
290.1148498828944753
 31
0.0
  0
LINE
  5
21677
  8
0
 10
4446.5866255901682962
 20
292.7935967815113827
 30
0.0
 11
4447.014223543668777
 21
292.4248672608113111
 31
0.0
  0
LINE
  5
21678
  8
0
 10
4432.5237755812686373
 20
268.491651406613812
 30
0.0
 11
4432.5237755812686373
 21
268.2948009546112758
 31
0.0
  0
LINE
  5
21679
  8
0
 10
4430.5552716442680321
 20
268.4916513938281923
 30
0.0
 11
4430.5552716442680321
 21
268.2948009546112758
 31
0.0
  0
LINE
  5
2167A
  8
0
 10
4432.5237755812686373
 20
268.2948009546112758
 30
0.0
 11
4430.5552716442680321
 21
268.2948009546112758
 31
0.0
  0
LINE
  5
2167B
  8
0
 10
4423.547397628568433
 20
268.2948009546112758
 30
0.0
 11
4421.5788936915678278
 21
268.2948009546112758
 31
0.0
  0
LINE
  5
2167C
  8
0
 10
4417.26787006946779
 20
268.2948009546112758
 30
0.0
 11
4420.771807077367157
 21
268.2948009546112758
 31
0.0
  0
LINE
  5
2167D
  8
0
 10
4420.771807077367157
 20
268.3932261514112838
 30
0.0
 11
4417.26787006946779
 21
268.3932261514112838
 31
0.0
  0
LINE
  5
2167E
  8
0
 10
4433.062266977368381
 20
268.4916514101112739
 30
0.0
 11
4423.547397628568433
 21
268.4916513483112794
 31
0.0
  0
LINE
  5
2167F
  8
0
 10
4423.547397628568433
 20
268.6491316633113229
 30
0.0
 11
4423.7443250438682298
 21
268.6491316633113229
 31
0.0
  0
LINE
  5
21680
  8
0
 10
4423.547397628568433
 20
268.7101930730113963
 30
0.0
 11
4423.547397628568433
 21
268.2948009546112758
 31
0.0
  0
LINE
  5
21681
  8
0
 10
4421.5788936915678278
 20
268.5742652901950009
 30
0.0
 11
4421.5788936915678278
 21
268.2948009546112758
 31
0.0
  0
LINE
  5
21682
  8
0
 10
4420.525744085268343
 20
268.4928112365072934
 30
0.0
 11
4420.525744085268343
 21
268.3932261514112838
 31
0.0
  0
LINE
  5
21683
  8
0
 10
4417.5139330616693769
 20
268.4928112365072934
 30
0.0
 11
4417.5139330616693769
 21
268.3932261514112838
 31
0.0
  0
LINE
  5
21684
  8
0
 10
4447.5005367227759052
 20
289.9827012272114075
 30
0.0
 11
4447.662210866767964
 21
289.9827012272114075
 31
0.0
  0
ARC
  5
21685
  8
0
 10
3855.6688769028660317
 20
153.7013990229650062
 30
0.0
 40
606.6129706036032303
 50
13.0917410472984592
 51
13.2795283640525401
  0
ARC
  5
21686
  8
0
 10
4443.8437820062672472
 20
319.9264388817113058
 30
0.0
 40
28.9229704679000008
 50
274.5983173317081878
 51
274.7594255490798218
  0
ARC
  5
21687
  8
0
 10
4417.26787006946779
 20
268.5113363877114239
 30
0.0
 40
0.2165354331
 50
184.9077974677981899
 51
270.0
  0
ARC
  5
21688
  8
0
 10
4420.771807077367157
 20
268.5113363877114239
 30
0.0
 40
0.2165354331
 50
270.0
 51
355.0922025322018953
  0
ARC
  5
21689
  8
0
 10
4420.771807077367157
 20
268.5113363877114239
 30
0.0
 40
0.1181102362
 50
270.0
 51
350.9761098205743224
  0
ARC
  5
2168A
  8
0
 10
4417.26787006946779
 20
268.5113363877114239
 30
0.0
 40
0.1181102362
 50
189.023890179425706
 51
270.0
  0
ARC
  5
2168B
  8
0
 10
4412.5237755734106031
 20
1354.3033493020900551
 30
0.0
 40
1061.8775050315480257
 50
269.599617489192326
 51
270.400382510807674
  0
ARC
  5
2168C
  8
0
 10
4424.3173254574530802
 20
269.0572415075254185
 30
0.0
 40
0.5659939841598578
 50
254.3235258855766006
 51
267.8355042665501173
  0
ARC
  5
2168D
  8
0
 10
4426.5219382272271105
 20
276.4631045617138057
 30
0.0
 40
8.2929673491059646
 50
250.4313547578315138
 51
253.4840223596881117
  0
ARC
  5
2168E
  8
0
 10
4422.2633420160191235
 20
264.2209386395945785
 30
0.0
 40
4.6692830481852816
 50
71.5077922888962405
 51
74.037950429169598
  0
ARC
  5
2168F
  8
0
 10
4422.844152876780754
 20
266.3781958959630174
 30
0.0
 40
2.435726588654215
 50
73.2186166825074736
 51
91.2392098050213747
  0
ARC
  5
21690
  8
0
 10
4422.948722790822103
 20
265.5013928689019735
 30
0.0
 40
3.3156907413833152
 50
92.7182681030951841
 51
104.0810066859267948
  0
ARC
  5
21691
  8
0
 10
4498.9917722838299596
 20
-34.697345756689117
 30
0.0
 40
312.9958846996440798
 50
104.2131300226383956
 51
104.3194970502052001
  0
ARC
  5
21692
  8
0
 10
4420.4366865912043068
 20
273.2260270448002757
 30
0.0
 40
4.789939924647431
 50
281.7288926582506861
 51
283.7956418149670981
  0
ARC
  5
21693
  8
0
 10
4421.0419771838533052
 20
270.191500083750725
 30
0.0
 40
1.6959012850643409
 50
274.4695331894184278
 51
282.5468344554124087
  0
ARC
  5
21694
  8
0
 10
4420.9371284336393728
 20
271.871941175230404
 30
0.0
 40
3.3795060789728031
 50
270.8548500603573075
 51
274.0215193226330825
  0
ARC
  5
21695
  8
0
 10
4433.064012389761956
 20
269.4737864806679113
 30
0.0
 40
0.9821366214949206
 50
269.8981762678041036
 51
337.2497497076107038
  0
ARC
  5
21696
  8
0
 10
4553.6162484997948923
 20
213.2534582121298001
 30
0.0
 40
132.0357954381007914
 50
147.1795891035291959
 51
154.9809503942593096
  0
ARC
  5
21697
  8
0
 10
4467.4334033190652917
 20
268.5348962318319082
 30
0.0
 40
29.6481434138650783
 50
138.9756236587894023
 51
146.687370973973799
  0
ARC
  5
21698
  8
0
 10
4454.9815134478976688
 20
279.4130544294172864
 30
0.0
 40
13.1138962725445793
 50
125.4131540405673064
 51
139.1226041721008926
  0
ARC
  5
21699
  8
0
 10
4413.4448325597322764
 20
913.0895848125347811
 30
0.0
 40
620.6718428637989291
 50
270.5999754189772943
 51
272.9776918293403014
  0
ARC
  5
2169A
  8
0
 10
4445.7466863243844273
 20
291.7606269826064249
 30
0.0
 40
1.4963162913220289
 50
88.9729977575671853
 51
92.2877366368627605
  0
ARC
  5
2169B
  8
0
 10
4445.7786845473483481
 20
292.8877242423891971
 30
0.0
 40
0.3690150042586056
 50
68.1214862216653074
 51
90.8041271129352907
  0
ARC
  5
2169C
  8
0
 10
4445.7752375128120548
 20
292.9813432781949132
 30
0.0
 40
0.2926637254867447
 50
11.8849541126765192
 51
40.1751254263140893
  0
ARC
  5
2169D
  8
0
 10
4445.8213861105441538
 20
293.0126407236380146
 30
0.0
 40
0.2372842065928061
 50
41.5897768951400266
 51
66.449630359693046
  0
ARC
  5
2169E
  8
0
 10
4444.5131429638122427
 20
290.5843740023158261
 30
0.0
 40
3.0298507372332
 50
46.8153793938075466
 51
53.2729074174399884
  0
ARC
  5
2169F
  8
0
 10
4445.5310934006483876
 20
291.9833256445185157
 30
0.0
 40
1.300026990300966
 50
52.3606134295229992
 51
71.5245584003259012
  0
ARC
  5
216A0
  8
0
 10
4446.8941239447703992
 20
292.2131036017465817
 30
0.0
 40
0.2434497092953394
 50
13.6852197472963297
 51
60.4407024738400267
  0
ARC
  5
216A1
  8
0
 10
4441.5964189960568547
 20
285.220218960278828
 30
0.0
 40
7.6703697304283791
 50
46.652935526498851
 51
50.1139289995722095
  0
ARC
  5
216A2
  8
0
 10
4437.7707318875272904
 20
281.1785795783242747
 30
0.0
 40
13.2355018245096598
 50
43.3012331164383681
 51
46.6190440666829318
  0
ARC
  5
216A3
  8
0
 10
4456.1048409308659757
 20
298.6194125589349824
 30
0.0
 40
12.0693914142557102
 50
223.8640226146567045
 51
225.1387118376194962
  0
ARC
  5
216A4
  8
0
 10
4446.2927018256759766
 20
288.7416954887250995
 30
0.0
 40
1.853554128445686
 50
43.4869091054587997
 51
45.5301648419245879
  0
ARC
  5
216A5
  8
0
 10
4447.5148692287211816
 20
289.8960899386433994
 30
0.0
 40
0.172427848359884
 50
34.4772666757631399
 51
44.6607222023078592
  0
ARC
  5
216A6
  8
0
 10
4447.6093686406911729
 20
289.9644385571169209
 30
0.0
 40
0.0559090867008994
 50
19.0655338813125113
 51
31.5562460747364213
  0
ARC
  5
216A7
  8
0
 10
4447.4487758535178727
 20
289.9648077672350155
 30
0.0
 40
0.0547664449846662
 50
19.0699982150948983
 51
33.7284386682169313
  0
ARC
  5
216A8
  8
0
 10
4447.3005184758949326
 20
289.8514805400902787
 30
0.0
 40
0.2412898539654028
 50
36.5626469985653415
 51
44.8066090940539326
  0
ARC
  5
216A9
  8
0
 10
4445.9337036010956581
 20
288.5386664335875935
 30
0.0
 40
2.1364282777632151
 50
43.9540547255220702
 51
45.442554784256707
  0
ARC
  5
216AA
  8
0
 10
4458.3689505340062169
 20
301.0778833804869237
 30
0.0
 40
15.5233529269796602
 50
224.8620074781946983
 51
225.210443948903503
  0
ARC
  5
216AB
  8
0
 10
4495.0020932377210556
 20
336.8250465495196977
 30
0.0
 40
66.7072164993567043
 50
223.9653869396665868
 51
224.4297841097186961
  0
ARC
  5
216AC
  8
0
 10
4439.031963789873771
 20
282.6235940141079936
 30
0.0
 40
11.2068265483607892
 50
44.7640552946366768
 51
47.4798394307549003
  0
ARC
  5
216AD
  8
0
 10
4441.6509810754459977
 20
285.4672329016008803
 30
0.0
 40
7.3408952593246992
 50
47.5457699713762665
 51
50.1051494285952685
  0
ARC
  5
216AE
  8
0
 10
4446.3458282416449947
 20
291.0805170557072188
 30
0.0
 40
0.0231370649850576
 50
54.4224944396187098
 51
79.2141886289315238
  0
ARC
  5
216AF
  8
0
 10
4446.3285825371549436
 20
291.0055538127044201
 30
0.0
 40
0.100045711362391
 50
77.5459415860956938
 51
86.9612875128866563
  0
ARC
  5
216B0
  8
0
 10
4446.3132537484261775
 20
290.7428728517274976
 30
0.0
 40
0.363172548881546
 50
86.7432027017610636
 51
91.7795565775064262
  0
ARC
  5
216B1
  8
0
 10
4446.3493030583540531
 20
289.5182435722555283
 30
0.0
 40
1.5883319312604089
 50
91.7074875051872453
 51
94.229757535207213
  0
ARC
  5
216B2
  8
0
 10
4446.4899745489874476
 20
291.0671126830848721
 30
0.0
 40
0.0462006090963947
 50
56.9897429991014803
 51
85.980089023621602
  0
ARC
  5
216B3
  8
0
 10
4446.4433133514221481
 20
290.6659694891217214
 30
0.0
 40
0.4500053408636066
 50
83.633516576695655
 51
93.7902700672703133
  0
ARC
  5
216B4
  8
0
 10
4446.5916357665928444
 20
287.3169919899099227
 30
0.0
 40
3.8021706706111411
 50
92.6843560487800318
 51
95.2522395817850764
  0
ARC
  5
216B5
  8
0
 10
4433.5940696167062924
 20
449.5609715484574167
 30
0.0
 40
158.9620531528732954
 50
273.3552788128429256
 51
274.5348680879329777
  0
ARC
  5
216B6
  8
0
 10
4413.2345684771662491
 20
806.002086521998649
 30
0.0
 40
515.9840257601662188
 50
272.7218964875689267
 51
273.2956606581258256
  0
ARC
  5
216B7
  8
0
 10
4413.694968938342754
 20
776.1531138724553784
 30
0.0
 40
486.14780826402108
 50
269.8619668739145254
 51
272.8347552719004057
  0
ARC
  5
216B9
  8
0
 10
4401.4825391096010208
 20
269.6278392606802186
 30
0.0
 40
0.9787882940994148
 50
261.4152527347252999
 51
269.2642602838428729
  0
ENDSEC
  0
EOF
