  0
SECTION
  2
HEADER
  9
$ACADVER
  1
AC1009
  9
$INSBASE
 10
3645.4480275937908118
 20
317.0580717713955892
 30
0.0
  9
$EXTMIN
 10
3633.9574770541908038
 20
307.9305639135704951
 30
0.0
  9
$EXTMAX
 10
3656.9385781333908199
 20
326.1855717713955869
 30
0.0
  9
$LIMMIN
 10
0.0
 20
0.0
  9
$LIMMAX
 10
11.6929133858000007
 20
8.2677165353999982
  9
$ORTHOMODE
 70
     0
  9
$REGENMODE
 70
     1
  9
$FILLMODE
 70
     1
  9
$QTEXTMODE
 70
     0
  9
$MIRRTEXT
 70
     0
  9
$DRAGMODE
 70
     2
  9
$LTSCALE
 40
0.6431102362
  9
$OSMODE
 70
    37
  9
$ATTMODE
 70
     1
  9
$TEXTSIZE
 40
0.2
  9
$TRACEWID
 40
0.05
  9
$TEXTSTYLE
  7
STANDARD
  9
$CLAYER
  8
0
  9
$CELTYPE
  6
BYLAYER
  9
$CECOLOR
 62
   256
  9
$DIMSCALE
 40
1.0
  9
$DIMASZ
 40
0.1875
  9
$DIMEXO
 40
0.0625
  9
$DIMDLI
 40
0.4443307087
  9
$DIMRND
 40
0.0
  9
$DIMDLE
 40
0.0
  9
$DIMEXE
 40
0.125
  9
$DIMTP
 40
0.01
  9
$DIMTM
 40
0.01
  9
$DIMTXT
 40
2.0
  9
$DIMCEN
 40
0.1052362205
  9
$DIMTSZ
 40
0.0
  9
$DIMTOL
 70
     1
  9
$DIMLIM
 70
     0
  9
$DIMTIH
 70
     1
  9
$DIMTOH
 70
     1
  9
$DIMSE1
 70
     0
  9
$DIMSE2
 70
     0
  9
$DIMTAD
 70
     0
  9
$DIMZIN
 70
     0
  9
$DIMBLK
  1

  9
$DIMASO
 70
     1
  9
$DIMSHO
 70
     1
  9
$DIMPOST
  1
\X
  9
$DIMAPOST
  1

  9
$DIMALT
 70
     1
  9
$DIMALTD
 70
     2
  9
$DIMALTF
 40
25.3999999999999986
  9
$DIMLFAC
 40
1.0
  9
$DIMTOFL
 70
     0
  9
$DIMTVP
 40
0.0
  9
$DIMTIX
 70
     0
  9
$DIMSOXD
 70
     0
  9
$DIMSAH
 70
     0
  9
$DIMBLK1
  1

  9
$DIMBLK2
  1

  9
$DIMSTYLE
  2
STANDARD
  9
$DIMCLRD
 70
     0
  9
$DIMCLRE
 70
     0
  9
$DIMCLRT
 70
     0
  9
$DIMTFAC
 40
1.0
  9
$DIMGAP
 40
0.09
  9
$LUNITS
 70
     2
  9
$LUPREC
 70
     4
  9
$SKETCHINC
 40
0.1
  9
$FILLETRAD
 40
0.0
  9
$AUNITS
 70
     0
  9
$AUPREC
 70
     0
  9
$MENU
  1
.
  9
$ELEVATION
 40
0.0
  9
$PELEVATION
 40
0.0
  9
$THICKNESS
 40
0.0
  9
$LIMCHECK
 70
     0
  9
$BLIPMODE
 70
     0
  9
$CHAMFERA
 40
0.0
  9
$CHAMFERB
 40
0.0
  9
$SKPOLY
 70
     0
  9
$TDCREATE
 40
2458060.468368056230247
  9
$TDUPDATE
 40
2458997.6794907408766448
  9
$TDINDWG
 40
0.6162107639
  9
$TDUSRTIMER
 40
0.6162107639
  9
$USRTIMER
 70
     1
  9
$ANGBASE
 50
0.0
  9
$ANGDIR
 70
     0
  9
$PDMODE
 70
     0
  9
$PDSIZE
 40
0.3125
  9
$PLINEWID
 40
0.0
  9
$COORDS
 70
     1
  9
$SPLFRAME
 70
     0
  9
$SPLINETYPE
 70
     6
  9
$SPLINESEGS
 70
     8
  9
$ATTDIA
 70
     1
  9
$ATTREQ
 70
     1
  9
$HANDLING
 70
     1
  9
$HANDSEED
  5
A94D
  9
$SURFTAB1
 70
     6
  9
$SURFTAB2
 70
     6
  9
$SURFTYPE
 70
     6
  9
$SURFU
 70
     6
  9
$SURFV
 70
     6
  9
$UCSNAME
  2

  9
$UCSORG
 10
0.0
 20
0.0
 30
0.0
  9
$UCSXDIR
 10
1.0
 20
0.0
 30
0.0
  9
$UCSYDIR
 10
0.0
 20
1.0
 30
0.0
  9
$PUCSNAME
  2

  9
$PUCSORG
 10
0.0
 20
0.0
 30
0.0
  9
$PUCSXDIR
 10
1.0
 20
0.0
 30
0.0
  9
$PUCSYDIR
 10
0.0
 20
1.0
 30
0.0
  9
$USERI1
 70
     0
  9
$USERI2
 70
     0
  9
$USERI3
 70
     0
  9
$USERI4
 70
     0
  9
$USERI5
 70
     0
  9
$USERR1
 40
0.0
  9
$USERR2
 40
0.0
  9
$USERR3
 40
0.0
  9
$USERR4
 40
0.0
  9
$USERR5
 40
0.0
  9
$WORLDVIEW
 70
     1
  9
$SHADEDGE
 70
     3
  9
$SHADEDIF
 70
    70
  9
$TILEMODE
 70
     1
  9
$MAXACTVP
 70
    64
  9
$PLIMCHECK
 70
     0
  9
$PEXTMIN
 10
1.0000000000000000E+20
 20
1.0000000000000000E+20
 30
1.0000000000000000E+20
  9
$PEXTMAX
 10
-1.0000000000000000E+20
 20
-1.0000000000000000E+20
 30
-1.0000000000000000E+20
  9
$PLIMMIN
 10
0.0
 20
0.0
  9
$PLIMMAX
 10
12.0
 20
9.0
  9
$UNITMODE
 70
     0
  9
$VISRETAIN
 70
     1
  9
$PLINEGEN
 70
     0
  9
$PSLTSCALE
 70
     1
  0
ENDSEC
  0
SECTION
  2
TABLES
  0
TABLE
  2
VPORT
 70
     1
  0
VPORT
  2
*ACTIVE
 70
     0
 10
0.0
 20
0.0
 11
1.0
 21
1.0
 12
0.0
 22
0.0
 13
0.0
 23
0.0
 14
1.0
 24
1.0
 15
0.0
 25
0.0
 16
0.0
 26
0.0
 36
102.3662287770569037
 17
3645.4479980468759095
 27
317.058074951171875
 37
0.0
 40
29.3490986121152808
 41
2.7216642754662832
 42
50.0
 43
0.0
 44
0.0
 50
0.0
 51
0.0
 71
     0
 72
   100
 73
     1
 74
     1
 75
     0
 76
     0
 77
     0
 78
     0
  0
ENDTAB
  0
TABLE
  2
LTYPE
 70
     2
  0
LTYPE
  2
CONTINUOUS
 70
     0
  3
Solid line
 72
    65
 73
     0
 40
0.0
  0
LTYPE
  2
PHANTOM2
 70
     0
  3
___ _ _ ___ _ _ ___ _ _ ___ _ _
 72
    65
 73
     6
 40
1.25
 49
0.625
 49
-0.125
 49
0.125
 49
-0.125
 49
0.125
 49
-0.125
  0
ENDTAB
  0
TABLE
  2
LAYER
 70
     2
  0
LAYER
  2
0
 70
     0
 62
   255
  6
CONTINUOUS
  0
LAYER
  2
DEFPOINTS
 70
     0
 62
     7
  6
CONTINUOUS
  0
ENDTAB
  0
TABLE
  2
STYLE
 70
     1
  0
STYLE
  2
STANDARD
 70
     0
 40
0.0
 41
0.8
 50
0.0
 71
     0
 42
0.2
  3
txt
  4

  0
ENDTAB
  0
TABLE
  2
VIEW
 70
     0
  0
ENDTAB
  0
TABLE
  2
UCS
 70
     0
  0
ENDTAB
  0
TABLE
  2
APPID
 70
     9
  0
APPID
  2
ACAD
 70
     0
  0
APPID
  2
ACAD_MLEADERVER
 70
     0
  0
APPID
  2
ACAD_EXEMPT_FROM_CAD_STANDARDS
 70
     0
  0
APPID
  2
ACAD_NAV_VCDISPLAY
 70
     0
  0
APPID
  2
ACAECLAYERSTANDARD
 70
     0
  0
APPID
  2
ACCMTRANSPARENCY
 70
     0
  0
APPID
  2
ACAD_DSTYLE_DIMJAG
 70
     0
  0
APPID
  2
ACAD_DSTYLE_DIMTALN
 70
     0
  0
APPID
  2
ACDBATTR
 70
     0
  0
ENDTAB
  0
TABLE
  2
DIMSTYLE
 70
     1
  0
DIMSTYLE
  2
STANDARD
 70
     0
  3

  4

  5

  6

  7

 40
1.0
 41
0.1875
 42
0.0625
 43
0.38
 44
0.125
 45
0.0
 46
0.0
 47
0.01
 48
0.01
140
0.15625
141
0.09
142
0.0
143
25.3999999999999986
144
1.0
145
0.0
146
1.0
147
0.09
 71
     1
 72
     0
 73
     1
 74
     1
 75
     0
 76
     0
 77
     0
 78
     4
170
     0
171
     2
172
     0
173
     0
174
     0
175
     0
176
     0
177
     0
178
     0
  0
ENDTAB
  0
ENDSEC
  0
SECTION
  2
BLOCKS
  0
BLOCK
  8
0
  2
$MODEL_SPACE
 70
     0
 10
0.0
 20
0.0
 30
0.0
  3
$MODEL_SPACE
  1

  0
ENDBLK
  5
21
  8
0
  0
BLOCK
 67
     1
  8
0
  2
$PAPER_SPACE
 70
     0
 10
0.0
 20
0.0
 30
0.0
  3
$PAPER_SPACE
  1

  0
ENDBLK
  5
1D
 67
     1
  8
0
  0
BLOCK
  8
0
  2
_FILLED
 70
     0
 10
0.0
 20
0.0
 30
0.0
  3
_FILLED
  1

  0
SOLID
  5
6F59
  8
0
  6
BYBLOCK
 62
     0
 10
0.0
 20
0.0
 30
0.0
 11
-1.0
 21
0.1666666667
 31
0.0
 12
-1.0
 22
-0.1666666667
 32
0.0
 13
-1.0
 23
-0.1666666667
 33
0.0
  0
ENDBLK
  5
6F5A
  8
0
  6
BYBLOCK
 62
     0
  0
ENDSEC
  0
SECTION
  2
ENTITIES
  0
ATTDEF
  5
3930
  8
DEFPOINTS
 10
3645.4435111601369499
 20
317.054826362513495
 30
0.0
 40
0.001
  1
K-11479X-VC8
  3

  2
MODELNUMBER
 70
     0
1001
ACDBATTR
1070
     0
1070
     1
  0
ATTDEF
  5
3931
  8
DEFPOINTS
 10
3645.4435111601369499
 20
317.053159695846773
 30
0.0
 40
0.001
  1
FOREFRONT
  3

  2
TRADENAME
 70
     0
1001
ACDBATTR
1070
     0
1070
     1
  0
ATTDEF
  5
3932
  8
DEFPOINTS
 10
3645.4435111601369499
 20
317.0514930291802216
 30
0.0
 40
0.001
  1
BATHROOM SINK
  3

  2
PRODUCT
 70
     0
1001
ACDBATTR
1070
     0
1070
     1
  0
LINE
  5
A6C9
  8
0
 10
3654.8898576430010507
 20
326.1855717713955869
 30
0.0
 11
3636.0061975445801181
 21
326.1855717713955869
 31
0.0
  0
ARC
  5
A6CA
  8
0
 10
3636.0572484058870941
 20
324.0823241466869717
 30
0.0
 40
2.1038670968677269
 50
91.3904328913511392
 51
176.4242641843557067
  0
LINE
  5
A6CB
  8
0
 10
3633.9574770541908038
 20
324.2135378345375898
 30
0.0
 11
3633.9574770541908038
 21
309.891178992912387
 31
0.0
  0
ARC
  5
A6CC
  8
0
 10
3635.9281948741540873
 20
309.9013077624491075
 30
0.0
 40
1.970743848878582
 50
180.2944767791175025
 51
270.1617982663551061
  0
LINE
  5
A6CD
  8
0
 10
3635.9337600748908699
 20
307.9305717713955914
 30
0.0
 11
3654.9622951126912085
 21
307.9305717713955914
 31
0.0
  0
LINE
  5
A6CE
  8
0
 10
3654.909488528690872
 20
322.1084180551375766
 30
0.0
 11
3635.9865666588912063
 21
322.1084180551375766
 31
0.0
  0
ARC
  5
A6CF
  8
0
 10
3636.0245864919820633
 20
319.9509553968991895
 30
0.0
 40
2.1577976340243801
 50
91.0095889762835384
 51
163.3298095226751911
  0
CIRCLE
  5
A6D0
  8
0
 10
3645.4480275937908118
 20
315.1772518374376091
 30
0.0
 40
0.8858267717
  0
CIRCLE
  5
A6D1
  8
0
 10
3645.4480275937908118
 20
315.1772518374376091
 30
0.0
 40
1.230917468130226
  0
CIRCLE
  5
A6D2
  8
0
 10
3645.4480275937908118
 20
324.1471713684376255
 30
0.0
 40
0.688976378
  0
ARC
  5
A6D3
  8
0
 10
3645.4649941593979747
 20
319.6263474898764798
 30
0.0
 40
2.1681915313944931
 50
90.4474754898503051
 51
99.391644573625257
  0
ARC
  5
A6D4
  8
0
 10
3645.1587854318900099
 20
321.477679937471521
 30
0.0
 40
0.2917066216975286
 50
99.391644573625257
 51
125.544594971283999
  0
ARC
  5
A6D5
  8
0
 10
3645.0222329320840799
 20
321.6688046479241052
 30
0.0
 40
0.0568125175806366
 50
125.5445949712858038
 51
209.0209897669818133
  0
ARC
  5
A6D6
  8
0
 10
3645.2408002469651365
 20
321.8585928498495718
 30
0.0
 40
0.3452493239402223
 50
219.0164915315571932
 51
255.1967563666472927
  0
ARC
  5
A6D7
  8
0
 10
3645.4428974339889464
 20
322.4394598350871206
 30
0.0
 40
0.959623204272712
 50
252.390767114003296
 51
270.310286114362782
  0
ARC
  5
A6D8
  8
0
 10
3654.8388067816949842
 20
324.0823241466869717
 30
0.0
 40
2.1038670968677269
 50
3.575735815644292
 51
88.6095671086488608
  0
LINE
  5
A6D9
  8
0
 10
3656.9385781333908199
 20
324.2135378345375898
 30
0.0
 11
3656.9385781333908199
 21
309.891178992912387
 31
0.0
  0
ARC
  5
A6DA
  8
0
 10
3654.9678603134279911
 20
309.9013077624491075
 30
0.0
 40
1.9707438488785609
 50
269.8382017336448939
 51
359.7055232208825259
  0
ARC
  5
A6DB
  8
0
 10
3654.8714686956000151
 20
319.9509553968991895
 30
0.0
 40
2.1577976340243801
 50
16.6701904773247414
 51
88.9904110237164474
  0
ARC
  5
A6DD
  8
0
 10
3645.4311276961839212
 20
319.6263474898764798
 30
0.0
 40
2.1681915313944931
 50
80.608355426374743
 51
89.5525245101496949
  0
ARC
  5
A6DE
  8
0
 10
3645.737336423691886
 20
321.477679937471521
 30
0.0
 40
0.2917066216975286
 50
54.4554050287160081
 51
80.608355426374743
  0
ARC
  5
A6DF
  8
0
 10
3645.8738889234991802
 20
321.6688046479241052
 30
0.0
 40
0.0568125175806366
 50
330.9790102330181867
 51
54.455405028714118
  0
ARC
  5
A6E0
  8
0
 10
3645.6553216086172142
 20
321.8585928498495718
 30
0.0
 40
0.3452493239402223
 50
284.8032436333526789
 51
320.9835084684427784
  0
ARC
  5
A6E1
  8
0
 10
3645.4532277724661071
 20
322.4394454700392885
 30
0.0
 40
0.9596084986262223
 50
269.6934896896939904
 51
287.6093016634005721
  0
POINT
  5
A769
  8
DEFPOINTS
 10
3645.4480275937908118
 20
324.1471713684376255
 30
0.0
  0
CIRCLE
  5
A83C
  8
0
 10
3649.4480275937908118
 20
324.1471713684376255
 30
0.0
 40
0.688976378
  0
CIRCLE
  5
A83D
  8
0
 10
3641.4480275937908118
 20
324.1471713684376255
 30
0.0
 40
0.688976378
  0
ENDSEC
  0
EOF
