  0
SECTION
  2
HEADER
  9
$ACADVER
  1
AC1009
  9
$INSBASE
 10
6523.8111237851608166
 20
329.955896906867622
 30
0.0
  9
$EXTMIN
 10
6522.9232293949607993
 20
329.9510107911896171
 30
0.0
  9
$EXTMAX
 10
6524.6990181753599245
 20
338.6448203399658041
 30
0.0
  9
$LIMMIN
 10
0.0
 20
0.0
  9
$LIMMAX
 10
11.6929133858000007
 20
8.2677165353999982
  9
$ORTHOMODE
 70
     0
  9
$REGENMODE
 70
     1
  9
$FILLMODE
 70
     1
  9
$QTEXTMODE
 70
     0
  9
$MIRRTEXT
 70
     0
  9
$DRAGMODE
 70
     2
  9
$LTSCALE
 40
0.6431102362
  9
$OSMODE
 70
  4095
  9
$ATTMODE
 70
     1
  9
$TEXTSIZE
 40
0.2
  9
$TRACEWID
 40
0.05
  9
$TEXTSTYLE
  7
STANDARD
  9
$CLAYER
  8
0
  9
$CELTYPE
  6
BYLAYER
  9
$CECOLOR
 62
   256
  9
$DIMSCALE
 40
1.0
  9
$DIMASZ
 40
0.1875
  9
$DIMEXO
 40
0.0625
  9
$DIMDLI
 40
0.4443307087
  9
$DIMRND
 40
0.0
  9
$DIMDLE
 40
0.0
  9
$DIMEXE
 40
0.125
  9
$DIMTP
 40
0.01
  9
$DIMTM
 40
0.01
  9
$DIMTXT
 40
2.0
  9
$DIMCEN
 40
0.1052362205
  9
$DIMTSZ
 40
0.0
  9
$DIMTOL
 70
     1
  9
$DIMLIM
 70
     0
  9
$DIMTIH
 70
     1
  9
$DIMTOH
 70
     1
  9
$DIMSE1
 70
     0
  9
$DIMSE2
 70
     0
  9
$DIMTAD
 70
     0
  9
$DIMZIN
 70
     0
  9
$DIMBLK
  1

  9
$DIMASO
 70
     1
  9
$DIMSHO
 70
     1
  9
$DIMPOST
  1
\X
  9
$DIMAPOST
  1

  9
$DIMALT
 70
     1
  9
$DIMALTD
 70
     2
  9
$DIMALTF
 40
25.3999999999999986
  9
$DIMLFAC
 40
1.0
  9
$DIMTOFL
 70
     0
  9
$DIMTVP
 40
0.0
  9
$DIMTIX
 70
     0
  9
$DIMSOXD
 70
     0
  9
$DIMSAH
 70
     0
  9
$DIMBLK1
  1

  9
$DIMBLK2
  1

  9
$DIMSTYLE
  2
STANDARD
  9
$DIMCLRD
 70
     0
  9
$DIMCLRE
 70
     0
  9
$DIMCLRT
 70
     0
  9
$DIMTFAC
 40
1.0
  9
$DIMGAP
 40
0.09
  9
$LUNITS
 70
     2
  9
$LUPREC
 70
     4
  9
$SKETCHINC
 40
0.1
  9
$FILLETRAD
 40
0.0
  9
$AUNITS
 70
     0
  9
$AUPREC
 70
     0
  9
$MENU
  1
.
  9
$ELEVATION
 40
0.0
  9
$PELEVATION
 40
0.0
  9
$THICKNESS
 40
0.0
  9
$LIMCHECK
 70
     0
  9
$BLIPMODE
 70
     0
  9
$CHAMFERA
 40
0.0
  9
$CHAMFERB
 40
0.0
  9
$SKPOLY
 70
     0
  9
$TDCREATE
 40
2458060.468368056230247
  9
$TDUPDATE
 40
2460489.6408217591233552
  9
$TDINDWG
 40
1.0553658564999999
  9
$TDUSRTIMER
 40
1.0553658564999999
  9
$USRTIMER
 70
     1
  9
$ANGBASE
 50
0.0
  9
$ANGDIR
 70
     0
  9
$PDMODE
 70
     0
  9
$PDSIZE
 40
0.3125
  9
$PLINEWID
 40
0.0
  9
$COORDS
 70
     1
  9
$SPLFRAME
 70
     0
  9
$SPLINETYPE
 70
     6
  9
$SPLINESEGS
 70
     8
  9
$ATTDIA
 70
     1
  9
$ATTREQ
 70
     1
  9
$HANDLING
 70
     1
  9
$HANDSEED
  5
3548C
  9
$SURFTAB1
 70
     6
  9
$SURFTAB2
 70
     6
  9
$SURFTYPE
 70
     6
  9
$SURFU
 70
     6
  9
$SURFV
 70
     6
  9
$UCSNAME
  2

  9
$UCSORG
 10
0.0
 20
0.0
 30
0.0
  9
$UCSXDIR
 10
1.0
 20
0.0
 30
0.0
  9
$UCSYDIR
 10
0.0
 20
1.0
 30
0.0
  9
$PUCSNAME
  2

  9
$PUCSORG
 10
0.0
 20
0.0
 30
0.0
  9
$PUCSXDIR
 10
1.0
 20
0.0
 30
0.0
  9
$PUCSYDIR
 10
0.0
 20
1.0
 30
0.0
  9
$USERI1
 70
     0
  9
$USERI2
 70
     0
  9
$USERI3
 70
     0
  9
$USERI4
 70
     0
  9
$USERI5
 70
     0
  9
$USERR1
 40
0.0
  9
$USERR2
 40
0.0
  9
$USERR3
 40
0.0
  9
$USERR4
 40
0.0
  9
$USERR5
 40
0.0
  9
$WORLDVIEW
 70
     1
  9
$SHADEDGE
 70
     3
  9
$SHADEDIF
 70
    70
  9
$TILEMODE
 70
     1
  9
$MAXACTVP
 70
    64
  9
$PLIMCHECK
 70
     0
  9
$PEXTMIN
 10
1.0000000000000000E+20
 20
1.0000000000000000E+20
 30
1.0000000000000000E+20
  9
$PEXTMAX
 10
-1.0000000000000000E+20
 20
-1.0000000000000000E+20
 30
-1.0000000000000000E+20
  9
$PLIMMIN
 10
0.0
 20
0.0
  9
$PLIMMAX
 10
12.0
 20
9.0
  9
$UNITMODE
 70
     0
  9
$VISRETAIN
 70
     1
  9
$PLINEGEN
 70
     0
  9
$PSLTSCALE
 70
     1
  0
ENDSEC
  0
SECTION
  2
TABLES
  0
TABLE
  2
VPORT
 70
     1
  0
VPORT
  2
*ACTIVE
 70
     0
 10
0.0
 20
0.0
 11
1.0
 21
1.0
 12
2612.4457673398492261
 22
201.7183104630385913
 13
0.0
 23
0.0
 14
1.0
 24
1.0
 15
0.0
 25
0.0
 16
0.0
 26
0.0
 36
60.4960186965801583
 17
3911.3653564453120453
 27
132.5796051025390057
 37
0.0
 40
8.7675966147201798
 41
2.5251322751322749
 42
50.0
 43
0.0
 44
0.0
 50
0.0
 51
0.0
 71
     0
 72
   100
 73
     1
 74
     1
 75
     0
 76
     0
 77
     0
 78
     0
  0
ENDTAB
  0
TABLE
  2
LTYPE
 70
     2
  0
LTYPE
  2
CONTINUOUS
 70
     0
  3
Solid line
 72
    65
 73
     0
 40
0.0
  0
LTYPE
  2
PHANTOM2
 70
     0
  3
___ _ _ ___ _ _ ___ _ _ ___ _ _
 72
    65
 73
     6
 40
1.25
 49
0.625
 49
-0.125
 49
0.125
 49
-0.125
 49
0.125
 49
-0.125
  0
ENDTAB
  0
TABLE
  2
LAYER
 70
     2
  0
LAYER
  2
0
 70
     0
 62
   255
  6
CONTINUOUS
  0
LAYER
  2
DEFPOINTS
 70
     0
 62
     7
  6
CONTINUOUS
  0
ENDTAB
  0
TABLE
  2
STYLE
 70
     1
  0
STYLE
  2
STANDARD
 70
     0
 40
0.0
 41
0.8
 50
0.0
 71
     0
 42
0.2
  3
txt
  4

  0
ENDTAB
  0
TABLE
  2
VIEW
 70
     0
  0
ENDTAB
  0
TABLE
  2
UCS
 70
     0
  0
ENDTAB
  0
TABLE
  2
APPID
 70
    11
  0
APPID
  2
ACAD
 70
     0
  0
APPID
  2
ACAD_MLEADERVER
 70
     0
  0
APPID
  2
ACAD_EXEMPT_FROM_CAD_STANDARDS
 70
     0
  0
APPID
  2
ACAD_NAV_VCDISPLAY
 70
     0
  0
APPID
  2
ACAECLAYERSTANDARD
 70
     0
  0
APPID
  2
ACCMTRANSPARENCY
 70
     0
  0
APPID
  2
ACAD_DSTYLE_DIMJAG
 70
     0
  0
APPID
  2
ACAD_DSTYLE_DIMTALN
 70
     0
  0
APPID
  2
ACDBATTR
 70
     0
  0
APPID
  2
ACADANNOTATIVE
 70
     0
  0
APPID
  2
DCO15
 70
     0
  0
ENDTAB
  0
TABLE
  2
DIMSTYLE
 70
     1
  0
DIMSTYLE
  2
STANDARD
 70
     0
  3

  4

  5

  6

  7

 40
1.0
 41
0.1875
 42
0.0625
 43
0.38
 44
0.125
 45
0.0
 46
0.0
 47
0.01
 48
0.01
140
0.15625
141
0.09
142
0.0
143
25.3999999999999986
144
1.0
145
0.0
146
1.0
147
0.09
 71
     1
 72
     0
 73
     1
 74
     1
 75
     0
 76
     0
 77
     0
 78
     4
170
     0
171
     2
172
     0
173
     0
174
     0
175
     0
176
     0
177
     0
178
     0
  0
ENDTAB
  0
ENDSEC
  0
SECTION
  2
BLOCKS
  0
BLOCK
  8
0
  2
$MODEL_SPACE
 70
     0
 10
0.0
 20
0.0
 30
0.0
  3
$MODEL_SPACE
  1

  0
ENDBLK
  5
21
  8
0
  0
BLOCK
 67
     1
  8
0
  2
$PAPER_SPACE
 70
     0
 10
0.0
 20
0.0
 30
0.0
  3
$PAPER_SPACE
  1

  0
ENDBLK
  5
1D
 67
     1
  8
0
  0
BLOCK
  8
0
  2
_FILLED
 70
     0
 10
0.0
 20
0.0
 30
0.0
  3
_FILLED
  1

  0
SOLID
  5
2853B
  8
0
  6
BYBLOCK
 62
     0
 10
0.0
 20
0.0
 30
0.0
 11
-1.0
 21
0.1666666667
 31
0.0
 12
-1.0
 22
-0.1666666667
 32
0.0
 13
-1.0
 23
-0.1666666667
 33
0.0
  0
ENDBLK
  5
2853C
  8
0
  6
BYBLOCK
 62
     0
  0
ENDSEC
  0
SECTION
  2
ENTITIES
  0
ATTDEF
  5
2842F
  8
DEFPOINTS
 10
6523.8026148311037105
 20
329.9543441245230042
 30
0.0
 40
0.001
  1
K-11543IN-4
  3

  2
MODELNUMBER
 70
     0
1001
ACDBATTR
1070
     0
1070
     1
  0
ATTDEF
  5
28430
  8
DEFPOINTS
 10
6523.8024890214455809
 20
329.9526772841438174
 30
0.0
 40
0.001
  1
JULY
  3

  2
TRADENAME
 70
     0
1001
ACDBATTR
1070
     0
1070
     1
  0
ATTDEF
  5
28431
  8
DEFPOINTS
 10
6523.8026148311037105
 20
329.9510107911896171
 30
0.0
 40
0.001
  1
BATHROOM SINK FAUCET
  3

  2
PRODUCT
 70
     0
1001
ACDBATTR
1070
     0
1070
     1
  0
LINE
  5
34F2F
  8
0
 10
6522.9232293949607993
 20
329.955896906867622
 30
0.0
 11
6524.6990181753599245
 21
329.955896906867622
 31
0.0
  0
LINE
  5
34F30
  8
0
 10
6522.9449937564995707
 20
330.0936921823675902
 30
0.0
 11
6524.6772538138220625
 21
330.0936921823675902
 31
0.0
  0
LINE
  5
34F31
  8
0
 10
6523.181202525261142
 20
330.0936921823675902
 30
0.0
 11
6523.181202525261142
 21
336.4310424179971051
 31
0.0
  0
LINE
  5
34F32
  8
0
 10
6522.9252967569063912
 20
330.0743359947701947
 30
0.0
 11
6522.9232293949607993
 21
329.955896906867622
 31
0.0
  0
ARC
  5
34F33
  8
0
 10
6522.9449937564995707
 20
330.07399218236759
 30
0.0
 40
0.0197
 50
90.0
 51
179.0000000121389121
  0
ARC
  5
34F34
  8
0
 10
6556.5326044146049753
 20
337.1513996643158748
 30
0.0
 40
33.3572328100422979
 50
180.0307329574598043
 51
180.8511768727248068
  0
ARC
  5
34F35
  8
0
 10
6501.9414582988265465
 20
336.3403427232091758
 30
0.0
 40
21.2399378821823994
 50
0.2446676415482588
 51
0.8511768727248384
  0
LINE
  5
34F36
  8
0
 10
6523.2326889863770703
 20
337.175867142972379
 30
0.0
 11
6524.389558583944563
 21
337.175867142972379
 31
0.0
  0
ARC
  5
34F37
  8
0
 10
6536.4926467649593178
 20
337.1213443049625198
 30
0.0
 40
13.2948063462566406
 50
179.9334877148272085
 51
181.2654970646061088
  0
ARC
  5
34F38
  8
0
 10
6523.2372493501434292
 20
337.1367319509014919
 30
0.0
 40
0.0394
 50
96.6659967953329442
 51
179.9334877148272085
  0
ARC
  5
34F39
  8
0
 10
6524.6691577476676684
 20
336.8601553594342022
 30
0.0
 40
1.46843275976469
 50
181.2654970646061088
 51
186.1641244503979067
  0
ARC
  5
34F3A
  8
0
 10
6524.0095591736253482
 20
336.7889178748051791
 30
0.0
 40
0.8049984690499433
 50
186.1641244503979067
 51
193.3466509732483019
  0
ARC
  5
34F3B
  8
0
 10
6523.4852365133356216
 20
336.6645223969624112
 30
0.0
 40
0.2661214079314304
 50
193.3466509732483019
 51
219.6021029309511903
  0
ARC
  5
34F3C
  8
0
 10
6523.4268288328239578
 20
336.6161997504636929
 30
0.0
 40
0.1903155024397954
 50
219.6021029309511903
 51
242.4089766536521893
  0
ARC
  5
34F3D
  8
0
 10
6548.2963167522821095
 20
337.2273741625992898
 30
0.0
 40
25.0698266535596801
 50
180.2076587104511134
 51
180.8196656243439122
  0
ARC
  5
34F3E
  8
0
 10
6523.2660544953187127
 20
337.1366558795845094
 30
0.0
 40
0.0394
 50
96.8511125983234251
 51
180.2076587104347993
  0
ARC
  5
34F3F
  8
0
 10
6525.5861690840965821
 20
336.902463715229203
 30
0.0
 40
2.3573548834153311
 50
180.8196656243439122
 51
184.667291506477909
  0
ARC
  5
34F40
  8
0
 10
6523.9226327123697047
 20
336.7666521682065195
 30
0.0
 40
0.6882838734325635
 50
184.667291506477909
 51
194.1968896004611054
  0
ARC
  5
34F41
  8
0
 10
6523.5422962576767532
 20
336.6704342186437202
 30
0.0
 40
0.295965491773684
 50
194.1968896004611054
 51
212.5359828217881102
  0
ARC
  5
34F42
  8
0
 10
6523.4436169759828772
 20
336.6074814235595909
 30
0.0
 40
0.1789156944892288
 50
212.5359828217881102
 51
234.0909390472841096
  0
ARC
  5
34F43
  8
0
 10
6523.8058462920344027
 20
332.4082166529628921
 30
0.0
 40
4.8011116898652402
 50
89.9370191399195278
 51
92.973851901780435
  0
ARC
  5
34F44
  8
0
 10
6523.829645004264421
 20
331.9501100883691151
 30
0.0
 40
5.2598360114655707
 50
92.973851901780435
 51
95.7350351574825282
  0
ARC
  5
34F45
  8
0
 10
6523.7455151797148574
 20
332.7877989164063024
 30
0.0
 40
4.4179331667163488
 50
95.7350351574825282
 51
96.6659967953329442
  0
ARC
  5
34F46
  8
0
 10
6523.8176646983329192
 20
332.3663002558041057
 30
0.0
 40
4.8415885992182117
 50
90.0774057574662947
 51
91.3076525157073178
  0
ARC
  5
34F47
  8
0
 10
6523.8178512627910095
 20
332.3581272130298885
 30
0.0
 40
4.8497637710502701
 50
91.3076525157073178
 51
92.1187106992249625
  0
ARC
  5
34F48
  8
0
 10
6523.8176824609672622
 20
332.3626899989499179
 30
0.0
 40
4.8451978637573738
 50
92.1187106992249625
 51
93.8748825853065512
  0
ARC
  5
34F49
  8
0
 10
6523.8178528707721853
 20
332.3601740846705752
 30
0.0
 40
4.8477195425954909
 50
93.8748825853065512
 51
96.2219004400025852
  0
ARC
  5
34F4A
  8
0
 10
6523.6014518352576488
 20
334.3451126845789076
 30
0.0
 40
2.851019601798769
 50
96.2219004400025852
 51
96.8511125983234251
  0
ARC
  5
34F4B
  8
0
 10
6523.215007195992257
 20
337.1322365163734958
 30
0.0
 40
0.0396511564298884
 50
135.7425996404028865
 51
178.1636450613289071
  0
ARC
  5
34F4C
  8
0
 10
6523.214482453520759
 20
337.1327478299673999
 30
0.0
 40
0.0389184926247679
 50
91.9546176142529674
 51
135.7425996404028865
  0
ARC
  5
34F4D
  8
0
 10
6523.2169829812692115
 20
337.0594782032048897
 30
0.0
 40
0.1122307756673628
 50
88.9322542083424565
 51
91.9546176142529674
  0
ARC
  5
34F4E
  8
0
 10
6523.7377991900793859
 20
332.2687243959388752
 30
0.0
 40
4.2584193616365136
 50
89.0133903916249949
 51
92.7549597981582252
  0
ARC
  5
34F4F
  8
0
 10
6523.5872772391057879
 20
335.3967646293523899
 30
0.0
 40
1.1267596483889259
 50
92.7549597981582252
 51
99.5266382636815052
  0
ARC
  5
34F50
  8
0
 10
6523.4422442263421544
 20
336.2609792746671928
 30
0.0
 40
0.2504597408412587
 50
99.5266382636815052
 51
109.9110067097050063
  0
ARC
  5
34F51
  8
0
 10
6523.3840713889449034
 20
336.4215835592863186
 30
0.0
 40
0.0796445914872849
 50
109.9110067097050063
 51
124.7424613111536047
  0
ARC
  5
34F52
  8
0
 10
6523.3515066990403284
 20
336.4685385561962789
 30
0.0
 40
0.0225023937399765
 50
124.7424613111536047
 51
150.0328172247598104
  0
ARC
  5
34F53
  8
0
 10
6523.3416475332123809
 20
336.4742232213682769
 30
0.0
 40
0.0111217712197553
 50
150.0328172247598104
 51
233.7348176483623945
  0
ARC
  5
34F54
  8
0
 10
6523.8065454584848339
 20
335.0853767333874202
 30
0.0
 40
1.2928996496888461
 50
89.7971077306480367
 51
101.4216957927284994
  0
ARC
  5
34F55
  8
0
 10
6523.6486874576967239
 20
335.86673803862152
 30
0.0
 40
0.4957518354597511
 50
101.4216957927284994
 51
115.7922941758739057
  0
ARC
  5
34F56
  8
0
 10
6523.4946092051650339
 20
336.1855736379828841
 30
0.0
 40
0.1416385099222757
 50
115.7922941758739057
 51
135.8236651404515953
  0
ARC
  5
34F57
  8
0
 10
6523.4340535592418746
 20
336.2444127856705904
 30
0.0
 40
0.0572049173553863
 50
135.8236651404492932
 51
161.2886066486441905
  0
ARC
  5
34F58
  8
0
 10
6523.4147098733637904
 20
336.2509645496153894
 30
0.0
 40
0.0367817982470194
 50
161.2886066486441905
 51
174.3597780696148902
  0
ARC
  5
34F59
  8
0
 10
6523.4147098733637904
 20
336.2509645496153894
 30
0.0
 40
0.0367817982470194
 50
186.5985208321079938
 51
205.1800434412024003
  0
ARC
  5
34F5A
  8
0
 10
6523.4451247334764048
 20
336.2652637590155109
 30
0.0
 40
0.0703902957591051
 50
205.1800434412024003
 51
226.8343394470578005
  0
ARC
  5
34F5B
  8
0
 10
6523.4936071362681105
 20
336.3169543218140234
 30
0.0
 40
0.1412595956214361
 50
226.8343394470578005
 51
242.4868407330816069
  0
ARC
  5
34F5C
  8
0
 10
6523.6199751324929821
 20
336.5595689199283811
 30
0.0
 40
0.4148116266647229
 50
242.4868407330816069
 51
256.279790312247826
  0
ARC
  5
34F5D
  8
0
 10
6523.7841641865361453
 20
337.232068508319685
 30
0.0
 40
1.1070642841921989
 50
256.279790312247826
 51
263.4646911206988875
  0
ARC
  5
34F5E
  8
0
 10
6523.8022291400038739
 20
337.3897585938834141
 30
0.0
 40
1.2657857560506061
 50
263.4646914922620908
 51
270.4026193370481792
  0
ARC
  5
34F5F
  8
0
 10
6523.8063538741598677
 20
335.1803123902226957
 30
0.0
 40
1.1864080074864329
 50
89.7696437451583478
 51
100.2450978197512939
  0
ARC
  5
34F60
  8
0
 10
6523.6940089393337985
 20
335.8018917301487818
 30
0.0
 40
0.5547575818521312
 50
100.2450978197512939
 51
112.5291598237633934
  0
ARC
  5
34F61
  8
0
 10
6523.5463419358020474
 20
336.1578788664202762
 30
0.0
 40
0.1693585871431913
 50
112.5291598237633934
 51
129.2719565948918046
  0
ARC
  5
34F62
  8
0
 10
6523.4843926892754098
 20
336.2336416821045191
 30
0.0
 40
0.0714927944185911
 50
129.2719565948918046
 51
152.3196198447099903
  0
ARC
  5
34F63
  8
0
 10
6523.4519308311073473
 20
336.2506703612967272
 30
0.0
 40
0.0348356238950915
 50
152.3196198447099903
 51
219.3785688361001007
  0
ARC
  5
34F64
  8
0
 10
6523.5243062281651873
 20
336.3100748594172273
 30
0.0
 40
0.1284683772259567
 50
219.3785688361001007
 51
240.2149348751233902
  0
ARC
  5
34F65
  8
0
 10
6523.5939343894096965
 20
336.4317260005977914
 30
0.0
 40
0.2686364227596445
 50
240.2149348751233902
 51
253.1184810985621141
  0
ARC
  5
34F66
  8
0
 10
6523.7603395792939409
 20
336.980065796450674
 30
0.0
 40
0.8416697716464232
 50
253.1184810985621141
 51
261.6173622020505718
  0
ARC
  5
34F67
  8
0
 10
6523.7998039620006239
 20
337.2478796122445033
 30
0.0
 40
1.1123756589716529
 50
261.6173622020505718
 51
270.5830667735862107
  0
ARC
  5
34F68
  8
0
 10
6523.8095530879108992
 20
335.203204485308504
 30
0.0
 40
1.155211969321529
 50
89.9220971098599904
 51
97.6838353056431004
  0
ARC
  5
34F69
  8
0
 10
6523.7504304040721763
 20
335.6414163638885952
 30
0.0
 40
0.7130297192562166
 50
97.6838353056431004
 51
106.7620085339781042
  0
ARC
  5
34F6A
  8
0
 10
6523.6257047383887766
 20
336.0555198620222086
 30
0.0
 40
0.2805505881449892
 50
106.7620085339781042
 51
120.8598359237160054
  0
ARC
  5
34F6B
  8
0
 10
6523.5283720519810231
 20
336.2184099495892724
 30
0.0
 40
0.0907959242468512
 50
120.8598359237160054
 51
140.0349039486528113
  0
ARC
  5
34F6C
  8
0
 10
6523.4938814246715992
 20
336.2473152354157833
 30
0.0
 40
0.0457946029231041
 50
140.0349039486501965
 51
161.8229714293663051
  0
ARC
  5
34F6D
  8
0
 10
6523.4815703283493349
 20
336.2513574492460862
 30
0.0
 40
0.0328368799235348
 50
161.8229714293663051
 51
210.5601094469047894
  0
ARC
  5
34F6E
  8
0
 10
6523.5161970648259739
 20
336.2718031178440015
 30
0.0
 40
0.0730492691034314
 50
210.5601094469047894
 51
235.5643733476395028
  0
ARC
  5
34F6F
  8
0
 10
6523.5999392447147329
 20
336.3939424987183884
 30
0.0
 40
0.2211397179948046
 50
235.5643733476395028
 51
251.0035950263716131
  0
ARC
  5
34F70
  8
0
 10
6523.7318565132363801
 20
336.7771361694765915
 30
0.0
 40
0.6264045142002435
 50
251.0035950263716131
 51
260.4000073451359754
  0
ARC
  5
34F71
  8
0
 10
6523.7963493663328336
 20
337.1584411106027801
 30
0.0
 40
1.01312506734903
 50
260.4000073451359754
 51
266.682242369077187
  0
ARC
  5
34F72
  8
0
 10
6523.8140181296876108
 20
337.4632294455980741
 30
0.0
 40
1.3184251072241671
 50
266.682242369077187
 51
269.8742182182618876
  0
ARC
  5
34F73
  8
0
 10
6523.4991446691228703
 20
336.2835381703131929
 30
0.0
 40
0.0703759310937365
 50
183.8966546177728105
 51
215.6568066071905037
  0
ARC
  5
34F74
  8
0
 10
6523.5368857950188612
 20
336.3106148009998151
 30
0.0
 40
0.1168252207903284
 50
215.6568066071905037
 51
237.5619758453877068
  0
LINE
  5
34F75
  8
0
 10
6523.3386828402608444
 20
336.4870292665676175
 30
0.0
 11
6523.3386828402608444
 21
336.4016780340675723
 31
0.0
  0
ARC
  5
34F76
  8
0
 10
6523.38198288249896
 20
336.4016780340675723
 30
0.0
 40
0.0433000422379228
 50
180.0
 51
209.6287731028945132
  0
ARC
  5
34F77
  8
0
 10
6523.4170758091440803
 20
336.4216369080680806
 30
0.0
 40
0.0836716925854809
 50
209.6287731028945132
 51
228.8083939838890046
  0
ARC
  5
34F78
  8
0
 10
6523.4724045568764268
 20
336.4848571130809205
 30
0.0
 40
0.1676839812556978
 50
228.8083939838890046
 51
235.4619376286821932
  0
LINE
  5
34F79
  8
0
 10
6523.376421732061317
 20
336.4559941543676018
 30
0.0
 11
6523.3781717275869596
 21
336.2467378978150236
 31
0.0
  0
ARC
  5
34F7A
  8
0
 10
6523.8210425229954126
 20
336.25997349747729
 30
0.0
 40
0.443068530279039
 50
181.7118273603732064
 51
183.3663523502702901
  0
ARC
  5
34F7B
  8
0
 10
6523.4243447986209503
 20
336.2366390897406063
 30
0.0
 40
0.0456851145345187
 50
183.3663523502702901
 51
186.1516846464498087
  0
ARC
  5
34F7C
  8
0
 10
6523.389232824730243
 20
336.232854664013189
 30
0.0
 40
0.010369783747394
 50
186.1516846464498087
 51
195.7542659196192858
  0
LINE
  5
34F7D
  8
0
 10
6523.379252581660694
 20
336.230039142167584
 30
0.0
 11
6523.3969559653805845
 21
336.2139357596647073
 31
0.0
  0
ARC
  5
34F7E
  8
0
 10
6523.4569387519086376
 20
336.3385912568123786
 30
0.0
 40
0.1423602150866735
 50
124.4430308130941967
 51
133.5246000037145109
  0
ARC
  5
34F7F
  8
0
 10
6523.4140144638467973
 20
336.3837851412789064
 30
0.0
 40
0.0800305937272795
 50
133.5246000037145109
 51
149.0923401550386131
  0
ARC
  5
34F80
  8
0
 10
6523.3866032132145847
 20
336.4001954139592954
 30
0.0
 40
0.0480826092739134
 50
149.0923401550386131
 51
175.2919632027235934
  0
LINE
  5
34F81
  8
0
 10
6523.2048797359493619
 20
337.2110653139300211
 30
0.0
 11
6524.4173678343731808
 21
337.2110653139300211
 31
0.0
  0
LINE
  5
34F82
  8
0
 10
6523.1851797359504417
 20
337.2307653139300214
 30
0.0
 11
6523.1851797359504417
 21
338.5529524429113053
 31
0.0
  0
ARC
  5
34F83
  8
0
 10
6523.2048797359493619
 20
337.2307653139300214
 30
0.0
 40
0.0197
 50
179.9999999999967031
 51
270.0
  0
LINE
  5
34F84
  8
0
 10
6523.269785202462117
 20
337.2110680853675717
 30
0.0
 11
6523.269785202462117
 21
337.1800437245100284
 31
0.0
  0
ARC
  5
34F85
  8
0
 10
6523.815688239775227
 20
335.250235506081026
 30
0.0
 40
3.3945879026307439
 50
90.0770414764540561
 51
94.268583175794447
  0
ARC
  5
34F86
  8
0
 10
6523.8153398432277754
 20
335.2549032625025234
 30
0.0
 40
3.3899071622871619
 50
94.268583175794447
 51
98.4397581612220733
  0
ARC
  5
34F87
  8
0
 10
6523.8267209256873684
 20
335.1781990653661865
 30
0.0
 40
3.467451103999474
 50
98.4397581612220733
 51
100.1165544380258012
  0
ARC
  5
34F88
  8
0
 10
6523.2245797359491917
 20
338.5529524429113053
 30
0.0
 40
0.0394
 50
100.1165544380261991
 51
180.0
  0
LINE
  5
34F89
  8
0
 10
6523.22795745161784
 20
338.5935613390857952
 30
0.0
 11
6524.3945227345757303
 21
338.5935205499209815
 31
0.0
  0
ARC
  5
34F8A
  8
0
 10
6523.8140307375633711
 20
336.1139737708194275
 30
0.0
 40
2.5306408863481522
 50
90.0658157944916411
 51
90.5224492101057763
  0
ARC
  5
34F8B
  8
0
 10
6523.8140307375579141
 20
336.1139737712164788
 30
0.0
 40
2.5306408859510499
 50
90.5224492101057763
 51
91.1786021922935532
  0
ARC
  5
34F8C
  8
0
 10
6523.8016803666159831
 20
336.7142817657684191
 30
0.0
 40
1.930205860336043
 50
91.1786021922935532
 51
92.9888182547883133
  0
ARC
  5
34F8D
  8
0
 10
6524.4899367332809561
 20
323.5323461974047063
 30
0.0
 40
15.1300968505960203
 50
92.9888182547883133
 51
93.2404749485920235
  0
ARC
  5
34F8E
  8
0
 10
6523.7127458334889525
 20
337.2594294356038063
 30
0.0
 40
1.38102997596171
 50
93.2404749485920235
 51
96.8657977606959406
  0
ARC
  5
34F8F
  8
0
 10
6524.0221244491904145
 20
334.6900030105846895
 30
0.0
 40
3.9690151539407452
 50
96.8657977606959406
 51
99.7624767574069438
  0
ARC
  5
34F90
  8
0
 10
6523.505320533039594
 20
337.693705535138406
 30
0.0
 40
0.9211773722077925
 50
99.7624767574069438
 51
102.3522347484687032
  0
ARC
  5
34F91
  8
0
 10
6523.3191358542526359
 20
338.5439009253461791
 30
0.0
 40
0.0508343730715013
 50
102.3522347484687032
 51
129.635880712120013
  0
ARC
  5
34F92
  8
0
 10
6523.3143580383302833
 20
338.5541894151832025
 30
0.0
 40
0.0399674266320005
 50
133.7733389641443864
 51
191.0597928184697025
  0
ARC
  5
34F93
  8
0
 10
6524.2336390555055914
 20
338.8068933078970986
 30
0.0
 40
0.9932406980478772
 50
195.1972510705043931
 51
196.4996634285693915
  0
ARC
  5
34F94
  8
0
 10
6523.3862354839302498
 20
338.5558863489649752
 30
0.0
 40
0.1094436022432808
 50
196.4996634285693915
 51
230.5984757540441024
  0
ARC
  5
34F95
  8
0
 10
6523.4830493330700847
 20
338.6737430652876242
 30
0.0
 40
0.2619661480114896
 50
230.5984757540441024
 51
254.6104282198560895
  0
ARC
  5
34F96
  8
0
 10
6523.6165496204312149
 20
339.1587575835521875
 30
0.0
 40
0.7650182423842019
 50
254.6104282198560895
 51
267.0028008511768007
  0
ARC
  5
34F97
  8
0
 10
6523.7149494696177499
 20
340.2463987445988209
 30
0.0
 40
1.856778157654696
 50
265.7253246865872143
 51
268.6104481965829223
  0
ARC
  5
34F98
  8
0
 10
6523.7882371819241598
 20
343.707787725767389
 30
0.0
 40
5.3189371674013914
 50
268.7254084665588039
 51
270.2465360612554264
  0
LINE
  5
34F99
  8
0
 10
6524.4410450450623102
 20
330.0936921823675902
 30
0.0
 11
6524.4410450450623102
 21
336.4310424179971051
 31
0.0
  0
LINE
  5
34F9A
  8
0
 10
6524.696950813417061
 20
330.0743359947701947
 30
0.0
 11
6524.6990181753599245
 21
329.955896906867622
 31
0.0
  0
ARC
  5
34F9B
  8
0
 10
6524.6772538138220625
 20
330.07399218236759
 30
0.0
 40
0.0197
 50
0.9999999878610942
 51
90.0
  0
ARC
  5
34F9C
  8
0
 10
6491.0896431557166579
 20
337.1513996643158748
 30
0.0
 40
33.3572328100422979
 50
359.1488231272751932
 51
359.9692670425401957
  0
ARC
  5
34F9D
  8
0
 10
6545.6807892714950867
 20
336.3403427232091758
 30
0.0
 40
21.2399378821823994
 50
179.1488231272751079
 51
179.7553323584517102
  0
ARC
  5
34F9E
  8
0
 10
6511.1296008053632249
 20
337.1213443049625198
 30
0.0
 40
13.2948063462566406
 50
358.7345029353937775
 51
0.0665122851727409
  0
ARC
  5
34F9F
  8
0
 10
6524.3849982201791136
 20
337.1367319509014919
 30
0.0
 40
0.0394
 50
0.0665122851727409
 51
83.3340032046670416
  0
ARC
  5
34FA0
  8
0
 10
6522.9530898226557838
 20
336.8601553594342022
 30
0.0
 40
1.46843275976469
 50
353.835875549602008
 51
358.7345029353937775
  0
ARC
  5
34FA1
  8
0
 10
6523.6126883966990135
 20
336.7889178748051791
 30
0.0
 40
0.8049984690499433
 50
346.6533490267516981
 51
353.835875549602008
  0
ARC
  5
34FA2
  8
0
 10
6524.1370110569869212
 20
336.6645223969624112
 30
0.0
 40
0.2661214079314304
 50
320.3978970690487813
 51
346.6533490267516981
  0
ARC
  5
34FA3
  8
0
 10
6524.1954187374976755
 20
336.6161997504636929
 30
0.0
 40
0.1903155024397954
 50
297.5910233463478107
 51
320.3978970690487813
  0
ARC
  5
34FA4
  8
0
 10
6499.3259308180404332
 20
337.2273741625992898
 30
0.0
 40
25.0698266535596801
 50
359.1803343756560025
 51
359.7923412895488013
  0
ARC
  5
34FA5
  8
0
 10
6524.35619307500383
 20
337.1366558795845094
 30
0.0
 40
0.0394
 50
359.7923412895618753
 51
83.1488874016765749
  0
ARC
  5
34FA6
  8
0
 10
6522.0360784862250512
 20
336.902463715229203
 30
0.0
 40
2.3573548834153311
 50
355.3327084935219773
 51
359.1803343756560025
  0
ARC
  5
34FA7
  8
0
 10
6523.6996148579528381
 20
336.7666521682065195
 30
0.0
 40
0.6882838734325635
 50
345.803110399538923
 51
355.3327084935219773
  0
ARC
  5
34FA8
  8
0
 10
6524.0799513126457896
 20
336.6704342186437202
 30
0.0
 40
0.295965491773684
 50
327.4640171782119182
 51
345.803110399538923
  0
ARC
  5
34FA9
  8
0
 10
6524.1786305943387561
 20
336.6074814235595909
 30
0.0
 40
0.1789156944892288
 50
305.9090609527158904
 51
327.4640171782119182
  0
ARC
  5
34FAA
  8
0
 10
6523.81640127828814
 20
332.4082166529628921
 30
0.0
 40
4.8011116898652402
 50
87.026148098219565
 51
90.0629808600804722
  0
ARC
  5
34FAB
  8
0
 10
6523.7926025660581217
 20
331.9501100883691151
 30
0.0
 40
5.2598360114655707
 50
84.2649648425175002
 51
87.026148098219565
  0
ARC
  5
34FAC
  8
0
 10
6523.8767323906076854
 20
332.7877989164063024
 30
0.0
 40
4.4179331667163488
 50
83.3340032046670416
 51
84.2649648425175002
  0
ARC
  5
34FAD
  8
0
 10
6523.804582871988714
 20
332.3663002558041057
 30
0.0
 40
4.8415885992182117
 50
88.6923474842926964
 51
89.9225942425337195
  0
ARC
  5
34FAE
  8
0
 10
6523.8043963075306237
 20
332.3581272130298885
 30
0.0
 40
4.8497637710502701
 50
87.8812893007750517
 51
88.6923474842926964
  0
ARC
  5
34FAF
  8
0
 10
6523.8045651093552806
 20
332.3626899989499179
 30
0.0
 40
4.8451978637573738
 50
86.1251174146934488
 51
87.8812893007750517
  0
ARC
  5
34FB0
  8
0
 10
6523.8043946995521765
 20
332.3601740846705752
 30
0.0
 40
4.8477195425954909
 50
83.7780995599974005
 51
86.1251174146934488
  0
ARC
  5
34FB1
  8
0
 10
6524.020795735064894
 20
334.3451126845789076
 30
0.0
 40
2.851019601798769
 50
83.1488874016765749
 51
83.7780995599974005
  0
ARC
  5
34FB2
  8
0
 10
6524.4072403743302857
 20
337.1322365163734958
 30
0.0
 40
0.0396511564298884
 50
1.836354938671064
 51
44.2574003595971277
  0
ARC
  5
34FB3
  8
0
 10
6524.4077651168008742
 20
337.1327478299673999
 30
0.0
 40
0.0389184926247679
 50
44.2574003595971277
 51
88.0453823857470184
  0
ARC
  5
34FB4
  8
0
 10
6524.4052645890551503
 20
337.0594782032048897
 30
0.0
 40
0.1122307756673628
 50
88.0453823857470184
 51
91.0677457916575577
  0
ARC
  5
34FB5
  8
0
 10
6523.8844483802431569
 20
332.2687243959388752
 30
0.0
 40
4.2584193616365056
 50
87.2450402018417748
 51
90.9866096083750335
  0
ARC
  5
34FB6
  8
0
 10
6524.0349703312158454
 20
335.3967646293523899
 30
0.0
 40
1.1267596483889259
 50
80.4733617363184948
 51
87.2450402018417748
  0
ARC
  5
34FB7
  8
0
 10
6524.1800033439803883
 20
336.2609792746671928
 30
0.0
 40
0.2504597408412587
 50
70.0889932902949937
 51
80.4733617363184948
  0
ARC
  5
34FB8
  8
0
 10
6524.2381761813767298
 20
336.4215835592863186
 30
0.0
 40
0.0796445914872849
 50
55.2575386888463171
 51
70.0889932902949937
  0
ARC
  5
34FB9
  8
0
 10
6524.2707408712822144
 20
336.4685385561962789
 30
0.0
 40
0.0225023937399765
 50
29.9671827752402109
 51
55.2575386888463171
  0
ARC
  5
34FBA
  8
0
 10
6524.2806000371101618
 20
336.4742232213682769
 30
0.0
 40
0.0111217712197553
 50
306.2651823516375771
 51
29.9671827752402109
  0
ARC
  5
34FBB
  8
0
 10
6523.8157021118367993
 20
335.0853767333874202
 30
0.0
 40
1.2928996496888461
 50
78.5783042072714863
 51
90.202892269351949
  0
ARC
  5
34FBC
  8
0
 10
6523.9735601126258189
 20
335.86673803862152
 30
0.0
 40
0.4957518354597511
 50
64.2077058241261511
 51
78.5783042072714863
  0
ARC
  5
34FBD
  8
0
 10
6524.1276383651584183
 20
336.1855736379828841
 30
0.0
 40
0.1416385099222757
 50
44.1763348595483407
 51
64.2077058241261511
  0
ARC
  5
34FBE
  8
0
 10
6524.1881940110797586
 20
336.2444127856705904
 30
0.0
 40
0.0572049173553863
 50
18.7113933513557917
 51
44.1763348595506429
  0
ARC
  5
34FBF
  8
0
 10
6524.2075376969578429
 20
336.2509645496153894
 30
0.0
 40
0.0367817982470194
 50
5.6402219303851204
 51
18.7113933513557917
  0
ARC
  5
34FC0
  8
0
 10
6524.2075376969578429
 20
336.2509645496153894
 30
0.0
 40
0.0367817982470194
 50
334.8199565587976281
 51
353.4014791678920915
  0
ARC
  5
34FC1
  8
0
 10
6524.1771228368479569
 20
336.2652637590155109
 30
0.0
 40
0.0703902957591051
 50
313.1656605529421995
 51
334.8199565587976281
  0
ARC
  5
34FC2
  8
0
 10
6524.1286404340544323
 20
336.3169543218140234
 30
0.0
 40
0.1412595956214361
 50
297.5131592669184215
 51
313.1656605529421995
  0
ARC
  5
34FC3
  8
0
 10
6524.0022724378286512
 20
336.5595689199283811
 30
0.0
 40
0.4148116266647229
 50
283.720209687752174
 51
297.5131592669184215
  0
ARC
  5
34FC4
  8
0
 10
6523.8380833837882165
 20
337.232068508319685
 30
0.0
 40
1.1070642841921989
 50
276.5353088793009988
 51
283.720209687752174
  0
ARC
  5
34FC5
  8
0
 10
6523.8200184303177593
 20
337.3897585938834141
 30
0.0
 40
1.2657857560506061
 50
269.5973806629518208
 51
276.5353085077379092
  0
ARC
  5
34FC6
  8
0
 10
6523.815893696162675
 20
335.1803123902226957
 30
0.0
 40
1.1864080074864329
 50
79.7549021802487204
 51
90.2303562548416522
  0
ARC
  5
34FC7
  8
0
 10
6523.9282386309896538
 20
335.8018917301487818
 30
0.0
 40
0.5547575818521312
 50
67.4708401762365639
 51
79.7549021802487204
  0
ARC
  5
34FC8
  8
0
 10
6524.0759056345214049
 20
336.1578788664202762
 30
0.0
 40
0.1693585871431913
 50
50.7280434051102205
 51
67.4708401762365639
  0
ARC
  5
34FC9
  8
0
 10
6524.1378548810471329
 20
336.2336416821045191
 30
0.0
 40
0.0714927944185911
 50
27.6803801552901412
 51
50.7280434051102205
  0
ARC
  5
34FCA
  8
0
 10
6524.1703167392151954
 20
336.2506703612967272
 30
0.0
 40
0.0348356238950915
 50
320.6214311638998993
 51
27.6803801552901412
  0
ARC
  5
34FCB
  8
0
 10
6524.0979413421573554
 20
336.3100748594172273
 30
0.0
 40
0.1284683772259567
 50
299.7850651248766098
 51
320.6214311638998993
  0
ARC
  5
34FCC
  8
0
 10
6524.0283131809128463
 20
336.4317260005977914
 30
0.0
 40
0.2686364227596445
 50
286.8815189014379143
 51
299.7850651248766098
  0
ARC
  5
34FCD
  8
0
 10
6523.8619079910304208
 20
336.980065796450674
 30
0.0
 40
0.8416697716464232
 50
278.3826377979494282
 51
286.8815189014379143
  0
ARC
  5
34FCE
  8
0
 10
6523.8224436083210094
 20
337.2478796122445033
 30
0.0
 40
1.1123756589716529
 50
269.4169332264137893
 51
278.3826377979494282
  0
ARC
  5
34FCF
  8
0
 10
6523.812694482412553
 20
335.203204485308504
 30
0.0
 40
1.155211969321529
 50
82.3161646943568854
 51
90.0779028901400238
  0
ARC
  5
34FD0
  8
0
 10
6523.8718171662485474
 20
335.6414163638885952
 30
0.0
 40
0.7130297192562166
 50
73.2379914660218816
 51
82.3161646943568854
  0
ARC
  5
34FD1
  8
0
 10
6523.9965428319337661
 20
336.0555198620222086
 30
0.0
 40
0.2805505881449892
 50
59.1401640762839804
 51
73.2379914660218816
  0
ARC
  5
34FD2
  8
0
 10
6524.0938755183424291
 20
336.2184099495892724
 30
0.0
 40
0.0907959242468512
 50
39.9650960513472029
 51
59.1401640762839804
  0
ARC
  5
34FD3
  8
0
 10
6524.128366145650034
 20
336.2473152354157833
 30
0.0
 40
0.0457946029231041
 50
18.177028570633631
 51
39.9650960513498035
  0
ARC
  5
34FD4
  8
0
 10
6524.1406772419732079
 20
336.2513574492460862
 30
0.0
 40
0.0328368799235348
 50
329.4398905530953243
 51
18.177028570633631
  0
ARC
  5
34FD5
  8
0
 10
6524.1060505054956593
 20
336.2718031178440015
 30
0.0
 40
0.0730492691034314
 50
304.4356266523604972
 51
329.4398905530953243
  0
ARC
  5
34FD6
  8
0
 10
6524.0223083256087193
 20
336.3939424987183884
 30
0.0
 40
0.2211397179948046
 50
288.9964049736283869
 51
304.4356266523604972
  0
ARC
  5
34FD7
  8
0
 10
6523.8903910570861626
 20
336.7771361694765915
 30
0.0
 40
0.6264045142002435
 50
279.5999926548640246
 51
288.9964049736283869
  0
ARC
  5
34FD8
  8
0
 10
6523.8258982039887997
 20
337.1584411106027801
 30
0.0
 40
1.01312506734903
 50
273.3177576309226993
 51
279.5999926548640246
  0
ARC
  5
34FD9
  8
0
 10
6523.8082294406340225
 20
337.4632294455980741
 30
0.0
 40
1.3184251072241671
 50
270.1257817817379987
 51
273.3177576309226993
  0
ARC
  5
34FDA
  8
0
 10
6524.123102901198763
 20
336.2835381703131929
 30
0.0
 40
0.0703759310937365
 50
324.3431933928094963
 51
356.1033453822270758
  0
ARC
  5
34FDB
  8
0
 10
6524.085361775302772
 20
336.3106148009998151
 30
0.0
 40
0.1168252207903284
 50
302.4380241546122079
 51
324.3431933928094963
  0
LINE
  5
34FDC
  8
0
 10
6524.2835647300607889
 20
336.4870292665676175
 30
0.0
 11
6524.2835647300607889
 21
336.4016780340675723
 31
0.0
  0
ARC
  5
34FDD
  8
0
 10
6524.2402646878226733
 20
336.4016780340675723
 30
0.0
 40
0.0433000422379228
 50
330.3712268971054868
 51
0.0
  0
ARC
  5
34FDE
  8
0
 10
6524.2051717611802815
 20
336.4216369080680806
 30
0.0
 40
0.0836716925854809
 50
311.1916060161111091
 51
330.3712268971054868
  0
ARC
  5
34FDF
  8
0
 10
6524.1498430134461159
 20
336.4848571130809205
 30
0.0
 40
0.1676839812556978
 50
304.538062371317892
 51
311.1916060161111091
  0
LINE
  5
34FE0
  8
0
 10
6524.2458258382612257
 20
336.4559941543676018
 30
0.0
 11
6524.2440758427346736
 21
336.2467378978150236
 31
0.0
  0
ARC
  5
34FE1
  8
0
 10
6523.8012050473271302
 20
336.25997349747729
 30
0.0
 40
0.443068530279039
 50
356.6336476497297099
 51
358.2881726396267936
  0
ARC
  5
34FE2
  8
0
 10
6524.1979027717015924
 20
336.2366390897406063
 30
0.0
 40
0.0456851145345187
 50
353.8483153535502197
 51
356.6336476497297099
  0
ARC
  5
34FE3
  8
0
 10
6524.2330147455932092
 20
336.232854664013189
 30
0.0
 40
0.010369783747394
 50
344.2457340803807142
 51
353.8483153535469228
  0
LINE
  5
34FE4
  8
0
 10
6524.2429949886609393
 20
336.230039142167584
 30
0.0
 11
6524.2252916049410487
 21
336.2139357596647073
 31
0.0
  0
ARC
  5
34FE5
  8
0
 10
6524.1653088184139051
 20
336.3385912568123786
 30
0.0
 40
0.1423602150866735
 50
46.4753999962854465
 51
55.556969186905782
  0
ARC
  5
34FE6
  8
0
 10
6524.2082331064766549
 20
336.3837851412789064
 30
0.0
 40
0.0800305937272795
 50
30.9076598449614011
 51
46.4753999962854465
  0
ARC
  5
34FE7
  8
0
 10
6524.2356443571070486
 20
336.4001954139592954
 30
0.0
 40
0.0480826092739134
 50
4.7080367972763657
 51
30.9076598449614011
  0
LINE
  5
34FE8
  8
0
 10
6524.4370678343730106
 20
337.2307653139300214
 30
0.0
 11
6524.4370678343730106
 21
338.5529524429113053
 31
0.0
  0
ARC
  5
34FE9
  8
0
 10
6524.4173678343731808
 20
337.2307653139300214
 30
0.0
 40
0.0197
 50
270.0
 51
0.0000000000032569
  0
LINE
  5
34FEA
  8
0
 10
6524.3524623678613352
 20
337.2110680853675717
 30
0.0
 11
6524.3524623678613352
 21
337.1800437245100284
 31
0.0
  0
ARC
  5
34FEB
  8
0
 10
6523.8065593305482253
 20
335.250235506081026
 30
0.0
 40
3.3945879026307439
 50
85.7314168242055672
 51
89.9229585235459581
  0
ARC
  5
34FEC
  8
0
 10
6523.8069077270947673
 20
335.2549032625025234
 30
0.0
 40
3.3899071622871619
 50
81.5602418387779124
 51
85.7314168242055672
  0
ARC
  5
34FED
  8
0
 10
6523.7955266446351743
 20
335.1781990653661865
 30
0.0
 40
3.467451103999474
 50
79.883445561974213
 51
81.5602418387779124
  0
ARC
  5
34FEE
  8
0
 10
6524.3976678343733511
 20
338.5529524429113053
 30
0.0
 40
0.0394
 50
0.0
 51
79.8834455619738151
  0
ARC
  5
34FEF
  8
0
 10
6523.8082168327609907
 20
336.1139737708194275
 30
0.0
 40
2.5306408863481522
 50
89.4775507898942237
 51
89.9341842055083589
  0
ARC
  5
34FF0
  8
0
 10
6523.8082168327637191
 20
336.1139737712164788
 30
0.0
 40
2.5306408859510499
 50
88.8213978077064326
 51
89.4775507898942237
  0
ARC
  5
34FF1
  8
0
 10
6523.8205672037056502
 20
336.7142817657684191
 30
0.0
 40
1.930205860336043
 50
87.0111817452117009
 51
88.8213978077064326
  0
ARC
  5
34FF2
  8
0
 10
6523.1323108370397676
 20
323.5323461974047063
 30
0.0
 40
15.1300968505960203
 50
86.7595250514079908
 51
87.0111817452117009
  0
ARC
  5
34FF3
  8
0
 10
6523.9095017368326808
 20
337.2594294356038063
 30
0.0
 40
1.38102997596171
 50
83.1342022393040878
 51
86.7595250514079908
  0
ARC
  5
34FF4
  8
0
 10
6523.6001231211321283
 20
334.6900030105846895
 30
0.0
 40
3.9690151539407452
 50
80.2375232425930704
 51
83.1342022393040878
  0
ARC
  5
34FF5
  8
0
 10
6524.1169270372829487
 20
337.693705535138406
 30
0.0
 40
0.9211773722077925
 50
77.6477652515312258
 51
80.2375232425930704
  0
ARC
  5
34FF6
  8
0
 10
6524.3031117160689973
 20
338.5439009253461791
 30
0.0
 40
0.0508343730715013
 50
50.3641192878800013
 51
77.6477652515312258
  0
ARC
  5
34FF7
  8
0
 10
6524.3078895319940784
 20
338.5541894151832025
 30
0.0
 40
0.0399674266320005
 50
348.9402071815301838
 51
46.2266610358555425
  0
ARC
  5
34FF8
  8
0
 10
6523.3886085148160419
 20
338.8068933078970986
 30
0.0
 40
0.9932406980478772
 50
343.5003365714305232
 51
344.8027489294955217
  0
ARC
  5
34FF9
  8
0
 10
6524.236012086392293
 20
338.5558863489649752
 30
0.0
 40
0.1094436022432808
 50
309.4015242459558976
 51
343.5003365714305232
  0
ARC
  5
34FFA
  8
0
 10
6524.1391982372515486
 20
338.6737430652876242
 30
0.0
 40
0.2619661480114896
 50
285.3895717801439105
 51
309.4015242459558976
  0
ARC
  5
34FFB
  8
0
 10
6524.0056979498922374
 20
339.1587575835521875
 30
0.0
 40
0.7650182423842019
 50
272.9971991488230856
 51
285.3895717801439105
  0
ARC
  5
34FFC
  8
0
 10
6523.9072981007038834
 20
340.2463987445988209
 30
0.0
 40
1.856778157654696
 50
271.3895518034170777
 51
274.2746753134127857
  0
ARC
  5
34FFD
  8
0
 10
6523.8340103883983829
 20
343.707787725767389
 30
0.0
 40
5.3189371674013914
 50
269.7534639387445736
 51
271.2745915334413098
  0
ARC
  5
34FFE
  8
0
 10
6523.8083811061533197
 20
336.2947946684241174
 30
0.0
 40
0.04467177150592
 50
89.7274532380884864
 51
102.7881036645204063
  0
ARC
  5
34FFF
  8
0
 10
6523.8016008372924261
 20
336.3246668408776827
 30
0.0
 40
0.0140397827863132
 50
102.7881036645204063
 51
120.8616446772961979
  0
ARC
  5
35000
  8
0
 10
6523.7959708669168322
 20
336.3340881427649265
 30
0.0
 40
0.0030644697752328
 50
120.8616446772961979
 51
148.5338044849461028
  0
ARC
  5
35001
  8
0
 10
6523.7946589236453292
 20
336.3348910383008956
 30
0.0
 40
0.0015263422158475
 50
148.5338044849189032
 51
229.2845335000342004
  0
ARC
  5
35002
  8
0
 10
6523.8000672261050568
 20
336.3411753378234152
 30
0.0
 40
0.0098174311665902
 50
229.2845335000342004
 51
241.1158533130627006
  0
ARC
  5
35003
  8
0
 10
6523.7994423342361188
 20
336.3400426074970824
 30
0.0
 40
0.0085237666660742
 50
241.1158533130627006
 51
257.2280356223378135
  0
ARC
  5
35004
  8
0
 10
6523.8066007385696139
 20
336.3637032459104148
 30
0.0
 40
0.0332276502828313
 50
254.2080070177804032
 51
264.6479953140606085
  0
ARC
  5
35005
  8
0
 10
6523.8085677351627965
 20
336.3805249558604942
 30
0.0
 40
0.0501610067647868
 50
264.2032175458920733
 51
269.9390153635073943
  0
ARC
  5
35006
  8
0
 10
6523.8088060973441316
 20
336.2947946684241174
 30
0.0
 40
0.04467177150592
 50
77.2118963354795937
 51
90.2725467619114994
  0
ARC
  5
35007
  8
0
 10
6523.8155863662032061
 20
336.3246668408776827
 30
0.0
 40
0.0140397827863132
 50
59.1383553227038021
 51
77.2118963354795937
  0
ARC
  5
35008
  8
0
 10
6523.8212163365797096
 20
336.3340881427649265
 30
0.0
 40
0.0030644697752328
 50
31.4661955150538297
 51
59.1383553227038021
  0
ARC
  5
35009
  8
0
 10
6523.8225282798503031
 20
336.3348910383008956
 30
0.0
 40
0.0015263422158475
 50
310.7154664999657143
 51
31.4661955150810613
  0
ARC
  5
3500A
  8
0
 10
6523.8171199773905755
 20
336.3411753378234152
 30
0.0
 40
0.0098174311665902
 50
298.8841466869371857
 51
310.7154664999657143
  0
ARC
  5
3500B
  8
0
 10
6523.817744869258604
 20
336.3400426074970824
 30
0.0
 40
0.0085237666660742
 50
282.7719643776621865
 51
298.8841466869355941
  0
ARC
  5
3500C
  8
0
 10
6523.8105864649251089
 20
336.3637032459104148
 30
0.0
 40
0.0332276502828313
 50
275.3520046859392778
 51
285.7919929822195968
  0
ARC
  5
3500D
  8
0
 10
6523.8086171574623222
 20
336.3805555639240765
 30
0.0
 40
0.0501916917154405
 50
269.8826350893572226
 51
275.7958779274060248
  0
ARC
  5
3500E
  8
0
 10
6523.8091303978071664
 20
336.2707834195350074
 30
0.0
 40
0.04467177150592
 50
89.7274532380884864
 51
102.7881036645204063
  0
ARC
  5
3500F
  8
0
 10
6523.8023501289471824
 20
336.3006555919885727
 30
0.0
 40
0.0140397827863132
 50
102.7881036645204063
 51
120.8616446772961979
  0
ARC
  5
35010
  8
0
 10
6523.7967201585697694
 20
336.3100768938758165
 30
0.0
 40
0.0030644697752328
 50
120.8616446772961979
 51
148.5338044849461028
  0
ARC
  5
35011
  8
0
 10
6523.7954082152991759
 20
336.3108797894116719
 30
0.0
 40
0.0015263422158475
 50
148.5338044849189032
 51
229.2845335000342004
  0
ARC
  5
35012
  8
0
 10
6523.8008165177589035
 20
336.3171640889343053
 30
0.0
 40
0.0098174311665902
 50
229.2845335000342004
 51
241.1158533130627006
  0
ARC
  5
35013
  8
0
 10
6523.800191625889056
 20
336.3160313586079724
 30
0.0
 40
0.0085237666660742
 50
241.1158533130627006
 51
257.2280356223378135
  0
ARC
  5
35014
  8
0
 10
6523.8073500302243701
 20
336.3396919970213048
 30
0.0
 40
0.0332276502828313
 50
254.2080070177804032
 51
264.6479953140606085
  0
ARC
  5
35015
  8
0
 10
6523.8093170268175527
 20
336.3565137069714979
 30
0.0
 40
0.0501610067647868
 50
264.2032175458920733
 51
269.9390153635073943
  0
ARC
  5
35016
  8
0
 10
6523.8095553889970688
 20
336.2707834195350074
 30
0.0
 40
0.04467177150592
 50
77.2118963354795937
 51
90.2725467619114994
  0
ARC
  5
35017
  8
0
 10
6523.8163356578570529
 20
336.3006555919885727
 30
0.0
 40
0.0140397827863132
 50
59.1383553227038021
 51
77.2118963354795937
  0
ARC
  5
35018
  8
0
 10
6523.8219656282335563
 20
336.3100768938758165
 30
0.0
 40
0.0030644697752328
 50
31.4661955150538297
 51
59.1383553227038021
  0
ARC
  5
35019
  8
0
 10
6523.8232775715050593
 20
336.3108797894116719
 30
0.0
 40
0.0015263422158475
 50
310.7154664999657143
 51
31.4661955150810613
  0
ARC
  5
3501A
  8
0
 10
6523.8178692690453317
 20
336.3171640889343053
 30
0.0
 40
0.0098174311665902
 50
298.8841466869371857
 51
310.7154664999657143
  0
ARC
  5
3501B
  8
0
 10
6523.8184941609151792
 20
336.3160313586079724
 30
0.0
 40
0.0085237666660742
 50
282.7719643776621865
 51
298.8841466869355941
  0
ARC
  5
3501C
  8
0
 10
6523.8113357565807746
 20
336.3396919970213048
 30
0.0
 40
0.0332276502828313
 50
275.3520046859392778
 51
285.7919929822195968
  0
ARC
  5
3501D
  8
0
 10
6523.809366449116169
 20
336.3565443150350234
 30
0.0
 40
0.0501916917154405
 50
269.8826350893572226
 51
275.7958779274060248
  0
ARC
  5
3501E
  8
0
 10
6523.8099400877190419
 20
336.2490361016567135
 30
0.0
 40
0.04467177150592
 50
89.7274532380884864
 51
102.7881036645204063
  0
ARC
  5
3501F
  8
0
 10
6523.8031598188599673
 20
336.2789082741103925
 30
0.0
 40
0.0140397827863132
 50
102.7881036645204063
 51
120.8616446772961979
  0
ARC
  5
35020
  8
0
 10
6523.7975298484825544
 20
336.2883295759975226
 30
0.0
 40
0.0030644697752328
 50
120.8616446772961979
 51
148.5338044849461028
  0
ARC
  5
35021
  8
0
 10
6523.7962179052119609
 20
336.2891324715334918
 30
0.0
 40
0.0015263422158475
 50
148.5338044849189032
 51
229.2845335000342004
  0
ARC
  5
35022
  8
0
 10
6523.801626207670779
 20
336.2954167710561251
 30
0.0
 40
0.0098174311665902
 50
229.2845335000342004
 51
241.1158533130627006
  0
ARC
  5
35023
  8
0
 10
6523.801001315801841
 20
336.2942840407296785
 30
0.0
 40
0.0085237666660742
 50
241.1158533130627006
 51
257.2280356223378135
  0
ARC
  5
35024
  8
0
 10
6523.8081597201362456
 20
336.3179446791430109
 30
0.0
 40
0.0332276502828313
 50
254.2080070177804032
 51
264.6479953140606085
  0
ARC
  5
35025
  8
0
 10
6523.8101267167312471
 20
336.334766389093204
 30
0.0
 40
0.0501610067647868
 50
264.2032175458920733
 51
269.9390153635073943
  0
ARC
  5
35026
  8
0
 10
6523.8103650789080348
 20
336.2490361016567135
 30
0.0
 40
0.04467177150592
 50
77.2118963354795937
 51
90.2725467619114994
  0
ARC
  5
35027
  8
0
 10
6523.8171453477698378
 20
336.2789082741103925
 30
0.0
 40
0.0140397827863132
 50
59.1383553227038021
 51
77.2118963354795937
  0
ARC
  5
35028
  8
0
 10
6523.8227753181463413
 20
336.2883295759975226
 30
0.0
 40
0.0030644697752328
 50
31.4661955150538297
 51
59.1383553227038021
  0
ARC
  5
35029
  8
0
 10
6523.8240872614178443
 20
336.2891324715334918
 30
0.0
 40
0.0015263422158475
 50
310.7154664999657143
 51
31.4661955150810613
  0
ARC
  5
3502A
  8
0
 10
6523.8186789589572072
 20
336.2954167710561251
 30
0.0
 40
0.0098174311665902
 50
298.8841466869371857
 51
310.7154664999657143
  0
ARC
  5
3502B
  8
0
 10
6523.8193038508252357
 20
336.2942840407296785
 30
0.0
 40
0.0085237666660742
 50
282.7719643776621865
 51
298.8841466869355941
  0
ARC
  5
3502C
  8
0
 10
6523.8121454464926501
 20
336.3179446791430109
 30
0.0
 40
0.0332276502828313
 50
275.3520046859392778
 51
285.7919929822195968
  0
ARC
  5
3502D
  8
0
 10
6523.8101761390289539
 20
336.3347969971566727
 30
0.0
 40
0.0501916917154405
 50
269.8826350893572226
 51
275.7958779274060248
  0
ARC
  5
3502E
  8
0
 10
6523.8103312978337271
 20
336.2303237138115151
 30
0.0
 40
0.04467177150592
 50
89.7274532380884864
 51
102.7881036645204063
  0
ARC
  5
3502F
  8
0
 10
6523.8035510289728336
 20
336.2601958862650804
 30
0.0
 40
0.0140397827863132
 50
102.7881036645204063
 51
120.8616446772961979
  0
ARC
  5
35030
  8
0
 10
6523.7979210585963301
 20
336.2696171881523242
 30
0.0
 40
0.0030644697752328
 50
120.8616446772961979
 51
148.5338044849461028
  0
ARC
  5
35031
  8
0
 10
6523.7966091153257366
 20
336.2704200836882933
 30
0.0
 40
0.0015263422158475
 50
148.5338044849189032
 51
229.2845335000342004
  0
ARC
  5
35032
  8
0
 10
6523.8020174177863737
 20
336.2767043832108129
 30
0.0
 40
0.0098174311665902
 50
229.2845335000342004
 51
241.1158533130627006
  0
ARC
  5
35033
  8
0
 10
6523.8013925259174357
 20
336.27557165288448
 30
0.0
 40
0.0085237666660742
 50
241.1158533130627006
 51
257.2280356223378135
  0
ARC
  5
35034
  8
0
 10
6523.8085509302509308
 20
336.2992322912976988
 30
0.0
 40
0.0332276502828313
 50
254.2080070177804032
 51
264.6479953140606085
  0
ARC
  5
35035
  8
0
 10
6523.8105179268441134
 20
336.3160540012480055
 30
0.0
 40
0.0501610067647868
 50
264.2032175458920733
 51
269.9390153635073943
  0
ARC
  5
35036
  8
0
 10
6523.81075628902272
 20
336.2303237138115151
 30
0.0
 40
0.04467177150592
 50
77.2118963354795937
 51
90.2725467619114994
  0
ARC
  5
35037
  8
0
 10
6523.8175365578836136
 20
336.2601958862650804
 30
0.0
 40
0.0140397827863132
 50
59.1383553227038021
 51
77.2118963354795937
  0
ARC
  5
35038
  8
0
 10
6523.8231665282592076
 20
336.2696171881523242
 30
0.0
 40
0.0030644697752328
 50
31.4661955150538297
 51
59.1383553227038021
  0
ARC
  5
35039
  8
0
 10
6523.82447847153162
 20
336.2704200836882933
 30
0.0
 40
0.0015263422158475
 50
310.7154664999657143
 51
31.4661955150810613
  0
ARC
  5
3503A
  8
0
 10
6523.8190701690718925
 20
336.2767043832108129
 30
0.0
 40
0.0098174311665902
 50
298.8841466869371857
 51
310.7154664999657143
  0
ARC
  5
3503B
  8
0
 10
6523.8196950609399209
 20
336.27557165288448
 30
0.0
 40
0.0085237666660742
 50
282.7719643776621865
 51
298.8841466869355941
  0
ARC
  5
3503C
  8
0
 10
6523.8125366566064258
 20
336.2992322912976988
 30
0.0
 40
0.0332276502828313
 50
275.3520046859392778
 51
285.7919929822195968
  0
ARC
  5
3503D
  8
0
 10
6523.8105673491427297
 20
336.3160846093114742
 30
0.0
 40
0.0501916917154405
 50
269.8826350893572226
 51
275.7958779274060248
  0
ARC
  5
3503E
  8
0
 10
6523.8116159885948946
 20
336.1916022362340186
 30
0.0
 40
0.04467177150592
 50
89.7274532380884864
 51
102.7881036645204063
  0
ARC
  5
3503F
  8
0
 10
6523.80483571973582
 20
336.2214744086876976
 30
0.0
 40
0.0140397827863132
 50
102.7881036645204063
 51
120.8616446772961979
  0
ARC
  5
35040
  8
0
 10
6523.7992057493593165
 20
336.2308957105748277
 30
0.0
 40
0.0030644697752328
 50
120.8616446772961979
 51
148.5338044849461028
  0
ARC
  5
35041
  8
0
 10
6523.7978938060869041
 20
336.2316986061107968
 30
0.0
 40
0.0015263422158475
 50
148.5338044849189032
 51
229.2845335000342004
  0
ARC
  5
35042
  8
0
 10
6523.8033021085466316
 20
336.2379829056333733
 30
0.0
 40
0.0098174311665902
 50
229.2845335000342004
 51
241.1158533130627006
  0
ARC
  5
35043
  8
0
 10
6523.8026772166776937
 20
336.2368501753070973
 30
0.0
 40
0.0085237666660742
 50
241.1158533130627006
 51
257.2280356223378135
  0
ARC
  5
35044
  8
0
 10
6523.8098356210120983
 20
336.260510813720316
 30
0.0
 40
0.0332276502828313
 50
254.2080070177804032
 51
264.6479953140606085
  0
ARC
  5
35045
  8
0
 10
6523.8118026176070998
 20
336.2773325236705091
 30
0.0
 40
0.0501610067647868
 50
264.2032175458920733
 51
269.9390153635073943
  0
ARC
  5
35046
  8
0
 10
6523.8120409797838875
 20
336.1916022362340186
 30
0.0
 40
0.04467177150592
 50
77.2118963354795937
 51
90.2725467619114994
  0
ARC
  5
35047
  8
0
 10
6523.8188212486456905
 20
336.2214744086876976
 30
0.0
 40
0.0140397827863132
 50
59.1383553227038021
 51
77.2118963354795937
  0
ARC
  5
35048
  8
0
 10
6523.824451219022194
 20
336.2308957105748277
 30
0.0
 40
0.0030644697752328
 50
31.4661955150538297
 51
59.1383553227038021
  0
ARC
  5
35049
  8
0
 10
6523.825763162293697
 20
336.2316986061107968
 30
0.0
 40
0.0015263422158475
 50
310.7154664999657143
 51
31.4661955150810613
  0
ARC
  5
3504A
  8
0
 10
6523.8203548598330599
 20
336.2379829056333733
 30
0.0
 40
0.0098174311665902
 50
298.8841466869371857
 51
310.7154664999657143
  0
ARC
  5
3504B
  8
0
 10
6523.8209797517010884
 20
336.2368501753070973
 30
0.0
 40
0.0085237666660742
 50
282.7719643776621865
 51
298.8841466869355941
  0
ARC
  5
3504C
  8
0
 10
6523.8138213473694123
 20
336.260510813720316
 30
0.0
 40
0.0332276502828313
 50
275.3520046859392778
 51
285.7919929822195968
  0
ARC
  5
3504D
  8
0
 10
6523.8118520399048066
 20
336.2773631317339778
 30
0.0
 40
0.0501916917154405
 50
269.8826350893572226
 51
275.7958779274060248
  0
ARC
  5
3504E
  8
0
 10
6523.8122218666967456
 20
336.1728562221038032
 30
0.0
 40
0.04467177150592
 50
89.7274532380884864
 51
102.7881036645204063
  0
ARC
  5
3504F
  8
0
 10
6523.805441597835852
 20
336.2027283945574254
 30
0.0
 40
0.0140397827863132
 50
102.7881036645204063
 51
120.8616446772961979
  0
ARC
  5
35050
  8
0
 10
6523.7998116274611675
 20
336.2121496964446123
 30
0.0
 40
0.0030644697752328
 50
120.8616446772961979
 51
148.5338044849461028
  0
ARC
  5
35051
  8
0
 10
6523.7984996841887551
 20
336.2129525919805815
 30
0.0
 40
0.0015263422158475
 50
148.5338044849189032
 51
229.2845335000342004
  0
ARC
  5
35052
  8
0
 10
6523.8039079866475731
 20
336.2192368915031011
 30
0.0
 40
0.0098174311665902
 50
229.2845335000342004
 51
241.1158533130627006
  0
ARC
  5
35053
  8
0
 10
6523.8032830947804541
 20
336.2181041611768251
 30
0.0
 40
0.0085237666660742
 50
241.1158533130627006
 51
257.2280356223378135
  0
ARC
  5
35054
  8
0
 10
6523.8104414991121303
 20
336.2417647995901007
 30
0.0
 40
0.0332276502828313
 50
254.2080070177804032
 51
264.6479953140606085
  0
ARC
  5
35055
  8
0
 10
6523.8124084957071318
 20
336.2585865095402937
 30
0.0
 40
0.0501610067647868
 50
264.2032175458920733
 51
269.9390153635073943
  0
ARC
  5
35056
  8
0
 10
6523.8126468578866479
 20
336.1728562221038032
 30
0.0
 40
0.04467177150592
 50
77.2118963354795937
 51
90.2725467619114994
  0
ARC
  5
35057
  8
0
 10
6523.819427126746632
 20
336.2027283945574254
 30
0.0
 40
0.0140397827863132
 50
59.1383553227038021
 51
77.2118963354795937
  0
ARC
  5
35058
  8
0
 10
6523.825057097124045
 20
336.2121496964446123
 30
0.0
 40
0.0030644697752328
 50
31.4661955150538297
 51
59.1383553227038021
  0
ARC
  5
35059
  8
0
 10
6523.8263690403955479
 20
336.2129525919805815
 30
0.0
 40
0.0015263422158475
 50
310.7154664999657143
 51
31.4661955150810613
  0
ARC
  5
3505A
  8
0
 10
6523.8209607379349109
 20
336.2192368915031011
 30
0.0
 40
0.0098174311665902
 50
298.8841466869371857
 51
310.7154664999657143
  0
ARC
  5
3505B
  8
0
 10
6523.8215856298038489
 20
336.2181041611768251
 30
0.0
 40
0.0085237666660742
 50
282.7719643776621865
 51
298.8841466869355941
  0
ARC
  5
3505C
  8
0
 10
6523.8144272254703537
 20
336.2417647995901007
 30
0.0
 40
0.0332276502828313
 50
275.3520046859392778
 51
285.7919929822195968
  0
ARC
  5
3505D
  8
0
 10
6523.8124579180066576
 20
336.2586171176038192
 30
0.0
 40
0.0501916917154405
 50
269.8826350893572226
 51
275.7958779274060248
  0
ARC
  5
3505E
  8
0
 10
6523.8135989640177286
 20
336.1510067287709944
 30
0.0
 40
0.04467177150592
 50
89.7274532380884864
 51
102.7881036645204063
  0
ARC
  5
3505F
  8
0
 10
6523.8068186951577445
 20
336.1808789012246166
 30
0.0
 40
0.0140397827863132
 50
102.7881036645204063
 51
120.8616446772961979
  0
ARC
  5
35060
  8
0
 10
6523.801188724781241
 20
336.1903002031116898
 30
0.0
 40
0.0030644697752328
 50
120.8616446772961979
 51
148.5338044849461028
  0
ARC
  5
35061
  8
0
 10
6523.7998767815088286
 20
336.1911030986477158
 30
0.0
 40
0.0015263422158475
 50
148.5338044849189032
 51
229.2845335000342004
  0
ARC
  5
35062
  8
0
 10
6523.8052850839703751
 20
336.1973873981702923
 30
0.0
 40
0.0098174311665902
 50
229.2845335000342004
 51
241.1158533130627006
  0
ARC
  5
35063
  8
0
 10
6523.8046601921023466
 20
336.1962546678439026
 30
0.0
 40
0.0085237666660742
 50
241.1158533130627006
 51
257.2280356223378135
  0
ARC
  5
35064
  8
0
 10
6523.8118185964349323
 20
336.2199153062571781
 30
0.0
 40
0.0332276502828313
 50
254.2080070177804032
 51
264.6479953140606085
  0
ARC
  5
35065
  8
0
 10
6523.8137855930290243
 20
336.236737016207428
 30
0.0
 40
0.0501610067647868
 50
264.2032175458920733
 51
269.9390153635073943
  0
ARC
  5
35066
  8
0
 10
6523.8140239552076309
 20
336.1510067287709944
 30
0.0
 40
0.04467177150592
 50
77.2118963354795937
 51
90.2725467619114994
  0
ARC
  5
35067
  8
0
 10
6523.820804224069434
 20
336.1808789012246166
 30
0.0
 40
0.0140397827863132
 50
59.1383553227038021
 51
77.2118963354795937
  0
ARC
  5
35068
  8
0
 10
6523.8264341944459375
 20
336.1903002031116898
 30
0.0
 40
0.0030644697752328
 50
31.4661955150538297
 51
59.1383553227038021
  0
ARC
  5
35069
  8
0
 10
6523.8277461377156214
 20
336.1911030986477158
 30
0.0
 40
0.0015263422158475
 50
310.7154664999657143
 51
31.4661955150810613
  0
ARC
  5
3506A
  8
0
 10
6523.8223378352568034
 20
336.1973873981702923
 30
0.0
 40
0.0098174311665902
 50
298.8841466869371857
 51
310.7154664999657143
  0
ARC
  5
3506B
  8
0
 10
6523.8229627271248319
 20
336.1962546678439026
 30
0.0
 40
0.0085237666660742
 50
282.7719643776621865
 51
298.8841466869355941
  0
ARC
  5
3506C
  8
0
 10
6523.8158043227931557
 20
336.2199153062571781
 30
0.0
 40
0.0332276502828313
 50
275.3520046859392778
 51
285.7919929822195968
  0
ARC
  5
3506D
  8
0
 10
6523.8138350153276406
 20
336.2367676242710104
 30
0.0
 40
0.0501916917154405
 50
269.8826350893572226
 51
275.7958779274060248
  0
ARC
  5
3506E
  8
0
 10
6523.8135989640177286
 20
336.127276841978528
 30
0.0
 40
0.04467177150592
 50
89.7274532380884864
 51
102.7881036645204063
  0
ARC
  5
3506F
  8
0
 10
6523.8068186951577445
 20
336.157149014432207
 30
0.0
 40
0.0140397827863132
 50
102.7881036645204063
 51
120.8616446772961979
  0
ARC
  5
35070
  8
0
 10
6523.801188724781241
 20
336.1665703163192802
 30
0.0
 40
0.0030644697752328
 50
120.8616446772961979
 51
148.5338044849461028
  0
ARC
  5
35071
  8
0
 10
6523.7998767815088286
 20
336.1673732118553062
 30
0.0
 40
0.0015263422158475
 50
148.5338044849189032
 51
229.2845335000342004
  0
ARC
  5
35072
  8
0
 10
6523.8052850839703751
 20
336.1736575113778258
 30
0.0
 40
0.0098174311665902
 50
229.2845335000342004
 51
241.1158533130627006
  0
ARC
  5
35073
  8
0
 10
6523.8046601921023466
 20
336.1725247810514929
 30
0.0
 40
0.0085237666660742
 50
241.1158533130627006
 51
257.2280356223378135
  0
ARC
  5
35074
  8
0
 10
6523.8118185964349323
 20
336.1961854194648254
 30
0.0
 40
0.0332276502828313
 50
254.2080070177804032
 51
264.6479953140606085
  0
ARC
  5
35075
  8
0
 10
6523.8137855930290243
 20
336.2130071294150184
 30
0.0
 40
0.0501610067647868
 50
264.2032175458920733
 51
269.9390153635073943
  0
ARC
  5
35076
  8
0
 10
6523.8140239552076309
 20
336.127276841978528
 30
0.0
 40
0.04467177150592
 50
77.2118963354795937
 51
90.2725467619114994
  0
ARC
  5
35077
  8
0
 10
6523.820804224069434
 20
336.157149014432207
 30
0.0
 40
0.0140397827863132
 50
59.1383553227038021
 51
77.2118963354795937
  0
ARC
  5
35078
  8
0
 10
6523.8264341944459375
 20
336.1665703163192802
 30
0.0
 40
0.0030644697752328
 50
31.4661955150538297
 51
59.1383553227038021
  0
ARC
  5
35079
  8
0
 10
6523.8277461377156214
 20
336.1673732118553062
 30
0.0
 40
0.0015263422158475
 50
310.7154664999657143
 51
31.4661955150810613
  0
ARC
  5
3507A
  8
0
 10
6523.8223378352568034
 20
336.1736575113778258
 30
0.0
 40
0.0098174311665902
 50
298.8841466869371857
 51
310.7154664999657143
  0
ARC
  5
3507B
  8
0
 10
6523.8229627271248319
 20
336.1725247810514929
 30
0.0
 40
0.0085237666660742
 50
282.7719643776621865
 51
298.8841466869355941
  0
ARC
  5
3507C
  8
0
 10
6523.8158043227931557
 20
336.1961854194648254
 30
0.0
 40
0.0332276502828313
 50
275.3520046859392778
 51
285.7919929822195968
  0
ARC
  5
3507D
  8
0
 10
6523.8138350153276406
 20
336.2130377374784871
 30
0.0
 40
0.0501916917154405
 50
269.8826350893572226
 51
275.7958779274060248
  0
ARC
  5
3507E
  8
0
 10
6523.7349922255425554
 20
336.155564105492374
 30
0.0
 40
0.04467177150592
 50
89.7274532380884864
 51
102.7881036645204063
  0
ARC
  5
3507F
  8
0
 10
6523.7282119566825713
 20
336.1854362779459962
 30
0.0
 40
0.0140397827863132
 50
102.7881036645204063
 51
120.8616446772961979
  0
ARC
  5
35080
  8
0
 10
6523.7225819863051584
 20
336.1948575798331831
 30
0.0
 40
0.0030644697752328
 50
120.8616446772961979
 51
148.5338044849461028
  0
ARC
  5
35081
  8
0
 10
6523.7212700430345649
 20
336.1956604753692091
 30
0.0
 40
0.0015263422158475
 50
148.5338044849189032
 51
229.2845335000342004
  0
ARC
  5
35082
  8
0
 10
6523.7266783454961114
 20
336.2019447748916718
 30
0.0
 40
0.0098174311665902
 50
229.2845335000342004
 51
241.1158533130627006
  0
ARC
  5
35083
  8
0
 10
6523.7260534536262639
 20
336.2008120445653958
 30
0.0
 40
0.0085237666660742
 50
241.1158533130627006
 51
257.2280356223378135
  0
ARC
  5
35084
  8
0
 10
6523.7332118579597591
 20
336.2244726829786146
 30
0.0
 40
0.0332276502828313
 50
254.2080070177804032
 51
264.6479953140606085
  0
ARC
  5
35085
  8
0
 10
6523.7351788545538511
 20
336.2412943929289213
 30
0.0
 40
0.0501610067647868
 50
264.2032175458920733
 51
269.9390153635073943
  0
ARC
  5
35086
  8
0
 10
6523.7354172167333672
 20
336.155564105492374
 30
0.0
 40
0.04467177150592
 50
77.2118963354795937
 51
90.2725467619114994
  0
ARC
  5
35087
  8
0
 10
6523.7421974855933513
 20
336.1854362779459962
 30
0.0
 40
0.0140397827863132
 50
59.1383553227038021
 51
77.2118963354795937
  0
ARC
  5
35088
  8
0
 10
6523.7478274559698548
 20
336.1948575798331831
 30
0.0
 40
0.0030644697752328
 50
31.4661955150538297
 51
59.1383553227038021
  0
ARC
  5
35089
  8
0
 10
6523.7491393992413578
 20
336.1956604753692091
 30
0.0
 40
0.0015263422158475
 50
310.7154664999657143
 51
31.4661955150810613
  0
ARC
  5
3508A
  8
0
 10
6523.7437310967798112
 20
336.2019447748916718
 30
0.0
 40
0.0098174311665902
 50
298.8841466869371857
 51
310.7154664999657143
  0
ARC
  5
3508B
  8
0
 10
6523.7443559886496587
 20
336.2008120445653958
 30
0.0
 40
0.0085237666660742
 50
282.7719643776621865
 51
298.8841466869355941
  0
ARC
  5
3508C
  8
0
 10
6523.7371975843161636
 20
336.2244726829786146
 30
0.0
 40
0.0332276502828313
 50
275.3520046859392778
 51
285.7919929822195968
  0
ARC
  5
3508D
  8
0
 10
6523.7352282768515579
 20
336.2413250009922763
 30
0.0
 40
0.0501916917154405
 50
269.8826350893572226
 51
275.7958779274060248
  0
ARC
  5
3508E
  8
0
 10
6523.7037675755418604
 20
336.1332843629043055
 30
0.0
 40
0.04467177150592
 50
89.7274532380884864
 51
102.7881036645204063
  0
ARC
  5
3508F
  8
0
 10
6523.6969873066818764
 20
336.1631565353579845
 30
0.0
 40
0.0140397827863132
 50
102.7881036645204063
 51
120.8616446772961979
  0
ARC
  5
35090
  8
0
 10
6523.6913573363053729
 20
336.1725778372452282
 30
0.0
 40
0.0030644697752328
 50
120.8616446772961979
 51
148.5338044849461028
  0
ARC
  5
35091
  8
0
 10
6523.6900453930347794
 20
336.1733807327810837
 30
0.0
 40
0.0015263422158475
 50
148.5338044849189032
 51
229.2845335000342004
  0
ARC
  5
35092
  8
0
 10
6523.6954536954935975
 20
336.179665032303717
 30
0.0
 40
0.0098174311665902
 50
229.2845335000342004
 51
241.1158533130627006
  0
ARC
  5
35093
  8
0
 10
6523.69482880362375
 20
336.1785323019773841
 30
0.0
 40
0.0085237666660742
 50
241.1158533130627006
 51
257.2280356223378135
  0
ARC
  5
35094
  8
0
 10
6523.7019872079581546
 20
336.2021929403906029
 30
0.0
 40
0.0332276502828313
 50
254.2080070177804032
 51
264.6479953140606085
  0
ARC
  5
35095
  8
0
 10
6523.7039542045531562
 20
336.2190146503407959
 30
0.0
 40
0.0501610067647868
 50
264.2032175458920733
 51
269.9390153635073943
  0
ARC
  5
35096
  8
0
 10
6523.7041925667308533
 20
336.1332843629043055
 30
0.0
 40
0.04467177150592
 50
77.2118963354795937
 51
90.2725467619114994
  0
ARC
  5
35097
  8
0
 10
6523.7109728355926563
 20
336.1631565353579845
 30
0.0
 40
0.0140397827863132
 50
59.1383553227038021
 51
77.2118963354795937
  0
ARC
  5
35098
  8
0
 10
6523.7166028059682503
 20
336.1725778372452282
 30
0.0
 40
0.0030644697752328
 50
31.4661955150538297
 51
59.1383553227038021
  0
ARC
  5
35099
  8
0
 10
6523.7179147492406628
 20
336.1733807327810837
 30
0.0
 40
0.0015263422158475
 50
310.7154664999657143
 51
31.4661955150810613
  0
ARC
  5
3509A
  8
0
 10
6523.7125064467809352
 20
336.179665032303717
 30
0.0
 40
0.0098174311665902
 50
298.8841466869371857
 51
310.7154664999657143
  0
ARC
  5
3509B
  8
0
 10
6523.7131313386489637
 20
336.1785323019773841
 30
0.0
 40
0.0085237666660742
 50
282.7719643776621865
 51
298.8841466869355941
  0
ARC
  5
3509C
  8
0
 10
6523.7059729343145591
 20
336.2021929403906029
 30
0.0
 40
0.0332276502828313
 50
275.3520046859392778
 51
285.7919929822195968
  0
ARC
  5
3509D
  8
0
 10
6523.7040036268508629
 20
336.2190452584043214
 30
0.0
 40
0.0501916917154405
 50
269.8826350893572226
 51
275.7958779274060248
  0
ARC
  5
3509E
  8
0
 10
6523.6680776332241294
 20
336.1684718049345975
 30
0.0
 40
0.04467177150592
 50
89.7274532380884864
 51
102.7881036645204063
  0
ARC
  5
3509F
  8
0
 10
6523.6612973643641453
 20
336.1983439773882765
 30
0.0
 40
0.0140397827863132
 50
102.7881036645204063
 51
120.8616446772961979
  0
ARC
  5
350A0
  8
0
 10
6523.6556673939867323
 20
336.2077652792755202
 30
0.0
 40
0.0030644697752328
 50
120.8616446772961979
 51
148.5338044849461028
  0
ARC
  5
350A1
  8
0
 10
6523.6543554507161389
 20
336.2085681748113757
 30
0.0
 40
0.0015263422158475
 50
148.5338044849189032
 51
229.2845335000342004
  0
ARC
  5
350A2
  8
0
 10
6523.6597637531767759
 20
336.214852474334009
 30
0.0
 40
0.0098174311665902
 50
229.2845335000342004
 51
241.1158533130627006
  0
ARC
  5
350A3
  8
0
 10
6523.6591388613078379
 20
336.2137197440076761
 30
0.0
 40
0.0085237666660742
 50
241.1158533130627006
 51
257.2280356223378135
  0
ARC
  5
350A4
  8
0
 10
6523.6662972656413331
 20
336.2373803824210086
 30
0.0
 40
0.0332276502828313
 50
254.2080070177804032
 51
264.6479953140606085
  0
ARC
  5
350A5
  8
0
 10
6523.6682642622354251
 20
336.2542020923712016
 30
0.0
 40
0.0501610067647868
 50
264.2032175458920733
 51
269.9390153635073943
  0
ARC
  5
350A6
  8
0
 10
6523.6685026244140317
 20
336.1684718049345975
 30
0.0
 40
0.04467177150592
 50
77.2118963354795937
 51
90.2725467619114994
  0
ARC
  5
350A7
  8
0
 10
6523.6752828932749253
 20
336.1983439773882765
 30
0.0
 40
0.0140397827863132
 50
59.1383553227038021
 51
77.2118963354795937
  0
ARC
  5
350A8
  8
0
 10
6523.6809128636514288
 20
336.2077652792755202
 30
0.0
 40
0.0030644697752328
 50
31.4661955150538297
 51
59.1383553227038021
  0
ARC
  5
350A9
  8
0
 10
6523.6822248069229317
 20
336.2085681748113757
 30
0.0
 40
0.0015263422158475
 50
310.7154664999657143
 51
31.4661955150810613
  0
ARC
  5
350AA
  8
0
 10
6523.6768165044641137
 20
336.214852474334009
 30
0.0
 40
0.0098174311665902
 50
298.8841466869371857
 51
310.7154664999657143
  0
ARC
  5
350AB
  8
0
 10
6523.6774413963321422
 20
336.2137197440076761
 30
0.0
 40
0.0085237666660742
 50
282.7719643776621865
 51
298.8841466869355941
  0
ARC
  5
350AC
  8
0
 10
6523.670282991998647
 20
336.2373803824210086
 30
0.0
 40
0.0332276502828313
 50
275.3520046859392778
 51
285.7919929822195968
  0
ARC
  5
350AD
  8
0
 10
6523.6683136845349509
 20
336.2542327004346134
 30
0.0
 40
0.0501916917154405
 50
269.8826350893572226
 51
275.7958779274060248
  0
ARC
  5
350AE
  8
0
 10
6523.6107488303214268
 20
336.1511787841157002
 30
0.0
 40
0.04467177150592
 50
89.7274532380884864
 51
102.7881036645204063
  0
ARC
  5
350AF
  8
0
 10
6523.6039685614587142
 20
336.1810509565693224
 30
0.0
 40
0.0140397827863132
 50
102.7881036645204063
 51
120.8616446772961979
  0
ARC
  5
350B0
  8
0
 10
6523.5983385910840298
 20
336.1904722584565093
 30
0.0
 40
0.0030644697752328
 50
120.8616446772961979
 51
148.5338044849461028
  0
ARC
  5
350B1
  8
0
 10
6523.5970266478116173
 20
336.1912751539924216
 30
0.0
 40
0.0015263422158475
 50
148.5338044849189032
 51
229.2845335000342004
  0
ARC
  5
350B2
  8
0
 10
6523.6024349502731638
 20
336.197559453514998
 30
0.0
 40
0.0098174311665902
 50
229.2845335000342004
 51
241.1158533130627006
  0
ARC
  5
350B3
  8
0
 10
6523.6018100584051354
 20
336.196426723188722
 30
0.0
 40
0.0085237666660742
 50
241.1158533130627006
 51
257.2280356223378135
  0
ARC
  5
350B4
  8
0
 10
6523.6089684627368115
 20
336.2200873616019976
 30
0.0
 40
0.0332276502828313
 50
254.2080070177804032
 51
264.6479953140606085
  0
ARC
  5
350B5
  8
0
 10
6523.610935459331813
 20
336.236909071552077
 30
0.0
 40
0.0501610067647868
 50
264.2032175458920733
 51
269.9390153635073943
  0
ARC
  5
350B6
  8
0
 10
6523.6111738215113292
 20
336.1511787841157002
 30
0.0
 40
0.04467177150592
 50
77.2118963354795937
 51
90.2725467619114994
  0
ARC
  5
350B7
  8
0
 10
6523.6179540903722227
 20
336.1810509565693224
 30
0.0
 40
0.0140397827863132
 50
59.1383553227038021
 51
77.2118963354795937
  0
ARC
  5
350B8
  8
0
 10
6523.6235840607469072
 20
336.1904722584565093
 30
0.0
 40
0.0030644697752328
 50
31.4661955150538297
 51
59.1383553227038021
  0
ARC
  5
350B9
  8
0
 10
6523.6248960040202292
 20
336.1912751539924216
 30
0.0
 40
0.0015263422158475
 50
310.7154664999657143
 51
31.4661955150810613
  0
ARC
  5
350BA
  8
0
 10
6523.6194877015586826
 20
336.197559453514998
 30
0.0
 40
0.0098174311665902
 50
298.8841466869371857
 51
310.7154664999657143
  0
ARC
  5
350BB
  8
0
 10
6523.6201125934276206
 20
336.196426723188722
 30
0.0
 40
0.0085237666660742
 50
282.7719643776621865
 51
298.8841466869355941
  0
ARC
  5
350BC
  8
0
 10
6523.6129541890941255
 20
336.2200873616019976
 30
0.0
 40
0.0332276502828313
 50
275.3520046859392778
 51
285.7919929822195968
  0
ARC
  5
350BD
  8
0
 10
6523.6109848816313388
 20
336.2369396796156025
 30
0.0
 40
0.0501916917154405
 50
269.8826350893572226
 51
275.7958779274060248
  0
ARC
  5
350BE
  8
0
 10
6523.7622987862750961
 20
336.1757026845717746
 30
0.0
 40
0.04467177150592
 50
89.7274532380884864
 51
102.7881036645204063
  0
ARC
  5
350BF
  8
0
 10
6523.755518517415112
 20
336.2055748570253968
 30
0.0
 40
0.0140397827863132
 50
102.7881036645204063
 51
120.8616446772961979
  0
ARC
  5
350C0
  8
0
 10
6523.7498885470367895
 20
336.2149961589126974
 30
0.0
 40
0.0030644697752328
 50
120.8616446772961979
 51
148.5338044849461028
  0
ARC
  5
350C1
  8
0
 10
6523.7485766037661961
 20
336.2157990544486097
 30
0.0
 40
0.0015263422158475
 50
148.5338044849189032
 51
229.2845335000342004
  0
ARC
  5
350C2
  8
0
 10
6523.7539849062259236
 20
336.2220833539710725
 30
0.0
 40
0.0098174311665902
 50
229.2845335000342004
 51
241.1158533130627006
  0
ARC
  5
350C3
  8
0
 10
6523.7533600143569856
 20
336.2209506236449101
 30
0.0
 40
0.0085237666660742
 50
241.1158533130627006
 51
257.2280356223378135
  0
ARC
  5
350C4
  8
0
 10
6523.7605184186895713
 20
336.244611262058072
 30
0.0
 40
0.0332276502828313
 50
254.2080070177804032
 51
264.6479953140606085
  0
ARC
  5
350C5
  8
0
 10
6523.7624854152863918
 20
336.2614329720083219
 30
0.0
 40
0.0501610067647868
 50
264.2032175458920733
 51
269.9390153635073943
  0
ARC
  5
350C6
  8
0
 10
6523.7627237774649984
 20
336.1757026845717746
 30
0.0
 40
0.04467177150592
 50
77.2118963354795937
 51
90.2725467619114994
  0
ARC
  5
350C7
  8
0
 10
6523.7695040463249825
 20
336.2055748570253968
 30
0.0
 40
0.0140397827863132
 50
59.1383553227038021
 51
77.2118963354795937
  0
ARC
  5
350C8
  8
0
 10
6523.7751340167023955
 20
336.2149961589126974
 30
0.0
 40
0.0030644697752328
 50
31.4661955150538297
 51
59.1383553227038021
  0
ARC
  5
350C9
  8
0
 10
6523.7764459599729889
 20
336.2157990544486097
 30
0.0
 40
0.0015263422158475
 50
310.7154664999657143
 51
31.4661955150810613
  0
ARC
  5
350CA
  8
0
 10
6523.7710376575123519
 20
336.2220833539710725
 30
0.0
 40
0.0098174311665902
 50
298.8841466869371857
 51
310.7154664999657143
  0
ARC
  5
350CB
  8
0
 10
6523.7716625493821994
 20
336.2209506236449101
 30
0.0
 40
0.0085237666660742
 50
282.7719643776621865
 51
298.8841466869355941
  0
ARC
  5
350CC
  8
0
 10
6523.7645041450477947
 20
336.244611262058072
 30
0.0
 40
0.0332276502828313
 50
275.3520046859392778
 51
285.7919929822195968
  0
ARC
  5
350CD
  8
0
 10
6523.7625348375840986
 20
336.2614635800717906
 30
0.0
 40
0.0501916917154405
 50
269.8826350893572226
 51
275.7958779274060248
  0
ARC
  5
350CE
  8
0
 10
6523.7200004904880188
 20
336.1838579202458845
 30
0.0
 40
0.04467177150592
 50
89.7274532380884864
 51
102.7881036645204063
  0
ARC
  5
350CF
  8
0
 10
6523.7132202216289443
 20
336.2137300926996204
 30
0.0
 40
0.0140397827863132
 50
102.7881036645204063
 51
120.8616446772961979
  0
ARC
  5
350D0
  8
0
 10
6523.7075902512524408
 20
336.2231513945866936
 30
0.0
 40
0.0030644697752328
 50
120.8616446772961979
 51
148.5338044849461028
  0
ARC
  5
350D1
  8
0
 10
6523.7062783079800283
 20
336.2239542901227196
 30
0.0
 40
0.0015263422158475
 50
148.5338044849189032
 51
229.2845335000342004
  0
ARC
  5
350D2
  8
0
 10
6523.7116866104397559
 20
336.2302385896451824
 30
0.0
 40
0.0098174311665902
 50
229.2845335000342004
 51
241.1158533130627006
  0
ARC
  5
350D3
  8
0
 10
6523.7110617185708179
 20
336.2291058593189064
 30
0.0
 40
0.0085237666660742
 50
241.1158533130627006
 51
257.2280356223378135
  0
ARC
  5
350D4
  8
0
 10
6523.7182201229052225
 20
336.252766497732182
 30
0.0
 40
0.0332276502828313
 50
254.2080070177804032
 51
264.6479953140606085
  0
ARC
  5
350D5
  8
0
 10
6523.7201871195002241
 20
336.269588207682375
 30
0.0
 40
0.0501610067647868
 50
264.2032175458920733
 51
269.9390153635073943
  0
ARC
  5
350D6
  8
0
 10
6523.7204254816770117
 20
336.1838579202458845
 30
0.0
 40
0.04467177150592
 50
77.2118963354795937
 51
90.2725467619114994
  0
ARC
  5
350D7
  8
0
 10
6523.7272057505388148
 20
336.2137300926996204
 30
0.0
 40
0.0140397827863132
 50
59.1383553227038021
 51
77.2118963354795937
  0
ARC
  5
350D8
  8
0
 10
6523.7328357209153182
 20
336.2231513945866936
 30
0.0
 40
0.0030644697752328
 50
31.4661955150538297
 51
59.1383553227038021
  0
ARC
  5
350D9
  8
0
 10
6523.7341476641868212
 20
336.2239542901227196
 30
0.0
 40
0.0015263422158475
 50
310.7154664999657143
 51
31.4661955150810613
  0
ARC
  5
350DA
  8
0
 10
6523.7287393617261841
 20
336.2302385896451824
 30
0.0
 40
0.0098174311665902
 50
298.8841466869371857
 51
310.7154664999657143
  0
ARC
  5
350DB
  8
0
 10
6523.7293642535942126
 20
336.2291058593189064
 30
0.0
 40
0.0085237666660742
 50
282.7719643776621865
 51
298.8841466869355941
  0
ARC
  5
350DC
  8
0
 10
6523.722205849261627
 20
336.252766497732182
 30
0.0
 40
0.0332276502828313
 50
275.3520046859392778
 51
285.7919929822195968
  0
ARC
  5
350DD
  8
0
 10
6523.7202365417970213
 20
336.2696188157459005
 30
0.0
 40
0.0501916917154405
 50
269.8826350893572226
 51
275.7958779274060248
  0
ARC
  5
350DE
  8
0
 10
6523.7647543502525878
 20
336.1972127247371986
 30
0.0
 40
0.04467177150592
 50
89.7274532380884864
 51
102.7881036645204063
  0
ARC
  5
350DF
  8
0
 10
6523.7579740813944227
 20
336.2270848971908777
 30
0.0
 40
0.0140397827863132
 50
102.7881036645204063
 51
120.8616446772961979
  0
ARC
  5
350E0
  8
0
 10
6523.7523441110170097
 20
336.2365061990780077
 30
0.0
 40
0.0030644697752328
 50
120.8616446772961979
 51
148.5338044849461028
  0
ARC
  5
350E1
  8
0
 10
6523.7510321677464162
 20
336.2373090946139769
 30
0.0
 40
0.0015263422158475
 50
148.5338044849189032
 51
229.2845335000342004
  0
ARC
  5
350E2
  8
0
 10
6523.7564404702052343
 20
336.2435933941364965
 30
0.0
 40
0.0098174311665902
 50
229.2845335000342004
 51
241.1158533130627006
  0
ARC
  5
350E3
  8
0
 10
6523.7558155783362963
 20
336.2424606638102205
 30
0.0
 40
0.0085237666660742
 50
241.1158533130627006
 51
257.2280356223378135
  0
ARC
  5
350E4
  8
0
 10
6523.7629739826697914
 20
336.2661213022234961
 30
0.0
 40
0.0332276502828313
 50
254.2080070177804032
 51
264.6479953140606085
  0
ARC
  5
350E5
  8
0
 10
6523.764940979264793
 20
336.2829430121736891
 30
0.0
 40
0.0501610067647868
 50
264.2032175458920733
 51
269.9390153635073943
  0
ARC
  5
350E6
  8
0
 10
6523.7651793414433996
 20
336.1972127247371986
 30
0.0
 40
0.04467177150592
 50
77.2118963354795937
 51
90.2725467619114994
  0
ARC
  5
350E7
  8
0
 10
6523.7719596103042932
 20
336.2270848971908777
 30
0.0
 40
0.0140397827863132
 50
59.1383553227038021
 51
77.2118963354795937
  0
ARC
  5
350E8
  8
0
 10
6523.7775895806807966
 20
336.2365061990780077
 30
0.0
 40
0.0030644697752328
 50
31.4661955150538297
 51
59.1383553227038021
  0
ARC
  5
350E9
  8
0
 10
6523.7789015239532091
 20
336.2373090946139769
 30
0.0
 40
0.0015263422158475
 50
310.7154664999657143
 51
31.4661955150810613
  0
ARC
  5
350EA
  8
0
 10
6523.7734932214916626
 20
336.2435933941364965
 30
0.0
 40
0.0098174311665902
 50
298.8841466869371857
 51
310.7154664999657143
  0
ARC
  5
350EB
  8
0
 10
6523.7741181133596911
 20
336.2424606638102205
 30
0.0
 40
0.0085237666660742
 50
282.7719643776621865
 51
298.8841466869355941
  0
ARC
  5
350EC
  8
0
 10
6523.7669597090271054
 20
336.2661213022234961
 30
0.0
 40
0.0332276502828313
 50
275.3520046859392778
 51
285.7919929822195968
  0
ARC
  5
350ED
  8
0
 10
6523.7649904015643187
 20
336.2829736202372146
 30
0.0
 40
0.0501916917154405
 50
269.8826350893572226
 51
275.7958779274060248
  0
ARC
  5
350EE
  8
0
 10
6523.7449668556682809
 20
336.2107327091836169
 30
0.0
 40
0.04467177150592
 50
89.7274532380884864
 51
102.7881036645204063
  0
ARC
  5
350EF
  8
0
 10
6523.7381865868082969
 20
336.2406048816372959
 30
0.0
 40
0.0140397827863132
 50
102.7881036645204063
 51
120.8616446772961979
  0
ARC
  5
350F0
  8
0
 10
6523.7325566164299744
 20
336.250026183524426
 30
0.0
 40
0.0030644697752328
 50
120.8616446772961979
 51
148.5338044849461028
  0
ARC
  5
350F1
  8
0
 10
6523.7312446731593809
 20
336.2508290790603951
 30
0.0
 40
0.0015263422158475
 50
148.5338044849189032
 51
229.2845335000342004
  0
ARC
  5
350F2
  8
0
 10
6523.736652975618199
 20
336.2571133785830284
 30
0.0
 40
0.0098174311665902
 50
229.2845335000342004
 51
241.1158533130627006
  0
ARC
  5
350F3
  8
0
 10
6523.7360280837501705
 20
336.2559806482566955
 30
0.0
 40
0.0085237666660742
 50
241.1158533130627006
 51
257.2280356223378135
  0
ARC
  5
350F4
  8
0
 10
6523.7431864880827561
 20
336.2796412866699143
 30
0.0
 40
0.0332276502828313
 50
254.2080070177804032
 51
264.6479953140606085
  0
ARC
  5
350F5
  8
0
 10
6523.7451534846786672
 20
336.2964629966201073
 30
0.0
 40
0.0501610067647868
 50
264.2032175458920733
 51
269.9390153635073943
  0
ARC
  5
350F6
  8
0
 10
6523.7453918468572738
 20
336.2107327091836169
 30
0.0
 40
0.04467177150592
 50
77.2118963354795937
 51
90.2725467619114994
  0
ARC
  5
350F7
  8
0
 10
6523.7521721157181673
 20
336.2406048816372959
 30
0.0
 40
0.0140397827863132
 50
59.1383553227038021
 51
77.2118963354795937
  0
ARC
  5
350F8
  8
0
 10
6523.7578020860937613
 20
336.250026183524426
 30
0.0
 40
0.0030644697752328
 50
31.4661955150538297
 51
59.1383553227038021
  0
ARC
  5
350F9
  8
0
 10
6523.7591140293661738
 20
336.2508290790603951
 30
0.0
 40
0.0015263422158475
 50
310.7154664999657143
 51
31.4661955150810613
  0
ARC
  5
350FA
  8
0
 10
6523.7537057269046272
 20
336.2571133785830284
 30
0.0
 40
0.0098174311665902
 50
298.8841466869371857
 51
310.7154664999657143
  0
ARC
  5
350FB
  8
0
 10
6523.7543306187753842
 20
336.2559806482566955
 30
0.0
 40
0.0085237666660742
 50
282.7719643776621865
 51
298.8841466869355941
  0
ARC
  5
350FC
  8
0
 10
6523.7471722144409796
 20
336.2796412866699143
 30
0.0
 40
0.0332276502828313
 50
275.3520046859392778
 51
285.7919929822195968
  0
ARC
  5
350FD
  8
0
 10
6523.7452029069772834
 20
336.296493604683576
 30
0.0
 40
0.0501916917154405
 50
269.8826350893572226
 51
275.7958779274060248
  0
ARC
  5
350FE
  8
0
 10
6523.7641366682119042
 20
336.2245791125602068
 30
0.0
 40
0.04467177150592
 50
89.7274532380884864
 51
102.7881036645204063
  0
ARC
  5
350FF
  8
0
 10
6523.7573563993537391
 20
336.2544512850138858
 30
0.0
 40
0.0140397827863132
 50
102.7881036645204063
 51
120.8616446772961979
  0
ARC
  5
35100
  8
0
 10
6523.7517264289754166
 20
336.2638725869010159
 30
0.0
 40
0.0030644697752328
 50
120.8616446772961979
 51
148.5338044849461028
  0
ARC
  5
35101
  8
0
 10
6523.7504144857048232
 20
336.264675482436985
 30
0.0
 40
0.0015263422158475
 50
148.5338044849189032
 51
229.2845335000342004
  0
ARC
  5
35102
  8
0
 10
6523.7558227881645507
 20
336.2709597819595047
 30
0.0
 40
0.0098174311665902
 50
229.2845335000342004
 51
241.1158533130627006
  0
ARC
  5
35103
  8
0
 10
6523.7551978962956127
 20
336.2698270516331718
 30
0.0
 40
0.0085237666660742
 50
241.1158533130627006
 51
257.2280356223378135
  0
ARC
  5
35104
  8
0
 10
6523.7623563006291079
 20
336.2934876900465042
 30
0.0
 40
0.0332276502828313
 50
254.2080070177804032
 51
264.6479953140606085
  0
ARC
  5
35105
  8
0
 10
6523.7643232972250189
 20
336.3103093999966973
 30
0.0
 40
0.0501610067647868
 50
264.2032175458920733
 51
269.9390153635073943
  0
ARC
  5
35106
  8
0
 10
6523.7645616594018065
 20
336.2245791125602068
 30
0.0
 40
0.04467177150592
 50
77.2118963354795937
 51
90.2725467619114994
  0
ARC
  5
35107
  8
0
 10
6523.7713419282627001
 20
336.2544512850138858
 30
0.0
 40
0.0140397827863132
 50
59.1383553227038021
 51
77.2118963354795937
  0
ARC
  5
35108
  8
0
 10
6523.7769718986401131
 20
336.2638725869010159
 30
0.0
 40
0.0030644697752328
 50
31.4661955150538297
 51
59.1383553227038021
  0
ARC
  5
35109
  8
0
 10
6523.778283841909797
 20
336.264675482436985
 30
0.0
 40
0.0015263422158475
 50
310.7154664999657143
 51
31.4661955150810613
  0
ARC
  5
3510A
  8
0
 10
6523.772875539450979
 20
336.2709597819595047
 30
0.0
 40
0.0098174311665902
 50
298.8841466869371857
 51
310.7154664999657143
  0
ARC
  5
3510B
  8
0
 10
6523.7735004313190075
 20
336.2698270516331718
 30
0.0
 40
0.0085237666660742
 50
282.7719643776621865
 51
298.8841466869355941
  0
ARC
  5
3510C
  8
0
 10
6523.7663420269873313
 20
336.2934876900465042
 30
0.0
 40
0.0332276502828313
 50
275.3520046859392778
 51
285.7919929822195968
  0
ARC
  5
3510D
  8
0
 10
6523.7643727195218162
 20
336.3103400080602228
 30
0.0
 40
0.0501916917154405
 50
269.8826350893572226
 51
275.7958779274060248
  0
ARC
  5
3510E
  8
0
 10
6523.7601364683296197
 20
336.2461837021277233
 30
0.0
 40
0.04467177150592
 50
89.7274532380884864
 51
102.7881036645204063
  0
ARC
  5
3510F
  8
0
 10
6523.7533561994696356
 20
336.2760558745814023
 30
0.0
 40
0.0140397827863132
 50
102.7881036645204063
 51
120.8616446772961979
  0
ARC
  5
35110
  8
0
 10
6523.7477262290931321
 20
336.2854771764684756
 30
0.0
 40
0.0030644697752328
 50
120.8616446772961979
 51
148.5338044849461028
  0
ARC
  5
35111
  8
0
 10
6523.7464142858207197
 20
336.2862800720045016
 30
0.0
 40
0.0015263422158475
 50
148.5338044849189032
 51
229.2845335000342004
  0
ARC
  5
35112
  8
0
 10
6523.7518225882822662
 20
336.2925643715270212
 30
0.0
 40
0.0098174311665902
 50
229.2845335000342004
 51
241.1158533130627006
  0
ARC
  5
35113
  8
0
 10
6523.7511976964124187
 20
336.291431641200802
 30
0.0
 40
0.0085237666660742
 50
241.1158533130627006
 51
257.2280356223378135
  0
ARC
  5
35114
  8
0
 10
6523.7583561007468234
 20
336.3150922796140208
 30
0.0
 40
0.0332276502828313
 50
254.2080070177804032
 51
264.6479953140606085
  0
ARC
  5
35115
  8
0
 10
6523.7603230973409154
 20
336.3319139895642138
 30
0.0
 40
0.0501610067647868
 50
264.2032175458920733
 51
269.9390153635073943
  0
ARC
  5
35116
  8
0
 10
6523.760561459521341
 20
336.2461837021277233
 30
0.0
 40
0.04467177150592
 50
77.2118963354795937
 51
90.2725467619114994
  0
ARC
  5
35117
  8
0
 10
6523.7673417283804156
 20
336.2760558745814023
 30
0.0
 40
0.0140397827863132
 50
59.1383553227038021
 51
77.2118963354795937
  0
ARC
  5
35118
  8
0
 10
6523.7729716987578286
 20
336.2854771764684756
 30
0.0
 40
0.0030644697752328
 50
31.4661955150538297
 51
59.1383553227038021
  0
ARC
  5
35119
  8
0
 10
6523.774283642028422
 20
336.2862800720045016
 30
0.0
 40
0.0015263422158475
 50
310.7154664999657143
 51
31.4661955150810613
  0
ARC
  5
3511A
  8
0
 10
6523.7688753395686945
 20
336.2925643715270212
 30
0.0
 40
0.0098174311665902
 50
298.8841466869371857
 51
310.7154664999657143
  0
ARC
  5
3511B
  8
0
 10
6523.7695002314376325
 20
336.291431641200802
 30
0.0
 40
0.0085237666660742
 50
282.7719643776621865
 51
298.8841466869355941
  0
ARC
  5
3511C
  8
0
 10
6523.7623418271041373
 20
336.3150922796140208
 30
0.0
 40
0.0332276502828313
 50
275.3520046859392778
 51
285.7919929822195968
  0
ARC
  5
3511D
  8
0
 10
6523.7603725196386222
 20
336.3319445976276825
 30
0.0
 40
0.0501916917154405
 50
269.8826350893572226
 51
275.7958779274060248
  0
ARC
  5
3511E
  8
0
 10
6523.7181578266608994
 20
336.2378334476488817
 30
0.0
 40
0.04467177150592
 50
89.7274532380884864
 51
102.7881036645204063
  0
ARC
  5
3511F
  8
0
 10
6523.7113775578018249
 20
336.2677056201026176
 30
0.0
 40
0.0140397827863132
 50
102.7881036645204063
 51
120.8616446772961979
  0
ARC
  5
35120
  8
0
 10
6523.7057475874253214
 20
336.2771269219896908
 30
0.0
 40
0.0030644697752328
 50
120.8616446772961979
 51
148.5338044849461028
  0
ARC
  5
35121
  8
0
 10
6523.7044356441538184
 20
336.2779298175257168
 30
0.0
 40
0.0015263422158475
 50
148.5338044849189032
 51
229.2845335000342004
  0
ARC
  5
35122
  8
0
 10
6523.709843946613546
 20
336.2842141170481796
 30
0.0
 40
0.0098174311665902
 50
229.2845335000342004
 51
241.1158533130627006
  0
ARC
  5
35123
  8
0
 10
6523.7092190547436985
 20
336.2830813867220172
 30
0.0
 40
0.0085237666660742
 50
241.1158533130627006
 51
257.2280356223378135
  0
ARC
  5
35124
  8
0
 10
6523.7163774590781031
 20
336.3067420251351791
 30
0.0
 40
0.0332276502828313
 50
254.2080070177804032
 51
264.6479953140606085
  0
ARC
  5
35125
  8
0
 10
6523.7183444556731047
 20
336.3235637350853722
 30
0.0
 40
0.0501610067647868
 50
264.2032175458920733
 51
269.9390153635073943
  0
ARC
  5
35126
  8
0
 10
6523.7185828178526208
 20
336.2378334476488817
 30
0.0
 40
0.04467177150592
 50
77.2118963354795937
 51
90.2725467619114994
  0
ARC
  5
35127
  8
0
 10
6523.7253630867126049
 20
336.2677056201026176
 30
0.0
 40
0.0140397827863132
 50
59.1383553227038021
 51
77.2118963354795937
  0
ARC
  5
35128
  8
0
 10
6523.7309930570891083
 20
336.2771269219896908
 30
0.0
 40
0.0030644697752328
 50
31.4661955150538297
 51
59.1383553227038021
  0
ARC
  5
35129
  8
0
 10
6523.7323050003606113
 20
336.2779298175257168
 30
0.0
 40
0.0015263422158475
 50
310.7154664999657143
 51
31.4661955150810613
  0
ARC
  5
3512A
  8
0
 10
6523.7268966978999742
 20
336.2842141170481796
 30
0.0
 40
0.0098174311665902
 50
298.8841466869371857
 51
310.7154664999657143
  0
ARC
  5
3512B
  8
0
 10
6523.7275215897689122
 20
336.2830813867220172
 30
0.0
 40
0.0085237666660742
 50
282.7719643776621865
 51
298.8841466869355941
  0
ARC
  5
3512C
  8
0
 10
6523.7203631854363266
 20
336.3067420251351791
 30
0.0
 40
0.0332276502828313
 50
275.3520046859392778
 51
285.7919929822195968
  0
ARC
  5
3512D
  8
0
 10
6523.7183938779717209
 20
336.3235943431488977
 30
0.0
 40
0.0501916917154405
 50
269.8826350893572226
 51
275.7958779274060248
  0
ARC
  5
3512E
  8
0
 10
6523.6905072284944254
 20
336.2251630259195281
 30
0.0
 40
0.04467177150592
 50
89.7274532380884864
 51
102.7881036645204063
  0
ARC
  5
3512F
  8
0
 10
6523.6837269596317128
 20
336.2550351983732071
 30
0.0
 40
0.0140397827863132
 50
102.7881036645204063
 51
120.8616446772961979
  0
ARC
  5
35130
  8
0
 10
6523.6780969892561188
 20
336.2644565002602803
 30
0.0
 40
0.0030644697752328
 50
120.8616446772961979
 51
148.5338044849461028
  0
ARC
  5
35131
  8
0
 10
6523.6767850459837064
 20
336.2652593957963063
 30
0.0
 40
0.0015263422158475
 50
148.5338044849189032
 51
229.2845335000342004
  0
ARC
  5
35132
  8
0
 10
6523.6821933484452529
 20
336.2715436953188259
 30
0.0
 40
0.0098174311665902
 50
229.2845335000342004
 51
241.1158533130627006
  0
ARC
  5
35133
  8
0
 10
6523.6815684565772244
 20
336.2704109649924931
 30
0.0
 40
0.0085237666660742
 50
241.1158533130627006
 51
257.2280356223378135
  0
ARC
  5
35134
  8
0
 10
6523.6887268609098101
 20
336.2940716034058255
 30
0.0
 40
0.0332276502828313
 50
254.2080070177804032
 51
264.6479953140606085
  0
ARC
  5
35135
  8
0
 10
6523.6906938575039021
 20
336.3108933133560186
 30
0.0
 40
0.0501610067647868
 50
264.2032175458920733
 51
269.9390153635073943
  0
ARC
  5
35136
  8
0
 10
6523.6909322196834182
 20
336.2251630259195281
 30
0.0
 40
0.04467177150592
 50
77.2118963354795937
 51
90.2725467619114994
  0
ARC
  5
35137
  8
0
 10
6523.6977124885443118
 20
336.2550351983732071
 30
0.0
 40
0.0140397827863132
 50
59.1383553227038021
 51
77.2118963354795937
  0
ARC
  5
35138
  8
0
 10
6523.7033424589199058
 20
336.2644565002602803
 30
0.0
 40
0.0030644697752328
 50
31.4661955150538297
 51
59.1383553227038021
  0
ARC
  5
35139
  8
0
 10
6523.7046544021923182
 20
336.2652593957963063
 30
0.0
 40
0.0015263422158475
 50
310.7154664999657143
 51
31.4661955150810613
  0
ARC
  5
3513A
  8
0
 10
6523.6992460997307717
 20
336.2715436953188259
 30
0.0
 40
0.0098174311665902
 50
298.8841466869371857
 51
310.7154664999657143
  0
ARC
  5
3513B
  8
0
 10
6523.6998709915988002
 20
336.2704109649924931
 30
0.0
 40
0.0085237666660742
 50
282.7719643776621865
 51
298.8841466869355941
  0
ARC
  5
3513C
  8
0
 10
6523.692712587267124
 20
336.2940716034058255
 30
0.0
 40
0.0332276502828313
 50
275.3520046859392778
 51
285.7919929822195968
  0
ARC
  5
3513D
  8
0
 10
6523.6907432798016089
 20
336.3109239214194872
 30
0.0
 40
0.0501916917154405
 50
269.8826350893572226
 51
275.7958779274060248
  0
ARC
  5
3513E
  8
0
 10
6523.681068514438266
 20
336.2106157081370839
 30
0.0
 40
0.04467177150592
 50
89.7274532380884864
 51
102.7881036645204063
  0
ARC
  5
3513F
  8
0
 10
6523.6742882455773724
 20
336.2404878805908197
 30
0.0
 40
0.0140397827863132
 50
102.7881036645204063
 51
120.8616446772961979
  0
ARC
  5
35140
  8
0
 10
6523.6686582751999595
 20
336.249909182477893
 30
0.0
 40
0.0030644697752328
 50
120.8616446772961979
 51
148.5338044849461028
  0
ARC
  5
35141
  8
0
 10
6523.667346331929366
 20
336.2507120780139189
 30
0.0
 40
0.0015263422158475
 50
148.5338044849189032
 51
229.2845335000342004
  0
ARC
  5
35142
  8
0
 10
6523.6727546343890936
 20
336.2569963775363817
 30
0.0
 40
0.0098174311665902
 50
229.2845335000342004
 51
241.1158533130627006
  0
ARC
  5
35143
  8
0
 10
6523.6721297425210651
 20
336.2558636472102194
 30
0.0
 40
0.0085237666660742
 50
241.1158533130627006
 51
257.2280356223378135
  0
ARC
  5
35144
  8
0
 10
6523.6792881468527412
 20
336.2795242856233813
 30
0.0
 40
0.0332276502828313
 50
254.2080070177804032
 51
264.6479953140606085
  0
ARC
  5
35145
  8
0
 10
6523.6812551434477427
 20
336.2963459955735743
 30
0.0
 40
0.0501610067647868
 50
264.2032175458920733
 51
269.9390153635073943
  0
ARC
  5
35146
  8
0
 10
6523.6814935056272589
 20
336.2106157081370839
 30
0.0
 40
0.04467177150592
 50
77.2118963354795937
 51
90.2725467619114994
  0
ARC
  5
35147
  8
0
 10
6523.6882737744881524
 20
336.2404878805908197
 30
0.0
 40
0.0140397827863132
 50
59.1383553227038021
 51
77.2118963354795937
  0
ARC
  5
35148
  8
0
 10
6523.6939037448628369
 20
336.249909182477893
 30
0.0
 40
0.0030644697752328
 50
31.4661955150538297
 51
59.1383553227038021
  0
ARC
  5
35149
  8
0
 10
6523.6952156881352494
 20
336.2507120780139189
 30
0.0
 40
0.0015263422158475
 50
310.7154664999657143
 51
31.4661955150810613
  0
ARC
  5
3514A
  8
0
 10
6523.6898073856746123
 20
336.2569963775363817
 30
0.0
 40
0.0098174311665902
 50
298.8841466869371857
 51
310.7154664999657143
  0
ARC
  5
3514B
  8
0
 10
6523.6904322775435503
 20
336.2558636472102194
 30
0.0
 40
0.0085237666660742
 50
282.7719643776621865
 51
298.8841466869355941
  0
ARC
  5
3514C
  8
0
 10
6523.6832738732100552
 20
336.2795242856233813
 30
0.0
 40
0.0332276502828313
 50
275.3520046859392778
 51
285.7919929822195968
  0
ARC
  5
3514D
  8
0
 10
6523.6813045657472685
 20
336.2963766036370998
 30
0.0
 40
0.0501916917154405
 50
269.8826350893572226
 51
275.7958779274060248
  0
ARC
  5
3514E
  8
0
 10
6523.691311490316366
 20
336.1962009676561252
 30
0.0
 40
0.04467177150592
 50
89.7274532380884864
 51
102.7881036645204063
  0
ARC
  5
3514F
  8
0
 10
6523.6845312214572914
 20
336.2260731401096905
 30
0.0
 40
0.0140397827863132
 50
102.7881036645204063
 51
120.8616446772961979
  0
ARC
  5
35150
  8
0
 10
6523.6789012510798784
 20
336.2354944419968774
 30
0.0
 40
0.0030644697752328
 50
120.8616446772961979
 51
148.5338044849461028
  0
ARC
  5
35151
  8
0
 10
6523.6775893078083755
 20
336.2362973375327897
 30
0.0
 40
0.0015263422158475
 50
148.5338044849189032
 51
229.2845335000342004
  0
ARC
  5
35152
  8
0
 10
6523.6829976102690125
 20
336.242581637055423
 30
0.0
 40
0.0098174311665902
 50
229.2845335000342004
 51
241.1158533130627006
  0
ARC
  5
35153
  8
0
 10
6523.682372718399165
 20
336.2414489067290901
 30
0.0
 40
0.0085237666660742
 50
241.1158533130627006
 51
257.2280356223378135
  0
ARC
  5
35154
  8
0
 10
6523.6895311227326602
 20
336.2651095451423089
 30
0.0
 40
0.0332276502828313
 50
254.2080070177804032
 51
264.6479953140606085
  0
ARC
  5
35155
  8
0
 10
6523.6914981193276617
 20
336.2819312550926156
 30
0.0
 40
0.0501610067647868
 50
264.2032175458920733
 51
269.9390153635073943
  0
ARC
  5
35156
  8
0
 10
6523.6917364815071778
 20
336.1962009676561252
 30
0.0
 40
0.04467177150592
 50
77.2118963354795937
 51
90.2725467619114994
  0
ARC
  5
35157
  8
0
 10
6523.6985167503662524
 20
336.2260731401096905
 30
0.0
 40
0.0140397827863132
 50
59.1383553227038021
 51
77.2118963354795937
  0
ARC
  5
35158
  8
0
 10
6523.7041467207427559
 20
336.2354944419968774
 30
0.0
 40
0.0030644697752328
 50
31.4661955150538297
 51
59.1383553227038021
  0
ARC
  5
35159
  8
0
 10
6523.7054586640142588
 20
336.2362973375327897
 30
0.0
 40
0.0015263422158475
 50
310.7154664999657143
 51
31.4661955150810613
  0
ARC
  5
3515A
  8
0
 10
6523.7000503615536218
 20
336.242581637055423
 30
0.0
 40
0.0098174311665902
 50
298.8841466869371857
 51
310.7154664999657143
  0
ARC
  5
3515B
  8
0
 10
6523.7006752534243788
 20
336.2414489067290901
 30
0.0
 40
0.0085237666660742
 50
282.7719643776621865
 51
298.8841466869355941
  0
ARC
  5
3515C
  8
0
 10
6523.6935168490899741
 20
336.2651095451423089
 30
0.0
 40
0.0332276502828313
 50
275.3520046859392778
 51
285.7919929822195968
  0
ARC
  5
3515D
  8
0
 10
6523.6915475416253685
 20
336.2819618631560274
 30
0.0
 40
0.0501916917154405
 50
269.8826350893572226
 51
275.7958779274060248
  0
ARC
  5
3515E
  8
0
 10
6523.6232492449389611
 20
336.1877176923023853
 30
0.0
 40
0.04467177150592
 50
89.7274532380884864
 51
102.7881036645204063
  0
ARC
  5
3515F
  8
0
 10
6523.6164689760780675
 20
336.2175898647560075
 30
0.0
 40
0.0140397827863132
 50
102.7881036645204063
 51
120.8616446772961979
  0
ARC
  5
35160
  8
0
 10
6523.6108390057006545
 20
336.2270111666433081
 30
0.0
 40
0.0030644697752328
 50
120.8616446772961979
 51
148.5338044849461028
  0
ARC
  5
35161
  8
0
 10
6523.6095270624300611
 20
336.2278140621792204
 30
0.0
 40
0.0015263422158475
 50
148.5338044849189032
 51
229.2845335000342004
  0
ARC
  5
35162
  8
0
 10
6523.6149353648906981
 20
336.2340983617016832
 30
0.0
 40
0.0098174311665902
 50
229.2845335000342004
 51
241.1158533130627006
  0
ARC
  5
35163
  8
0
 10
6523.6143104730208506
 20
336.2329656313755208
 30
0.0
 40
0.0085237666660742
 50
241.1158533130627006
 51
257.2280356223378135
  0
ARC
  5
35164
  8
0
 10
6523.6214688773552552
 20
336.2566262697886827
 30
0.0
 40
0.0332276502828313
 50
254.2080070177804032
 51
264.6479953140606085
  0
ARC
  5
35165
  8
0
 10
6523.6234358739493473
 20
336.2734479797388758
 30
0.0
 40
0.0501610067647868
 50
264.2032175458920733
 51
269.9390153635073943
  0
ARC
  5
35166
  8
0
 10
6523.6236742361279539
 20
336.1877176923023853
 30
0.0
 40
0.04467177150592
 50
77.2118963354795937
 51
90.2725467619114994
  0
ARC
  5
35167
  8
0
 10
6523.6304545049888475
 20
336.2175898647560075
 30
0.0
 40
0.0140397827863132
 50
59.1383553227038021
 51
77.2118963354795937
  0
ARC
  5
35168
  8
0
 10
6523.636084475365351
 20
336.2270111666433081
 30
0.0
 40
0.0030644697752328
 50
31.4661955150538297
 51
59.1383553227038021
  0
ARC
  5
35169
  8
0
 10
6523.6373964186368539
 20
336.2278140621792204
 30
0.0
 40
0.0015263422158475
 50
310.7154664999657143
 51
31.4661955150810613
  0
ARC
  5
3516A
  8
0
 10
6523.6319881161780359
 20
336.2340983617016832
 30
0.0
 40
0.0098174311665902
 50
298.8841466869371857
 51
310.7154664999657143
  0
ARC
  5
3516B
  8
0
 10
6523.6326130080460644
 20
336.2329656313755208
 30
0.0
 40
0.0085237666660742
 50
282.7719643776621865
 51
298.8841466869355941
  0
ARC
  5
3516C
  8
0
 10
6523.6254546037116597
 20
336.2566262697886827
 30
0.0
 40
0.0332276502828313
 50
275.3520046859392778
 51
285.7919929822195968
  0
ARC
  5
3516D
  8
0
 10
6523.6234852962479636
 20
336.2734785878024013
 30
0.0
 40
0.0501916917154405
 50
269.8826350893572226
 51
275.7958779274060248
  0
ARC
  5
3516E
  8
0
 10
6523.5480672856629099
 20
336.1781202114447069
 30
0.0
 40
0.04467177150592
 50
89.7274532380884864
 51
102.7881036645204063
  0
ARC
  5
3516F
  8
0
 10
6523.5412870168029258
 20
336.2079923838983859
 30
0.0
 40
0.0140397827863132
 50
102.7881036645204063
 51
120.8616446772961979
  0
ARC
  5
35170
  8
0
 10
6523.5356570464264223
 20
336.217413685785516
 30
0.0
 40
0.0030644697752328
 50
120.8616446772961979
 51
148.5338044849461028
  0
ARC
  5
35171
  8
0
 10
6523.5343451031549193
 20
336.2182165813214851
 30
0.0
 40
0.0015263422158475
 50
148.5338044849189032
 51
229.2845335000342004
  0
ARC
  5
35172
  8
0
 10
6523.5397534056137374
 20
336.2245008808441185
 30
0.0
 40
0.0098174311665902
 50
229.2845335000342004
 51
241.1158533130627006
  0
ARC
  5
35173
  8
0
 10
6523.5391285137447994
 20
336.2233681505176719
 30
0.0
 40
0.0085237666660742
 50
241.1158533130627006
 51
257.2280356223378135
  0
ARC
  5
35174
  8
0
 10
6523.5462869180801135
 20
336.2470287889308906
 30
0.0
 40
0.0332276502828313
 50
254.2080070177804032
 51
264.6479953140606085
  0
ARC
  5
35175
  8
0
 10
6523.5482539146742056
 20
336.2638504988811974
 30
0.0
 40
0.0501610067647868
 50
264.2032175458920733
 51
269.9390153635073943
  0
ARC
  5
35176
  8
0
 10
6523.5484922768528122
 20
336.1781202114447069
 30
0.0
 40
0.04467177150592
 50
77.2118963354795937
 51
90.2725467619114994
  0
ARC
  5
35177
  8
0
 10
6523.5552725457127963
 20
336.2079923838983859
 30
0.0
 40
0.0140397827863132
 50
59.1383553227038021
 51
77.2118963354795937
  0
ARC
  5
35178
  8
0
 10
6523.5609025160902092
 20
336.217413685785516
 30
0.0
 40
0.0030644697752328
 50
31.4661955150538297
 51
59.1383553227038021
  0
ARC
  5
35179
  8
0
 10
6523.5622144593598932
 20
336.2182165813214851
 30
0.0
 40
0.0015263422158475
 50
310.7154664999657143
 51
31.4661955150810613
  0
ARC
  5
3517A
  8
0
 10
6523.5568061569010752
 20
336.2245008808441185
 30
0.0
 40
0.0098174311665902
 50
298.8841466869371857
 51
310.7154664999657143
  0
ARC
  5
3517B
  8
0
 10
6523.5574310487709226
 20
336.2233681505176719
 30
0.0
 40
0.0085237666660742
 50
282.7719643776621865
 51
298.8841466869355941
  0
ARC
  5
3517C
  8
0
 10
6523.5502726444356085
 20
336.2470287889308906
 30
0.0
 40
0.0332276502828313
 50
275.3520046859392778
 51
285.7919929822195968
  0
ARC
  5
3517D
  8
0
 10
6523.5483033369719124
 20
336.2638811069447229
 30
0.0
 40
0.0501916917154405
 50
269.8826350893572226
 51
275.7958779274060248
  0
ARC
  5
3517E
  8
0
 10
6523.6069075528157555
 20
336.2104328193622109
 30
0.0
 40
0.04467177150592
 50
89.7274532380884864
 51
102.7881036645204063
  0
ARC
  5
3517F
  8
0
 10
6523.6001272839548619
 20
336.2403049918157762
 30
0.0
 40
0.0140397827863132
 50
102.7881036645204063
 51
120.8616446772961979
  0
ARC
  5
35180
  8
0
 10
6523.5944973135783584
 20
336.24972629370302
 30
0.0
 40
0.0030644697752328
 50
120.8616446772961979
 51
148.5338044849461028
  0
ARC
  5
35181
  8
0
 10
6523.593185370307765
 20
336.2505291892388755
 30
0.0
 40
0.0015263422158475
 50
148.5338044849189032
 51
229.2845335000342004
  0
ARC
  5
35182
  8
0
 10
6523.598593672766583
 20
336.2568134887615088
 30
0.0
 40
0.0098174311665902
 50
229.2845335000342004
 51
241.1158533130627006
  0
ARC
  5
35183
  8
0
 10
6523.5979687808985545
 20
336.2556807584351759
 30
0.0
 40
0.0085237666660742
 50
241.1158533130627006
 51
257.2280356223378135
  0
ARC
  5
35184
  8
0
 10
6523.6051271852329592
 20
336.2793413968483947
 30
0.0
 40
0.0332276502828313
 50
254.2080070177804032
 51
264.6479953140606085
  0
ARC
  5
35185
  8
0
 10
6523.6070941818261417
 20
336.2961631067987014
 30
0.0
 40
0.0501610067647868
 50
264.2032175458920733
 51
269.9390153635073943
  0
ARC
  5
35186
  8
0
 10
6523.6073325440056578
 20
336.2104328193622109
 30
0.0
 40
0.04467177150592
 50
77.2118963354795937
 51
90.2725467619114994
  0
ARC
  5
35187
  8
0
 10
6523.6141128128656419
 20
336.2403049918157762
 30
0.0
 40
0.0140397827863132
 50
59.1383553227038021
 51
77.2118963354795937
  0
ARC
  5
35188
  8
0
 10
6523.6197427832430549
 20
336.24972629370302
 30
0.0
 40
0.0030644697752328
 50
31.4661955150538297
 51
59.1383553227038021
  0
ARC
  5
35189
  8
0
 10
6523.6210547265145578
 20
336.2505291892388755
 30
0.0
 40
0.0015263422158475
 50
310.7154664999657143
 51
31.4661955150810613
  0
ARC
  5
3518A
  8
0
 10
6523.6156464240539208
 20
336.2568134887615088
 30
0.0
 40
0.0098174311665902
 50
298.8841466869371857
 51
310.7154664999657143
  0
ARC
  5
3518B
  8
0
 10
6523.6162713159228588
 20
336.2556807584351759
 30
0.0
 40
0.0085237666660742
 50
282.7719643776621865
 51
298.8841466869355941
  0
ARC
  5
3518C
  8
0
 10
6523.6091129115893636
 20
336.2793413968483947
 30
0.0
 40
0.0332276502828313
 50
275.3520046859392778
 51
285.7919929822195968
  0
ARC
  5
3518D
  8
0
 10
6523.6071436041256675
 20
336.2961937148622269
 30
0.0
 40
0.0501916917154405
 50
269.8826350893572226
 51
275.7958779274060248
  0
ARC
  5
3518E
  8
0
 10
6523.5254381004306197
 20
336.210390645756604
 30
0.0
 40
0.04467177150592
 50
89.7274532380884864
 51
102.7881036645204063
  0
ARC
  5
3518F
  8
0
 10
6523.5186578315697261
 20
336.2402628182102262
 30
0.0
 40
0.0140397827863132
 50
102.7881036645204063
 51
120.8616446772961979
  0
ARC
  5
35190
  8
0
 10
6523.5130278611950416
 20
336.2496841200974131
 30
0.0
 40
0.0030644697752328
 50
120.8616446772961979
 51
148.5338044849461028
  0
ARC
  5
35191
  8
0
 10
6523.5117159179226292
 20
336.2504870156333823
 30
0.0
 40
0.0015263422158475
 50
148.5338044849189032
 51
229.2845335000342004
  0
ARC
  5
35192
  8
0
 10
6523.5171242203832662
 20
336.2567713151559019
 30
0.0
 40
0.0098174311665902
 50
229.2845335000342004
 51
241.1158533130627006
  0
ARC
  5
35193
  8
0
 10
6523.5164993285143282
 20
336.2556385848296259
 30
0.0
 40
0.0085237666660742
 50
241.1158533130627006
 51
257.2280356223378135
  0
ARC
  5
35194
  8
0
 10
6523.5236577328478234
 20
336.2792992232427878
 30
0.0
 40
0.0332276502828313
 50
254.2080070177804032
 51
264.6479953140606085
  0
ARC
  5
35195
  8
0
 10
6523.5256247294410059
 20
336.2961209331930945
 30
0.0
 40
0.0501610067647868
 50
264.2032175458920733
 51
269.9390153635073943
  0
ARC
  5
35196
  8
0
 10
6523.525863091622341
 20
336.210390645756604
 30
0.0
 40
0.04467177150592
 50
77.2118963354795937
 51
90.2725467619114994
  0
ARC
  5
35197
  8
0
 10
6523.5326433604814156
 20
336.2402628182102262
 30
0.0
 40
0.0140397827863132
 50
59.1383553227038021
 51
77.2118963354795937
  0
ARC
  5
35198
  8
0
 10
6523.5382733308579191
 20
336.2496841200974131
 30
0.0
 40
0.0030644697752328
 50
31.4661955150538297
 51
59.1383553227038021
  0
ARC
  5
35199
  8
0
 10
6523.539585274129422
 20
336.2504870156333823
 30
0.0
 40
0.0015263422158475
 50
310.7154664999657143
 51
31.4661955150810613
  0
ARC
  5
3519A
  8
0
 10
6523.534176971668785
 20
336.2567713151559019
 30
0.0
 40
0.0098174311665902
 50
298.8841466869371857
 51
310.7154664999657143
  0
ARC
  5
3519B
  8
0
 10
6523.5348018635386325
 20
336.2556385848296259
 30
0.0
 40
0.0085237666660742
 50
282.7719643776621865
 51
298.8841466869355941
  0
ARC
  5
3519C
  8
0
 10
6523.5276434592051373
 20
336.2792992232427878
 30
0.0
 40
0.0332276502828313
 50
275.3520046859392778
 51
285.7919929822195968
  0
ARC
  5
3519D
  8
0
 10
6523.5256741517396222
 20
336.29615154125662
 30
0.0
 40
0.0501916917154405
 50
269.8826350893572226
 51
275.7958779274060248
  0
ARC
  5
3519E
  8
0
 10
6523.6220013445563382
 20
336.2334146023503081
 30
0.0
 40
0.04467177150592
 50
89.7274532380884864
 51
102.7881036645204063
  0
ARC
  5
3519F
  8
0
 10
6523.6152210756972636
 20
336.2632867748039871
 30
0.0
 40
0.0140397827863132
 50
102.7881036645204063
 51
120.8616446772961979
  0
ARC
  5
351A0
  8
0
 10
6523.6095911053180316
 20
336.2727080766911172
 30
0.0
 40
0.0030644697752328
 50
120.8616446772961979
 51
148.5338044849461028
  0
ARC
  5
351A1
  8
0
 10
6523.6082791620492571
 20
336.2735109722270863
 30
0.0
 40
0.0015263422158475
 50
148.5338044849189032
 51
229.2845335000342004
  0
ARC
  5
351A2
  8
0
 10
6523.6136874645080752
 20
336.2797952717496059
 30
0.0
 40
0.0098174311665902
 50
229.2845335000342004
 51
241.1158533130627006
  0
ARC
  5
351A3
  8
0
 10
6523.6130625726391372
 20
336.2786625414233868
 30
0.0
 40
0.0085237666660742
 50
241.1158533130627006
 51
257.2280356223378135
  0
ARC
  5
351A4
  8
0
 10
6523.6202209769717228
 20
336.3023231798366055
 30
0.0
 40
0.0332276502828313
 50
254.2080070177804032
 51
264.6479953140606085
  0
ARC
  5
351A5
  8
0
 10
6523.6221879735676339
 20
336.3191448897867986
 30
0.0
 40
0.0501610067647868
 50
264.2032175458920733
 51
269.9390153635073943
  0
ARC
  5
351A6
  8
0
 10
6523.622426335745331
 20
336.2334146023503081
 30
0.0
 40
0.04467177150592
 50
77.2118963354795937
 51
90.2725467619114994
  0
ARC
  5
351A7
  8
0
 10
6523.6292066046062246
 20
336.2632867748039871
 30
0.0
 40
0.0140397827863132
 50
59.1383553227038021
 51
77.2118963354795937
  0
ARC
  5
351A8
  8
0
 10
6523.6348365749827281
 20
336.2727080766911172
 30
0.0
 40
0.0030644697752328
 50
31.4661955150538297
 51
59.1383553227038021
  0
ARC
  5
351A9
  8
0
 10
6523.636148518254231
 20
336.2735109722270863
 30
0.0
 40
0.0015263422158475
 50
310.7154664999657143
 51
31.4661955150810613
  0
ARC
  5
351AA
  8
0
 10
6523.630740215795413
 20
336.2797952717496059
 30
0.0
 40
0.0098174311665902
 50
298.8841466869371857
 51
310.7154664999657143
  0
ARC
  5
351AB
  8
0
 10
6523.6313651076643509
 20
336.2786625414233868
 30
0.0
 40
0.0085237666660742
 50
282.7719643776621865
 51
298.8841466869355941
  0
ARC
  5
351AC
  8
0
 10
6523.6242067033299463
 20
336.3023231798366055
 30
0.0
 40
0.0332276502828313
 50
275.3520046859392778
 51
285.7919929822195968
  0
ARC
  5
351AD
  8
0
 10
6523.6222373958662502
 20
336.3191754978503241
 30
0.0
 40
0.0501916917154405
 50
269.8826350893572226
 51
275.7958779274060248
  0
ARC
  5
351AE
  8
0
 10
6523.5462908359040739
 20
336.2424059911726886
 30
0.0
 40
0.04467177150592
 50
89.7274532380884864
 51
102.7881036645204063
  0
ARC
  5
351AF
  8
0
 10
6523.5395105670449993
 20
336.2722781636263107
 30
0.0
 40
0.0140397827863132
 50
102.7881036645204063
 51
120.8616446772961979
  0
ARC
  5
351B0
  8
0
 10
6523.5338805966657674
 20
336.2816994655134977
 30
0.0
 40
0.0030644697752328
 50
120.8616446772961979
 51
148.5338044849461028
  0
ARC
  5
351B1
  8
0
 10
6523.5325686533969929
 20
336.28250236104941
 30
0.0
 40
0.0015263422158475
 50
148.5338044849189032
 51
229.2845335000342004
  0
ARC
  5
351B2
  8
0
 10
6523.537976955855811
 20
336.2887866605719864
 30
0.0
 40
0.0098174311665902
 50
229.2845335000342004
 51
241.1158533130627006
  0
ARC
  5
351B3
  8
0
 10
6523.5373520639859635
 20
336.2876539302457104
 30
0.0
 40
0.0085237666660742
 50
241.1158533130627006
 51
257.2280356223378135
  0
ARC
  5
351B4
  8
0
 10
6523.5445104683212776
 20
336.3113145686588723
 30
0.0
 40
0.0332276502828313
 50
254.2080070177804032
 51
264.6479953140606085
  0
ARC
  5
351B5
  8
0
 10
6523.5464774649162791
 20
336.3281362786091222
 30
0.0
 40
0.0501610067647868
 50
264.2032175458920733
 51
269.9390153635073943
  0
ARC
  5
351B6
  8
0
 10
6523.5467158270939763
 20
336.2424059911726886
 30
0.0
 40
0.04467177150592
 50
77.2118963354795937
 51
90.2725467619114994
  0
ARC
  5
351B7
  8
0
 10
6523.5534960959539603
 20
336.2722781636263107
 30
0.0
 40
0.0140397827863132
 50
59.1383553227038021
 51
77.2118963354795937
  0
ARC
  5
351B8
  8
0
 10
6523.5591260663313733
 20
336.2816994655134977
 30
0.0
 40
0.0030644697752328
 50
31.4661955150538297
 51
59.1383553227038021
  0
ARC
  5
351B9
  8
0
 10
6523.5604380096019668
 20
336.28250236104941
 30
0.0
 40
0.0015263422158475
 50
310.7154664999657143
 51
31.4661955150810613
  0
ARC
  5
351BA
  8
0
 10
6523.5550297071431487
 20
336.2887866605719864
 30
0.0
 40
0.0098174311665902
 50
298.8841466869371857
 51
310.7154664999657143
  0
ARC
  5
351BB
  8
0
 10
6523.5556545990111772
 20
336.2876539302457104
 30
0.0
 40
0.0085237666660742
 50
282.7719643776621865
 51
298.8841466869355941
  0
ARC
  5
351BC
  8
0
 10
6523.5484961946776821
 20
336.3113145686588723
 30
0.0
 40
0.0332276502828313
 50
275.3520046859392778
 51
285.7919929822195968
  0
ARC
  5
351BD
  8
0
 10
6523.5465268872130764
 20
336.3281668866727045
 30
0.0
 40
0.0501916917154405
 50
269.8826350893572226
 51
275.7958779274060248
  0
ARC
  5
351BE
  8
0
 10
6523.6073401197972998
 20
336.269646267631515
 30
0.0
 40
0.04467177150592
 50
89.7274532380884864
 51
102.7881036645204063
  0
ARC
  5
351BF
  8
0
 10
6523.6005598509373158
 20
336.2995184400850803
 30
0.0
 40
0.0140397827863132
 50
102.7881036645204063
 51
120.8616446772961979
  0
ARC
  5
351C0
  8
0
 10
6523.5949298805589933
 20
336.3089397419723241
 30
0.0
 40
0.0030644697752328
 50
120.8616446772961979
 51
148.5338044849461028
  0
ARC
  5
351C1
  8
0
 10
6523.5936179372883998
 20
336.3097426375082932
 30
0.0
 40
0.0015263422158475
 50
148.5338044849189032
 51
229.2845335000342004
  0
ARC
  5
351C2
  8
0
 10
6523.5990262397490369
 20
336.3160269370306992
 30
0.0
 40
0.0098174311665902
 50
229.2845335000342004
 51
241.1158533130627006
  0
ARC
  5
351C3
  8
0
 10
6523.5984013478800989
 20
336.31489420670448
 30
0.0
 40
0.0085237666660742
 50
241.1158533130627006
 51
257.2280356223378135
  0
ARC
  5
351C4
  8
0
 10
6523.605559752213594
 20
336.3385548451176987
 30
0.0
 40
0.0332276502828313
 50
254.2080070177804032
 51
264.6479953140606085
  0
ARC
  5
351C5
  8
0
 10
6523.6075267488076861
 20
336.3553765550680055
 30
0.0
 40
0.0501610067647868
 50
264.2032175458920733
 51
269.9390153635073943
  0
ARC
  5
351C6
  8
0
 10
6523.6077651109872022
 20
336.269646267631515
 30
0.0
 40
0.04467177150592
 50
77.2118963354795937
 51
90.2725467619114994
  0
ARC
  5
351C7
  8
0
 10
6523.6145453798471863
 20
336.2995184400850803
 30
0.0
 40
0.0140397827863132
 50
59.1383553227038021
 51
77.2118963354795937
  0
ARC
  5
351C8
  8
0
 10
6523.6201753502236897
 20
336.3089397419723241
 30
0.0
 40
0.0030644697752328
 50
31.4661955150538297
 51
59.1383553227038021
  0
ARC
  5
351C9
  8
0
 10
6523.6214872934951927
 20
336.3097426375082932
 30
0.0
 40
0.0015263422158475
 50
310.7154664999657143
 51
31.4661955150810613
  0
ARC
  5
351CA
  8
0
 10
6523.6160789910363746
 20
336.3160269370306992
 30
0.0
 40
0.0098174311665902
 50
298.8841466869371857
 51
310.7154664999657143
  0
ARC
  5
351CB
  8
0
 10
6523.6167038829053126
 20
336.31489420670448
 30
0.0
 40
0.0085237666660742
 50
282.7719643776621865
 51
298.8841466869355941
  0
ARC
  5
351CC
  8
0
 10
6523.609545478570908
 20
336.3385548451176987
 30
0.0
 40
0.0332276502828313
 50
275.3520046859392778
 51
285.7919929822195968
  0
ARC
  5
351CD
  8
0
 10
6523.6075761711063024
 20
336.3554071631314173
 30
0.0
 40
0.0501916917154405
 50
269.8826350893572226
 51
275.7958779274060248
  0
ARC
  5
351CE
  8
0
 10
6523.6656393874336572
 20
336.2529350276067817
 30
0.0
 40
0.04467177150592
 50
89.7274532380884864
 51
102.7881036645204063
  0
ARC
  5
351CF
  8
0
 10
6523.6588591185727637
 20
336.2828072000604038
 30
0.0
 40
0.0140397827863132
 50
102.7881036645204063
 51
120.8616446772961979
  0
ARC
  5
351D0
  8
0
 10
6523.6532291481962602
 20
336.2922285019474771
 30
0.0
 40
0.0030644697752328
 50
120.8616446772961979
 51
148.5338044849461028
  0
ARC
  5
351D1
  8
0
 10
6523.6519172049256667
 20
336.293031397483503
 30
0.0
 40
0.0015263422158475
 50
148.5338044849189032
 51
229.2845335000342004
  0
ARC
  5
351D2
  8
0
 10
6523.6573255073853943
 20
336.2993156970060795
 30
0.0
 40
0.0098174311665902
 50
229.2845335000342004
 51
241.1158533130627006
  0
ARC
  5
351D3
  8
0
 10
6523.6567006155173658
 20
336.2981829666796898
 30
0.0
 40
0.0085237666660742
 50
241.1158533130627006
 51
257.2280356223378135
  0
ARC
  5
351D4
  8
0
 10
6523.6638590198490419
 20
336.3218436050930222
 30
0.0
 40
0.0332276502828313
 50
254.2080070177804032
 51
264.6479953140606085
  0
ARC
  5
351D5
  8
0
 10
6523.6658260164440435
 20
336.3386653150432153
 30
0.0
 40
0.0501610067647868
 50
264.2032175458920733
 51
269.9390153635073943
  0
ARC
  5
351D6
  8
0
 10
6523.6660643786226501
 20
336.2529350276067817
 30
0.0
 40
0.04467177150592
 50
77.2118963354795937
 51
90.2725467619114994
  0
ARC
  5
351D7
  8
0
 10
6523.6728446474844532
 20
336.2828072000604038
 30
0.0
 40
0.0140397827863132
 50
59.1383553227038021
 51
77.2118963354795937
  0
ARC
  5
351D8
  8
0
 10
6523.6784746178609566
 20
336.2922285019474771
 30
0.0
 40
0.0030644697752328
 50
31.4661955150538297
 51
59.1383553227038021
  0
ARC
  5
351D9
  8
0
 10
6523.6797865611315501
 20
336.293031397483503
 30
0.0
 40
0.0015263422158475
 50
310.7154664999657143
 51
31.4661955150810613
  0
ARC
  5
351DA
  8
0
 10
6523.6743782586718226
 20
336.2993156970060795
 30
0.0
 40
0.0098174311665902
 50
298.8841466869371857
 51
310.7154664999657143
  0
ARC
  5
351DB
  8
0
 10
6523.6750031505407605
 20
336.2981829666796898
 30
0.0
 40
0.0085237666660742
 50
282.7719643776621865
 51
298.8841466869355941
  0
ARC
  5
351DC
  8
0
 10
6523.6678447462063559
 20
336.3218436050930222
 30
0.0
 40
0.0332276502828313
 50
275.3520046859392778
 51
285.7919929822195968
  0
ARC
  5
351DD
  8
0
 10
6523.6658754387426598
 20
336.3386959231067976
 30
0.0
 40
0.0501916917154405
 50
269.8826350893572226
 51
275.7958779274060248
  0
ARC
  5
351DE
  8
0
 10
6523.7311534036016383
 20
336.2659196870549749
 30
0.0
 40
0.04467177150592
 50
89.7274532380884864
 51
102.7881036645204063
  0
ARC
  5
351DF
  8
0
 10
6523.7243731347416542
 20
336.2957918595085971
 30
0.0
 40
0.0140397827863132
 50
102.7881036645204063
 51
120.8616446772961979
  0
ARC
  5
351E0
  8
0
 10
6523.7187431643651507
 20
336.305213161395784
 30
0.0
 40
0.0030644697752328
 50
120.8616446772961979
 51
148.5338044849461028
  0
ARC
  5
351E1
  8
0
 10
6523.7174312210927383
 20
336.30601605693181
 30
0.0
 40
0.0015263422158475
 50
148.5338044849189032
 51
229.2845335000342004
  0
ARC
  5
351E2
  8
0
 10
6523.7228395235542848
 20
336.3123003564542728
 30
0.0
 40
0.0098174311665902
 50
229.2845335000342004
 51
241.1158533130627006
  0
ARC
  5
351E3
  8
0
 10
6523.7222146316862563
 20
336.3111676261279968
 30
0.0
 40
0.0085237666660742
 50
241.1158533130627006
 51
257.2280356223378135
  0
ARC
  5
351E4
  8
0
 10
6523.729373036018842
 20
336.3348282645412723
 30
0.0
 40
0.0332276502828313
 50
254.2080070177804032
 51
264.6479953140606085
  0
ARC
  5
351E5
  8
0
 10
6523.731340032612934
 20
336.3516499744914086
 30
0.0
 40
0.0501610067647868
 50
264.2032175458920733
 51
269.9390153635073943
  0
ARC
  5
351E6
  8
0
 10
6523.7315783947924501
 20
336.2659196870549749
 30
0.0
 40
0.04467177150592
 50
77.2118963354795937
 51
90.2725467619114994
  0
ARC
  5
351E7
  8
0
 10
6523.7383586636533437
 20
336.2957918595085971
 30
0.0
 40
0.0140397827863132
 50
59.1383553227038021
 51
77.2118963354795937
  0
ARC
  5
351E8
  8
0
 10
6523.7439886340298472
 20
336.305213161395784
 30
0.0
 40
0.0030644697752328
 50
31.4661955150538297
 51
59.1383553227038021
  0
ARC
  5
351E9
  8
0
 10
6523.7453005773004406
 20
336.30601605693181
 30
0.0
 40
0.0015263422158475
 50
310.7154664999657143
 51
31.4661955150810613
  0
ARC
  5
351EA
  8
0
 10
6523.7398922748388941
 20
336.3123003564542728
 30
0.0
 40
0.0098174311665902
 50
298.8841466869371857
 51
310.7154664999657143
  0
ARC
  5
351EB
  8
0
 10
6523.7405171667087416
 20
336.3111676261279968
 30
0.0
 40
0.0085237666660742
 50
282.7719643776621865
 51
298.8841466869355941
  0
ARC
  5
351EC
  8
0
 10
6523.7333587623752464
 20
336.3348282645412723
 30
0.0
 40
0.0332276502828313
 50
275.3520046859392778
 51
285.7919929822195968
  0
ARC
  5
351ED
  8
0
 10
6523.7313894549115503
 20
336.3516805825549909
 30
0.0
 40
0.0501916917154405
 50
269.8826350893572226
 51
275.7958779274060248
  0
ARC
  5
351EE
  8
0
 10
6523.6992307703103506
 20
336.2880340108405903
 30
0.0
 40
0.04467177150592
 50
89.7274532380884864
 51
102.7881036645204063
  0
ARC
  5
351EF
  8
0
 10
6523.6924505014485476
 20
336.3179061832943262
 30
0.0
 40
0.0140397827863132
 50
102.7881036645204063
 51
120.8616446772961979
  0
ARC
  5
351F0
  8
0
 10
6523.6868205310720441
 20
336.3273274851813994
 30
0.0
 40
0.0030644697752328
 50
120.8616446772961979
 51
148.5338044849461028
  0
ARC
  5
351F1
  8
0
 10
6523.6855085878023601
 20
336.3281303807174254
 30
0.0
 40
0.0015263422158475
 50
148.5338044849189032
 51
229.2845335000342004
  0
ARC
  5
351F2
  8
0
 10
6523.6909168902629972
 20
336.3344146802400019
 30
0.0
 40
0.0098174311665902
 50
229.2845335000342004
 51
241.1158533130627006
  0
ARC
  5
351F3
  8
0
 10
6523.6902919983931497
 20
336.3332819499136122
 30
0.0
 40
0.0085237666660742
 50
241.1158533130627006
 51
257.2280356223378135
  0
ARC
  5
351F4
  8
0
 10
6523.6974504027266448
 20
336.3569425883268877
 30
0.0
 40
0.0332276502828313
 50
254.2080070177804032
 51
264.6479953140606085
  0
ARC
  5
351F5
  8
0
 10
6523.6994173993207369
 20
336.3737642982770808
 30
0.0
 40
0.0501610067647868
 50
264.2032175458920733
 51
269.9390153635073943
  0
ARC
  5
351F6
  8
0
 10
6523.699655761500253
 20
336.2880340108405903
 30
0.0
 40
0.04467177150592
 50
77.2118963354795937
 51
90.2725467619114994
  0
ARC
  5
351F7
  8
0
 10
6523.7064360303602371
 20
336.3179061832943262
 30
0.0
 40
0.0140397827863132
 50
59.1383553227038021
 51
77.2118963354795937
  0
ARC
  5
351F8
  8
0
 10
6523.7120660007367405
 20
336.3273274851813994
 30
0.0
 40
0.0030644697752328
 50
31.4661955150538297
 51
59.1383553227038021
  0
ARC
  5
351F9
  8
0
 10
6523.713377944009153
 20
336.3281303807174254
 30
0.0
 40
0.0015263422158475
 50
310.7154664999657143
 51
31.4661955150810613
  0
ARC
  5
351FA
  8
0
 10
6523.7079696415494254
 20
336.3344146802400019
 30
0.0
 40
0.0098174311665902
 50
298.8841466869371857
 51
310.7154664999657143
  0
ARC
  5
351FB
  8
0
 10
6523.7085945334174539
 20
336.3332819499136122
 30
0.0
 40
0.0085237666660742
 50
282.7719643776621865
 51
298.8841466869355941
  0
ARC
  5
351FC
  8
0
 10
6523.7014361290830493
 20
336.3569425883268877
 30
0.0
 40
0.0332276502828313
 50
275.3520046859392778
 51
285.7919929822195968
  0
ARC
  5
351FD
  8
0
 10
6523.6994668216202626
 20
336.3737949063406063
 30
0.0
 40
0.0501916917154405
 50
269.8826350893572226
 51
275.7958779274060248
  0
ARC
  5
351FE
  8
0
 10
6523.8912985205997757
 20
336.1559007930273992
 30
0.0
 40
0.04467177150592
 50
77.2118963354795937
 51
90.2725467619114994
  0
ARC
  5
351FF
  8
0
 10
6523.8980787894606692
 20
336.1857729654810782
 30
0.0
 40
0.0140397827863132
 50
59.1383553227038021
 51
77.2118963354795937
  0
ARC
  5
35200
  8
0
 10
6523.9037087598362632
 20
336.1951942673682083
 30
0.0
 40
0.0030644697752328
 50
31.4661955150538297
 51
59.1383553227038021
  0
ARC
  5
35201
  8
0
 10
6523.9050207031077662
 20
336.1959971629041775
 30
0.0
 40
0.0015263422158475
 50
310.7154664999657143
 51
31.4661955150810613
  0
ARC
  5
35202
  8
0
 10
6523.8996124006471291
 20
336.2022814624268108
 30
0.0
 40
0.0098174311665902
 50
298.8841466869371857
 51
310.7154664999657143
  0
ARC
  5
35203
  8
0
 10
6523.9002372925169766
 20
336.2011487321004211
 30
0.0
 40
0.0085237666660742
 50
282.7719643776621865
 51
298.8841466869355941
  0
ARC
  5
35204
  8
0
 10
6523.893078888182572
 20
336.2248093705136966
 30
0.0
 40
0.0332276502828313
 50
275.3520046859392778
 51
285.7919929822195968
  0
ARC
  5
35205
  8
0
 10
6523.8911118915875704
 20
336.2416310804638897
 30
0.0
 40
0.0501610067647868
 50
270.0609846364926057
 51
275.7967824541079267
  0
ARC
  5
35206
  8
0
 10
6523.8908735294098733
 20
336.1559007930273992
 30
0.0
 40
0.04467177150592
 50
89.7274532380884864
 51
102.7881036645204063
  0
ARC
  5
35207
  8
0
 10
6523.8840932605480702
 20
336.1857729654810782
 30
0.0
 40
0.0140397827863132
 50
102.7881036645204063
 51
120.8616446772961979
  0
ARC
  5
35208
  8
0
 10
6523.8784632901733858
 20
336.1951942673682083
 30
0.0
 40
0.0030644697752328
 50
120.8616446772961979
 51
148.5338044849461028
  0
ARC
  5
35209
  8
0
 10
6523.8771513469000638
 20
336.1959971629041775
 30
0.0
 40
0.0015263422158475
 50
148.5338044849189032
 51
229.2845335000342004
  0
ARC
  5
3520A
  8
0
 10
6523.8825596493607009
 20
336.2022814624268108
 30
0.0
 40
0.0098174311665902
 50
229.2845335000342004
 51
241.1158533130627006
  0
ARC
  5
3520B
  8
0
 10
6523.8819347574926724
 20
336.2011487321004211
 30
0.0
 40
0.0085237666660742
 50
241.1158533130627006
 51
257.2280356223378135
  0
ARC
  5
3520C
  8
0
 10
6523.8890931618261675
 20
336.2248093705136966
 30
0.0
 40
0.0332276502828313
 50
254.2080070177804032
 51
264.6479953140606085
  0
ARC
  5
3520D
  8
0
 10
6523.8910624692898637
 20
336.2416616885274152
 30
0.0
 40
0.0501916917154405
 50
264.2041220725939183
 51
270.1173649106427774
  0
ARC
  5
3520E
  8
0
 10
6523.9230285303228811
 20
336.1341260030583271
 30
0.0
 40
0.04467177150592
 50
77.2118963354795937
 51
90.2725467619114994
  0
ARC
  5
3520F
  8
0
 10
6523.9298087991837747
 20
336.1639981755120061
 30
0.0
 40
0.0140397827863132
 50
59.1383553227038021
 51
77.2118963354795937
  0
ARC
  5
35210
  8
0
 10
6523.9354387695611877
 20
336.1734194773990794
 30
0.0
 40
0.0030644697752328
 50
31.4661955150538297
 51
59.1383553227038021
  0
ARC
  5
35211
  8
0
 10
6523.9367507128317811
 20
336.1742223729351053
 30
0.0
 40
0.0015263422158475
 50
310.7154664999657143
 51
31.4661955150810613
  0
ARC
  5
35212
  8
0
 10
6523.9313424103729631
 20
336.180506672457625
 30
0.0
 40
0.0098174311665902
 50
298.8841466869371857
 51
310.7154664999657143
  0
ARC
  5
35213
  8
0
 10
6523.9319673022409916
 20
336.1793739421312921
 30
0.0
 40
0.0085237666660742
 50
282.7719643776621865
 51
298.8841466869355941
  0
ARC
  5
35214
  8
0
 10
6523.9248088979084059
 20
336.2030345805445108
 30
0.0
 40
0.0332276502828313
 50
275.3520046859392778
 51
285.7919929822195968
  0
ARC
  5
35215
  8
0
 10
6523.9228419013134044
 20
336.2198562904948176
 30
0.0
 40
0.0501610067647868
 50
270.0609846364926057
 51
275.7967824541079267
  0
ARC
  5
35216
  8
0
 10
6523.9226035391338883
 20
336.1341260030583271
 30
0.0
 40
0.04467177150592
 50
89.7274532380884864
 51
102.7881036645204063
  0
ARC
  5
35217
  8
0
 10
6523.9158232702729947
 20
336.1639981755120061
 30
0.0
 40
0.0140397827863132
 50
102.7881036645204063
 51
120.8616446772961979
  0
ARC
  5
35218
  8
0
 10
6523.9101932998974007
 20
336.1734194773990794
 30
0.0
 40
0.0030644697752328
 50
120.8616446772961979
 51
148.5338044849461028
  0
ARC
  5
35219
  8
0
 10
6523.9088813566249883
 20
336.1742223729351053
 30
0.0
 40
0.0015263422158475
 50
148.5338044849189032
 51
229.2845335000342004
  0
ARC
  5
3521A
  8
0
 10
6523.9142896590856253
 20
336.180506672457625
 30
0.0
 40
0.0098174311665902
 50
229.2845335000342004
 51
241.1158533130627006
  0
ARC
  5
3521B
  8
0
 10
6523.9136647672175968
 20
336.1793739421312921
 30
0.0
 40
0.0085237666660742
 50
241.1158533130627006
 51
257.2280356223378135
  0
ARC
  5
3521C
  8
0
 10
6523.9208231715501825
 20
336.2030345805445108
 30
0.0
 40
0.0332276502828313
 50
254.2080070177804032
 51
264.6479953140606085
  0
ARC
  5
3521D
  8
0
 10
6523.9227924790138786
 20
336.2198868985581726
 30
0.0
 40
0.0501916917154405
 50
264.2041220725939183
 51
270.1173649106427774
  0
ARC
  5
3521E
  8
0
 10
6523.9566981265243157
 20
336.1692085990637224
 30
0.0
 40
0.04467177150592
 50
77.2118963354795937
 51
90.2725467619114994
  0
ARC
  5
3521F
  8
0
 10
6523.9634783953833903
 20
336.1990807715174014
 30
0.0
 40
0.0140397827863132
 50
59.1383553227038021
 51
77.2118963354795937
  0
ARC
  5
35220
  8
0
 10
6523.9691083657598938
 20
336.2085020734045884
 30
0.0
 40
0.0030644697752328
 50
31.4661955150538297
 51
59.1383553227038021
  0
ARC
  5
35221
  8
0
 10
6523.9704203090313968
 20
336.2093049689405007
 30
0.0
 40
0.0015263422158475
 50
310.7154664999657143
 51
31.4661955150810613
  0
ARC
  5
35222
  8
0
 10
6523.9650120065716692
 20
336.2155892684630203
 30
0.0
 40
0.0098174311665902
 50
298.8841466869371857
 51
310.7154664999657143
  0
ARC
  5
35223
  8
0
 10
6523.9656368984406072
 20
336.2144565381366874
 30
0.0
 40
0.0085237666660742
 50
282.7719643776621865
 51
298.8841466869355941
  0
ARC
  5
35224
  8
0
 10
6523.9584784941071121
 20
336.2381171765500198
 30
0.0
 40
0.0332276502828313
 50
275.3520046859392778
 51
285.7919929822195968
  0
ARC
  5
35225
  8
0
 10
6523.9565114975121105
 20
336.2549388865002129
 30
0.0
 40
0.0501610067647868
 50
270.0609846364926057
 51
275.7967824541079267
  0
ARC
  5
35226
  8
0
 10
6523.9562731353325944
 20
336.1692085990637224
 30
0.0
 40
0.04467177150592
 50
89.7274532380884864
 51
102.7881036645204063
  0
ARC
  5
35227
  8
0
 10
6523.9494928664744293
 20
336.1990807715174014
 30
0.0
 40
0.0140397827863132
 50
102.7881036645204063
 51
120.8616446772961979
  0
ARC
  5
35228
  8
0
 10
6523.9438628960961069
 20
336.2085020734045884
 30
0.0
 40
0.0030644697752328
 50
120.8616446772961979
 51
148.5338044849461028
  0
ARC
  5
35229
  8
0
 10
6523.9425509528264229
 20
336.2093049689405007
 30
0.0
 40
0.0015263422158475
 50
148.5338044849189032
 51
229.2845335000342004
  0
ARC
  5
3522A
  8
0
 10
6523.9479592552852409
 20
336.2155892684630203
 30
0.0
 40
0.0098174311665902
 50
229.2845335000342004
 51
241.1158533130627006
  0
ARC
  5
3522B
  8
0
 10
6523.9473343634163029
 20
336.2144565381366874
 30
0.0
 40
0.0085237666660742
 50
241.1158533130627006
 51
257.2280356223378135
  0
ARC
  5
3522C
  8
0
 10
6523.9544927677488886
 20
336.2381171765500198
 30
0.0
 40
0.0332276502828313
 50
254.2080070177804032
 51
264.6479953140606085
  0
ARC
  5
3522D
  8
0
 10
6523.9564620752153132
 20
336.2549694945636816
 30
0.0
 40
0.0501916917154405
 50
264.2041220725939183
 51
270.1173649106427774
  0
ARC
  5
3522E
  8
0
 10
6524.0153428317089492
 20
336.1525505950129968
 30
0.0
 40
0.04467177150592
 50
77.2118963354795937
 51
90.2725467619114994
  0
ARC
  5
3522F
  8
0
 10
6524.0221231005680238
 20
336.1824227674666759
 30
0.0
 40
0.0140397827863132
 50
59.1383553227038021
 51
77.2118963354795937
  0
ARC
  5
35230
  8
0
 10
6524.0277530709454368
 20
336.1918440693539196
 30
0.0
 40
0.0030644697752328
 50
31.4661955150538297
 51
59.1383553227038021
  0
ARC
  5
35231
  8
0
 10
6524.0290650142151208
 20
336.1926469648897751
 30
0.0
 40
0.0015263422158475
 50
310.7154664999657143
 51
31.4661955150810613
  0
ARC
  5
35232
  8
0
 10
6524.0236567117563027
 20
336.1989312644122947
 30
0.0
 40
0.0098174311665902
 50
298.8841466869371857
 51
310.7154664999657143
  0
ARC
  5
35233
  8
0
 10
6524.0242816036261502
 20
336.1977985340860755
 30
0.0
 40
0.0085237666660742
 50
282.7719643776621865
 51
298.8841466869355941
  0
ARC
  5
35234
  8
0
 10
6524.0171231992917455
 20
336.2214591724992943
 30
0.0
 40
0.0332276502828313
 50
275.3520046859392778
 51
285.7919929822195968
  0
ARC
  5
35235
  8
0
 10
6524.015156202696744
 20
336.238280882449601
 30
0.0
 40
0.0501610067647868
 50
270.0609846364926057
 51
275.7967824541079267
  0
ARC
  5
35236
  8
0
 10
6524.0149178405172279
 20
336.1525505950129968
 30
0.0
 40
0.04467177150592
 50
89.7274532380884864
 51
102.7881036645204063
  0
ARC
  5
35237
  8
0
 10
6524.0081375716572438
 20
336.1824227674666759
 30
0.0
 40
0.0140397827863132
 50
102.7881036645204063
 51
120.8616446772961979
  0
ARC
  5
35238
  8
0
 10
6524.0025076012807403
 20
336.1918440693539196
 30
0.0
 40
0.0030644697752328
 50
120.8616446772961979
 51
148.5338044849461028
  0
ARC
  5
35239
  8
0
 10
6524.0011956580092374
 20
336.1926469648897751
 30
0.0
 40
0.0015263422158475
 50
148.5338044849189032
 51
229.2845335000342004
  0
ARC
  5
3523A
  8
0
 10
6524.0066039604698744
 20
336.1989312644122947
 30
0.0
 40
0.0098174311665902
 50
229.2845335000342004
 51
241.1158533130627006
  0
ARC
  5
3523B
  8
0
 10
6524.0059790686009364
 20
336.1977985340860755
 30
0.0
 40
0.0085237666660742
 50
241.1158533130627006
 51
257.2280356223378135
  0
ARC
  5
3523C
  8
0
 10
6524.0131374729344316
 20
336.2214591724992943
 30
0.0
 40
0.0332276502828313
 50
254.2080070177804032
 51
264.6479953140606085
  0
ARC
  5
3523D
  8
0
 10
6524.0151067803981277
 20
336.2383114905130128
 30
0.0
 40
0.0501916917154405
 50
264.2041220725939183
 51
270.1173649106427774
  0
ARC
  5
3523E
  8
0
 10
6523.8624757813540782
 20
336.1760393327650718
 30
0.0
 40
0.04467177150592
 50
77.2118963354795937
 51
90.2725467619114994
  0
ARC
  5
3523F
  8
0
 10
6523.8692560502149718
 20
336.2059115052186939
 30
0.0
 40
0.0140397827863132
 50
59.1383553227038021
 51
77.2118963354795937
  0
ARC
  5
35240
  8
0
 10
6523.8748860205896563
 20
336.215332807105824
 30
0.0
 40
0.0030644697752328
 50
31.4661955150538297
 51
59.1383553227038021
  0
ARC
  5
35241
  8
0
 10
6523.8761979638620687
 20
336.2161357026417932
 30
0.0
 40
0.0015263422158475
 50
310.7154664999657143
 51
31.4661955150810613
  0
ARC
  5
35242
  8
0
 10
6523.8707896614014317
 20
336.2224200021644265
 30
0.0
 40
0.0098174311665902
 50
298.8841466869371857
 51
310.7154664999657143
  0
ARC
  5
35243
  8
0
 10
6523.8714145532712791
 20
336.2212872718380936
 30
0.0
 40
0.0085237666660742
 50
282.7719643776621865
 51
298.8841466869355941
  0
ARC
  5
35244
  8
0
 10
6523.8642561489368745
 20
336.2449479102513124
 30
0.0
 40
0.0332276502828313
 50
275.3520046859392778
 51
285.7919929822195968
  0
ARC
  5
35245
  8
0
 10
6523.862289152343692
 20
336.2617696202015054
 30
0.0
 40
0.0501610067647868
 50
270.0609846364926057
 51
275.7967824541079267
  0
ARC
  5
35246
  8
0
 10
6523.8620507901632664
 20
336.1760393327650718
 30
0.0
 40
0.04467177150592
 50
89.7274532380884864
 51
102.7881036645204063
  0
ARC
  5
35247
  8
0
 10
6523.8552705213041918
 20
336.2059115052186939
 30
0.0
 40
0.0140397827863132
 50
102.7881036645204063
 51
120.8616446772961979
  0
ARC
  5
35248
  8
0
 10
6523.8496405509267788
 20
336.215332807105824
 30
0.0
 40
0.0030644697752328
 50
120.8616446772961979
 51
148.5338044849461028
  0
ARC
  5
35249
  8
0
 10
6523.8483286076552758
 20
336.2161357026417932
 30
0.0
 40
0.0015263422158475
 50
148.5338044849189032
 51
229.2845335000342004
  0
ARC
  5
3524A
  8
0
 10
6523.8537369101150034
 20
336.2224200021644265
 30
0.0
 40
0.0098174311665902
 50
229.2845335000342004
 51
241.1158533130627006
  0
ARC
  5
3524B
  8
0
 10
6523.8531120182460654
 20
336.2212872718380936
 30
0.0
 40
0.0085237666660742
 50
241.1158533130627006
 51
257.2280356223378135
  0
ARC
  5
3524C
  8
0
 10
6523.8602704225795605
 20
336.2449479102513124
 30
0.0
 40
0.0332276502828313
 50
254.2080070177804032
 51
264.6479953140606085
  0
ARC
  5
3524D
  8
0
 10
6523.8622397300441662
 20
336.2618002282649741
 30
0.0
 40
0.0501916917154405
 50
264.2041220725939183
 51
270.1173649106427774
  0
ARC
  5
3524E
  8
0
 10
6523.9041431473960984
 20
336.1844894355896827
 30
0.0
 40
0.04467177150592
 50
77.2118963354795937
 51
90.2725467619114994
  0
ARC
  5
3524F
  8
0
 10
6523.9109234162560824
 20
336.2143616080434185
 30
0.0
 40
0.0140397827863132
 50
59.1383553227038021
 51
77.2118963354795937
  0
ARC
  5
35250
  8
0
 10
6523.9165533866344049
 20
336.2237829099306055
 30
0.0
 40
0.0030644697752328
 50
31.4661955150538297
 51
59.1383553227038021
  0
ARC
  5
35251
  8
0
 10
6523.9178653299031794
 20
336.2245858054665177
 30
0.0
 40
0.0015263422158475
 50
310.7154664999657143
 51
31.4661955150810613
  0
ARC
  5
35252
  8
0
 10
6523.9124570274443613
 20
336.2308701049890942
 30
0.0
 40
0.0098174311665902
 50
298.8841466869371857
 51
310.7154664999657143
  0
ARC
  5
35253
  8
0
 10
6523.9130819193142088
 20
336.2297373746628182
 30
0.0
 40
0.0085237666660742
 50
282.7719643776621865
 51
298.8841466869355941
  0
ARC
  5
35254
  8
0
 10
6523.9059235149798042
 20
336.2533980130759801
 30
0.0
 40
0.0332276502828313
 50
275.3520046859392778
 51
285.7919929822195968
  0
ARC
  5
35255
  8
0
 10
6523.9039565183848026
 20
336.2702197230261731
 30
0.0
 40
0.0501610067647868
 50
270.0609846364926057
 51
275.7967824541079267
  0
ARC
  5
35256
  8
0
 10
6523.9037181562071055
 20
336.1844894355896827
 30
0.0
 40
0.04467177150592
 50
89.7274532380884864
 51
102.7881036645204063
  0
ARC
  5
35257
  8
0
 10
6523.8969378873471214
 20
336.2143616080434185
 30
0.0
 40
0.0140397827863132
 50
102.7881036645204063
 51
120.8616446772961979
  0
ARC
  5
35258
  8
0
 10
6523.891307916968799
 20
336.2237829099306055
 30
0.0
 40
0.0030644697752328
 50
120.8616446772961979
 51
148.5338044849461028
  0
ARC
  5
35259
  8
0
 10
6523.8899959736982055
 20
336.2245858054665177
 30
0.0
 40
0.0015263422158475
 50
148.5338044849189032
 51
229.2845335000342004
  0
ARC
  5
3525A
  8
0
 10
6523.8954042761570236
 20
336.2308701049890942
 30
0.0
 40
0.0098174311665902
 50
229.2845335000342004
 51
241.1158533130627006
  0
ARC
  5
3525B
  8
0
 10
6523.8947793842889951
 20
336.2297373746628182
 30
0.0
 40
0.0085237666660742
 50
241.1158533130627006
 51
257.2280356223378135
  0
ARC
  5
3525C
  8
0
 10
6523.9019377886215807
 20
336.2533980130759801
 30
0.0
 40
0.0332276502828313
 50
254.2080070177804032
 51
264.6479953140606085
  0
ARC
  5
3525D
  8
0
 10
6523.9039070960870959
 20
336.2702503310896986
 30
0.0
 40
0.0501916917154405
 50
264.2041220725939183
 51
270.1173649106427774
  0
ARC
  5
3525E
  8
0
 10
6523.858335850532967
 20
336.1976337218525259
 30
0.0
 40
0.04467177150592
 50
77.2118963354795937
 51
90.2725467619114994
  0
ARC
  5
3525F
  8
0
 10
6523.8651161193938606
 20
336.2275058943060912
 30
0.0
 40
0.0140397827863132
 50
59.1383553227038021
 51
77.2118963354795937
  0
ARC
  5
35260
  8
0
 10
6523.8707460897712735
 20
336.2369271961932782
 30
0.0
 40
0.0030644697752328
 50
31.4661955150538297
 51
59.1383553227038021
  0
ARC
  5
35261
  8
0
 10
6523.872058033041867
 20
336.2377300917291905
 30
0.0
 40
0.0015263422158475
 50
310.7154664999657143
 51
31.4661955150810613
  0
ARC
  5
35262
  8
0
 10
6523.8666497305830489
 20
336.2440143912518238
 30
0.0
 40
0.0098174311665902
 50
298.8841466869371857
 51
310.7154664999657143
  0
ARC
  5
35263
  8
0
 10
6523.8672746224510774
 20
336.2428816609254909
 30
0.0
 40
0.0085237666660742
 50
282.7719643776621865
 51
298.8841466869355941
  0
ARC
  5
35264
  8
0
 10
6523.8601162181175823
 20
336.2665422993388233
 30
0.0
 40
0.0332276502828313
 50
275.3520046859392778
 51
285.7919929822195968
  0
ARC
  5
35265
  8
0
 10
6523.8581492215225808
 20
336.2833640092889027
 30
0.0
 40
0.0501610067647868
 50
270.0609846364926057
 51
275.7967824541079267
  0
ARC
  5
35266
  8
0
 10
6523.8579108593439742
 20
336.1976337218525259
 30
0.0
 40
0.04467177150592
 50
89.7274532380884864
 51
102.7881036645204063
  0
ARC
  5
35267
  8
0
 10
6523.8511305904830806
 20
336.2275058943060912
 30
0.0
 40
0.0140397827863132
 50
102.7881036645204063
 51
120.8616446772961979
  0
ARC
  5
35268
  8
0
 10
6523.8455006201056676
 20
336.2369271961932782
 30
0.0
 40
0.0030644697752328
 50
120.8616446772961979
 51
148.5338044849461028
  0
ARC
  5
35269
  8
0
 10
6523.8441886768359836
 20
336.2377300917291905
 30
0.0
 40
0.0015263422158475
 50
148.5338044849189032
 51
229.2845335000342004
  0
ARC
  5
3526A
  8
0
 10
6523.8495969792957112
 20
336.2440143912518238
 30
0.0
 40
0.0098174311665902
 50
229.2845335000342004
 51
241.1158533130627006
  0
ARC
  5
3526B
  8
0
 10
6523.8489720874267732
 20
336.2428816609254909
 30
0.0
 40
0.0085237666660742
 50
241.1158533130627006
 51
257.2280356223378135
  0
ARC
  5
3526C
  8
0
 10
6523.8561304917611778
 20
336.2665422993388233
 30
0.0
 40
0.0332276502828313
 50
254.2080070177804032
 51
264.6479953140606085
  0
ARC
  5
3526D
  8
0
 10
6523.8580997992239645
 20
336.2833946173524851
 30
0.0
 40
0.0501916917154405
 50
264.2041220725939183
 51
270.1173649106427774
  0
ARC
  5
3526E
  8
0
 10
6523.8774913225997807
 20
336.2111537456407859
 30
0.0
 40
0.04467177150592
 50
77.2118963354795937
 51
90.2725467619114994
  0
ARC
  5
3526F
  8
0
 10
6523.8842715914597647
 20
336.2410259180944081
 30
0.0
 40
0.0140397827863132
 50
59.1383553227038021
 51
77.2118963354795937
  0
ARC
  5
35270
  8
0
 10
6523.8899015618371777
 20
336.250447219981595
 30
0.0
 40
0.0030644697752328
 50
31.4661955150538297
 51
59.1383553227038021
  0
ARC
  5
35271
  8
0
 10
6523.8912135051077712
 20
336.251250115517621
 30
0.0
 40
0.0015263422158475
 50
310.7154664999657143
 51
31.4661955150810613
  0
ARC
  5
35272
  8
0
 10
6523.8858052026489531
 20
336.2575344150400838
 30
0.0
 40
0.0098174311665902
 50
298.8841466869371857
 51
310.7154664999657143
  0
ARC
  5
35273
  8
0
 10
6523.8864300945169816
 20
336.2564016847138078
 30
0.0
 40
0.0085237666660742
 50
282.7719643776621865
 51
298.8841466869355941
  0
ARC
  5
35274
  8
0
 10
6523.879271690184396
 20
336.2800623231270265
 30
0.0
 40
0.0332276502828313
 50
275.3520046859392778
 51
285.7919929822195968
  0
ARC
  5
35275
  8
0
 10
6523.8773046935893944
 20
336.2968840330772196
 30
0.0
 40
0.0501610067647868
 50
270.0609846364926057
 51
275.7967824541079267
  0
ARC
  5
35276
  8
0
 10
6523.8770663314098783
 20
336.2111537456407859
 30
0.0
 40
0.04467177150592
 50
89.7274532380884864
 51
102.7881036645204063
  0
ARC
  5
35277
  8
0
 10
6523.8702860625498943
 20
336.2410259180944081
 30
0.0
 40
0.0140397827863132
 50
102.7881036645204063
 51
120.8616446772961979
  0
ARC
  5
35278
  8
0
 10
6523.8646560921715718
 20
336.250447219981595
 30
0.0
 40
0.0030644697752328
 50
120.8616446772961979
 51
148.5338044849461028
  0
ARC
  5
35279
  8
0
 10
6523.8633441489009783
 20
336.251250115517621
 30
0.0
 40
0.0015263422158475
 50
148.5338044849189032
 51
229.2845335000342004
  0
ARC
  5
3527A
  8
0
 10
6523.8687524513616154
 20
336.2575344150400838
 30
0.0
 40
0.0098174311665902
 50
229.2845335000342004
 51
241.1158533130627006
  0
ARC
  5
3527B
  8
0
 10
6523.8681275594917679
 20
336.2564016847138078
 30
0.0
 40
0.0085237666660742
 50
241.1158533130627006
 51
257.2280356223378135
  0
ARC
  5
3527C
  8
0
 10
6523.875285963827082
 20
336.2800623231270265
 30
0.0
 40
0.0332276502828313
 50
254.2080070177804032
 51
264.6479953140606085
  0
ARC
  5
3527D
  8
0
 10
6523.8772552712898687
 20
336.2969146411406882
 30
0.0
 40
0.0501916917154405
 50
264.2041220725939183
 51
270.1173649106427774
  0
ARC
  5
3527E
  8
0
 10
6523.8576986258412944
 20
336.2249910899984116
 30
0.0
 40
0.04467177150592
 50
77.2118963354795937
 51
90.2725467619114994
  0
ARC
  5
3527F
  8
0
 10
6523.8644788947030975
 20
336.2548632624520906
 30
0.0
 40
0.0140397827863132
 50
59.1383553227038021
 51
77.2118963354795937
  0
ARC
  5
35280
  8
0
 10
6523.8701088650786915
 20
336.2642845643392207
 30
0.0
 40
0.0030644697752328
 50
31.4661955150538297
 51
59.1383553227038021
  0
ARC
  5
35281
  8
0
 10
6523.8714208083511039
 20
336.2650874598751898
 30
0.0
 40
0.0015263422158475
 50
310.7154664999657143
 51
31.4661955150810613
  0
ARC
  5
35282
  8
0
 10
6523.8660125058895574
 20
336.2713717593978231
 30
0.0
 40
0.0098174311665902
 50
298.8841466869371857
 51
310.7154664999657143
  0
ARC
  5
35283
  8
0
 10
6523.8666373977575859
 20
336.2702390290713765
 30
0.0
 40
0.0085237666660742
 50
282.7719643776621865
 51
298.8841466869355941
  0
ARC
  5
35284
  8
0
 10
6523.8594789934259097
 20
336.293899667484709
 30
0.0
 40
0.0332276502828313
 50
275.3520046859392778
 51
285.7919929822195968
  0
ARC
  5
35285
  8
0
 10
6523.8575119968318177
 20
336.310721377434902
 30
0.0
 40
0.0501610067647868
 50
270.0609846364926057
 51
275.7967824541079267
  0
ARC
  5
35286
  8
0
 10
6523.8572736346513921
 20
336.2249910899984116
 30
0.0
 40
0.04467177150592
 50
89.7274532380884864
 51
102.7881036645204063
  0
ARC
  5
35287
  8
0
 10
6523.8504933657923175
 20
336.2548632624520906
 30
0.0
 40
0.0140397827863132
 50
102.7881036645204063
 51
120.8616446772961979
  0
ARC
  5
35288
  8
0
 10
6523.8448633954149045
 20
336.2642845643392207
 30
0.0
 40
0.0030644697752328
 50
120.8616446772961979
 51
148.5338044849461028
  0
ARC
  5
35289
  8
0
 10
6523.843551452144311
 20
336.2650874598751898
 30
0.0
 40
0.0015263422158475
 50
148.5338044849189032
 51
229.2845335000342004
  0
ARC
  5
3528A
  8
0
 10
6523.8489597546031291
 20
336.2713717593978231
 30
0.0
 40
0.0098174311665902
 50
229.2845335000342004
 51
241.1158533130627006
  0
ARC
  5
3528B
  8
0
 10
6523.8483348627341911
 20
336.2702390290713765
 30
0.0
 40
0.0085237666660742
 50
241.1158533130627006
 51
257.2280356223378135
  0
ARC
  5
3528C
  8
0
 10
6523.8554932670676862
 20
336.293899667484709
 30
0.0
 40
0.0332276502828313
 50
254.2080070177804032
 51
264.6479953140606085
  0
ARC
  5
3528D
  8
0
 10
6523.8574625745322919
 20
336.3107519854984275
 30
0.0
 40
0.0501916917154405
 50
264.2041220725939183
 51
270.1173649106427774
  0
ARC
  5
3528E
  8
0
 10
6523.8601526389384162
 20
336.246389690846911
 30
0.0
 40
0.04467177150592
 50
77.2118963354795937
 51
90.2725467619114994
  0
ARC
  5
3528F
  8
0
 10
6523.8669329077984003
 20
336.2762618633004763
 30
0.0
 40
0.0140397827863132
 50
59.1383553227038021
 51
77.2118963354795937
  0
ARC
  5
35290
  8
0
 10
6523.8725628781749037
 20
336.2856831651876064
 30
0.0
 40
0.0030644697752328
 50
31.4661955150538297
 51
59.1383553227038021
  0
ARC
  5
35291
  8
0
 10
6523.8738748214464067
 20
336.2864860607235755
 30
0.0
 40
0.0015263422158475
 50
310.7154664999657143
 51
31.4661955150810613
  0
ARC
  5
35292
  8
0
 10
6523.8684665189866791
 20
336.2927703602462088
 30
0.0
 40
0.0098174311665902
 50
298.8841466869371857
 51
310.7154664999657143
  0
ARC
  5
35293
  8
0
 10
6523.8690914108556171
 20
336.2916376299198191
 30
0.0
 40
0.0085237666660742
 50
282.7719643776621865
 51
298.8841466869355941
  0
ARC
  5
35294
  8
0
 10
6523.8619330065212125
 20
336.3152982683330947
 30
0.0
 40
0.0332276502828313
 50
275.3520046859392778
 51
285.7919929822195968
  0
ARC
  5
35295
  8
0
 10
6523.8599660099271205
 20
336.3321199782832878
 30
0.0
 40
0.0501610067647868
 50
270.0609846364926057
 51
275.7967824541079267
  0
ARC
  5
35296
  8
0
 10
6523.8597276477494233
 20
336.246389690846911
 30
0.0
 40
0.04467177150592
 50
89.7274532380884864
 51
102.7881036645204063
  0
ARC
  5
35297
  8
0
 10
6523.8529473788876203
 20
336.2762618633004763
 30
0.0
 40
0.0140397827863132
 50
102.7881036645204063
 51
120.8616446772961979
  0
ARC
  5
35298
  8
0
 10
6523.8473174085111168
 20
336.2856831651876064
 30
0.0
 40
0.0030644697752328
 50
120.8616446772961979
 51
148.5338044849461028
  0
ARC
  5
35299
  8
0
 10
6523.8460054652414328
 20
336.2864860607235755
 30
0.0
 40
0.0015263422158475
 50
148.5338044849189032
 51
229.2845335000342004
  0
ARC
  5
3529A
  8
0
 10
6523.8514137677002509
 20
336.2927703602462088
 30
0.0
 40
0.0098174311665902
 50
229.2845335000342004
 51
241.1158533130627006
  0
ARC
  5
3529B
  8
0
 10
6523.8507888758322224
 20
336.2916376299198191
 30
0.0
 40
0.0085237666660742
 50
241.1158533130627006
 51
257.2280356223378135
  0
ARC
  5
3529C
  8
0
 10
6523.8579472801638985
 20
336.3152982683330947
 30
0.0
 40
0.0332276502828313
 50
254.2080070177804032
 51
264.6479953140606085
  0
ARC
  5
3529D
  8
0
 10
6523.8599165876294137
 20
336.3321505863468133
 30
0.0
 40
0.0501916917154405
 50
264.2041220725939183
 51
270.1173649106427774
  0
ARC
  5
3529E
  8
0
 10
6523.9024405093468886
 20
336.2383484194467087
 30
0.0
 40
0.04467177150592
 50
77.2118963354795937
 51
90.2725467619114994
  0
ARC
  5
3529F
  8
0
 10
6523.9092207782068726
 20
336.2682205919003877
 30
0.0
 40
0.0140397827863132
 50
59.1383553227038021
 51
77.2118963354795937
  0
ARC
  5
352A0
  8
0
 10
6523.9148507485851951
 20
336.2776418937875178
 30
0.0
 40
0.0030644697752328
 50
31.4661955150538297
 51
59.1383553227038021
  0
ARC
  5
352A1
  8
0
 10
6523.9161626918557886
 20
336.2784447893233732
 30
0.0
 40
0.0015263422158475
 50
310.7154664999657143
 51
31.4661955150810613
  0
ARC
  5
352A2
  8
0
 10
6523.9107543893969705
 20
336.2847290888460066
 30
0.0
 40
0.0098174311665902
 50
298.8841466869371857
 51
310.7154664999657143
  0
ARC
  5
352A3
  8
0
 10
6523.911379281264999
 20
336.2835963585196737
 30
0.0
 40
0.0085237666660742
 50
282.7719643776621865
 51
298.8841466869355941
  0
ARC
  5
352A4
  8
0
 10
6523.9042208769324134
 20
336.3072569969328924
 30
0.0
 40
0.0332276502828313
 50
275.3520046859392778
 51
285.7919929822195968
  0
ARC
  5
352A5
  8
0
 10
6523.9022538803355928
 20
336.3240787068831992
 30
0.0
 40
0.0501610067647868
 50
270.0609846364926057
 51
275.7967824541079267
  0
ARC
  5
352A6
  8
0
 10
6523.9020155181569862
 20
336.2383484194467087
 30
0.0
 40
0.04467177150592
 50
89.7274532380884864
 51
102.7881036645204063
  0
ARC
  5
352A7
  8
0
 10
6523.8952352492979117
 20
336.2682205919003877
 30
0.0
 40
0.0140397827863132
 50
102.7881036645204063
 51
120.8616446772961979
  0
ARC
  5
352A8
  8
0
 10
6523.8896052789195892
 20
336.2776418937875178
 30
0.0
 40
0.0030644697752328
 50
120.8616446772961979
 51
148.5338044849461028
  0
ARC
  5
352A9
  8
0
 10
6523.8882933356508147
 20
336.2784447893233732
 30
0.0
 40
0.0015263422158475
 50
148.5338044849189032
 51
229.2845335000342004
  0
ARC
  5
352AA
  8
0
 10
6523.8937016381096328
 20
336.2847290888460066
 30
0.0
 40
0.0098174311665902
 50
229.2845335000342004
 51
241.1158533130627006
  0
ARC
  5
352AB
  8
0
 10
6523.8930767462397853
 20
336.2835963585196737
 30
0.0
 40
0.0085237666660742
 50
241.1158533130627006
 51
257.2280356223378135
  0
ARC
  5
352AC
  8
0
 10
6523.9002351505741899
 20
336.3072569969328924
 30
0.0
 40
0.0332276502828313
 50
254.2080070177804032
 51
264.6479953140606085
  0
ARC
  5
352AD
  8
0
 10
6523.9022044580387956
 20
336.3241093149467247
 30
0.0
 40
0.0501916917154405
 50
264.2041220725939183
 51
270.1173649106427774
  0
ARC
  5
352AE
  8
0
 10
6523.9306870040763897
 20
336.2258998200485962
 30
0.0
 40
0.04467177150592
 50
77.2118963354795937
 51
90.2725467619114994
  0
ARC
  5
352AF
  8
0
 10
6523.9374672729363738
 20
336.2557719925022184
 30
0.0
 40
0.0140397827863132
 50
59.1383553227038021
 51
77.2118963354795937
  0
ARC
  5
352B0
  8
0
 10
6523.9430972433128773
 20
336.2651932943894053
 30
0.0
 40
0.0030644697752328
 50
31.4661955150538297
 51
59.1383553227038021
  0
ARC
  5
352B1
  8
0
 10
6523.9444091865852897
 20
336.2659961899253176
 30
0.0
 40
0.0015263422158475
 50
310.7154664999657143
 51
31.4661955150810613
  0
ARC
  5
352B2
  8
0
 10
6523.9390008841237432
 20
336.2722804894478941
 30
0.0
 40
0.0098174311665902
 50
298.8841466869371857
 51
310.7154664999657143
  0
ARC
  5
352B3
  8
0
 10
6523.9396257759935907
 20
336.2711477591215044
 30
0.0
 40
0.0085237666660742
 50
282.7719643776621865
 51
298.8841466869355941
  0
ARC
  5
352B4
  8
0
 10
6523.932467371659186
 20
336.2948083975347799
 30
0.0
 40
0.0332276502828313
 50
275.3520046859392778
 51
285.7919929822195968
  0
ARC
  5
352B5
  8
0
 10
6523.930500375065094
 20
336.311630107484973
 30
0.0
 40
0.0501610067647868
 50
270.0609846364926057
 51
275.7967824541079267
  0
ARC
  5
352B6
  8
0
 10
6523.9302620128855779
 20
336.2258998200485962
 30
0.0
 40
0.04467177150592
 50
89.7274532380884864
 51
102.7881036645204063
  0
ARC
  5
352B7
  8
0
 10
6523.9234817440255938
 20
336.2557719925022184
 30
0.0
 40
0.0140397827863132
 50
102.7881036645204063
 51
120.8616446772961979
  0
ARC
  5
352B8
  8
0
 10
6523.9178517736490903
 20
336.2651932943894053
 30
0.0
 40
0.0030644697752328
 50
120.8616446772961979
 51
148.5338044849461028
  0
ARC
  5
352B9
  8
0
 10
6523.9165398303775874
 20
336.2659961899253176
 30
0.0
 40
0.0015263422158475
 50
148.5338044849189032
 51
229.2845335000342004
  0
ARC
  5
352BA
  8
0
 10
6523.9219481328373149
 20
336.2722804894478941
 30
0.0
 40
0.0098174311665902
 50
229.2845335000342004
 51
241.1158533130627006
  0
ARC
  5
352BB
  8
0
 10
6523.9213232409692864
 20
336.2711477591215044
 30
0.0
 40
0.0085237666660742
 50
241.1158533130627006
 51
257.2280356223378135
  0
ARC
  5
352BC
  8
0
 10
6523.928481645301872
 20
336.2948083975347799
 30
0.0
 40
0.0332276502828313
 50
254.2080070177804032
 51
264.6479953140606085
  0
ARC
  5
352BD
  8
0
 10
6523.9304509527673872
 20
336.3116607155486122
 30
0.0
 40
0.0501916917154405
 50
264.2041220725939183
 51
270.1173649106427774
  0
ARC
  5
352BE
  8
0
 10
6523.9414950671462066
 20
336.211457781051422
 30
0.0
 40
0.04467177150592
 50
77.2118963354795937
 51
90.2725467619114994
  0
ARC
  5
352BF
  8
0
 10
6523.9482753360071001
 20
336.241329953505101
 30
0.0
 40
0.0140397827863132
 50
59.1383553227038021
 51
77.2118963354795937
  0
ARC
  5
352C0
  8
0
 10
6523.9539053063817846
 20
336.2507512553921742
 30
0.0
 40
0.0030644697752328
 50
31.4661955150538297
 51
59.1383553227038021
  0
ARC
  5
352C1
  8
0
 10
6523.9552172496541971
 20
336.2515541509282002
 30
0.0
 40
0.0015263422158475
 50
310.7154664999657143
 51
31.4661955150810613
  0
ARC
  5
352C2
  8
0
 10
6523.9498089471926505
 20
336.2578384504507198
 30
0.0
 40
0.0098174311665902
 50
298.8841466869371857
 51
310.7154664999657143
  0
ARC
  5
352C3
  8
0
 10
6523.9504338390634075
 20
336.256705720124387
 30
0.0
 40
0.0085237666660742
 50
282.7719643776621865
 51
298.8841466869355941
  0
ARC
  5
352C4
  8
0
 10
6523.9432754347290029
 20
336.2803663585377194
 30
0.0
 40
0.0332276502828313
 50
275.3520046859392778
 51
285.7919929822195968
  0
ARC
  5
352C5
  8
0
 10
6523.9413084381358203
 20
336.2971880684879125
 30
0.0
 40
0.0501610067647868
 50
270.0609846364926057
 51
275.7967824541079267
  0
ARC
  5
352C6
  8
0
 10
6523.9410700759553947
 20
336.211457781051422
 30
0.0
 40
0.04467177150592
 50
89.7274532380884864
 51
102.7881036645204063
  0
ARC
  5
352C7
  8
0
 10
6523.9342898070963201
 20
336.241329953505101
 30
0.0
 40
0.0140397827863132
 50
102.7881036645204063
 51
120.8616446772961979
  0
ARC
  5
352C8
  8
0
 10
6523.9286598367189072
 20
336.2507512553921742
 30
0.0
 40
0.0030644697752328
 50
120.8616446772961979
 51
148.5338044849461028
  0
ARC
  5
352C9
  8
0
 10
6523.9273478934474042
 20
336.2515541509282002
 30
0.0
 40
0.0015263422158475
 50
148.5338044849189032
 51
229.2845335000342004
  0
ARC
  5
352CA
  8
0
 10
6523.9327561959071318
 20
336.2578384504507198
 30
0.0
 40
0.0098174311665902
 50
229.2845335000342004
 51
241.1158533130627006
  0
ARC
  5
352CB
  8
0
 10
6523.9321313040381938
 20
336.256705720124387
 30
0.0
 40
0.0085237666660742
 50
241.1158533130627006
 51
257.2280356223378135
  0
ARC
  5
352CC
  8
0
 10
6523.9392897083716889
 20
336.2803663585377194
 30
0.0
 40
0.0332276502828313
 50
254.2080070177804032
 51
264.6479953140606085
  0
ARC
  5
352CD
  8
0
 10
6523.9412590158362946
 20
336.2972186765513811
 30
0.0
 40
0.0501916917154405
 50
264.2041220725939183
 51
270.1173649106427774
  0
ARC
  5
352CE
  8
0
 10
6523.9315681025263984
 20
336.1968324829999233
 30
0.0
 40
0.04467177150592
 50
77.2118963354795937
 51
90.2725467619114994
  0
ARC
  5
352CF
  8
0
 10
6523.938348371387292
 20
336.2267046554534886
 30
0.0
 40
0.0140397827863132
 50
59.1383553227038021
 51
77.2118963354795937
  0
ARC
  5
352D0
  8
0
 10
6523.9439783417637955
 20
336.2361259573407892
 30
0.0
 40
0.0030644697752328
 50
31.4661955150538297
 51
59.1383553227038021
  0
ARC
  5
352D1
  8
0
 10
6523.9452902850362079
 20
336.2369288528765878
 30
0.0
 40
0.0015263422158475
 50
310.7154664999657143
 51
31.4661955150810613
  0
ARC
  5
352D2
  8
0
 10
6523.9398819825746614
 20
336.2432131523992211
 30
0.0
 40
0.0098174311665902
 50
298.8841466869371857
 51
310.7154664999657143
  0
ARC
  5
352D3
  8
0
 10
6523.9405068744426899
 20
336.2420804220728883
 30
0.0
 40
0.0085237666660742
 50
282.7719643776621865
 51
298.8841466869355941
  0
ARC
  5
352D4
  8
0
 10
6523.9333484701101042
 20
336.2657410604862207
 30
0.0
 40
0.0332276502828313
 50
275.3520046859392778
 51
285.7919929822195968
  0
ARC
  5
352D5
  8
0
 10
6523.9313814735160122
 20
336.2825627704363001
 30
0.0
 40
0.0501610067647868
 50
270.0609846364926057
 51
275.7967824541079267
  0
ARC
  5
352D6
  8
0
 10
6523.9311431113374056
 20
336.1968324829999233
 30
0.0
 40
0.04467177150592
 50
89.7274532380884864
 51
102.7881036645204063
  0
ARC
  5
352D7
  8
0
 10
6523.9243628424756025
 20
336.2267046554534886
 30
0.0
 40
0.0140397827863132
 50
102.7881036645204063
 51
120.8616446772961979
  0
ARC
  5
352D8
  8
0
 10
6523.9187328721000085
 20
336.2361259573407892
 30
0.0
 40
0.0030644697752328
 50
120.8616446772961979
 51
148.5338044849461028
  0
ARC
  5
352D9
  8
0
 10
6523.9174209288275961
 20
336.2369288528765878
 30
0.0
 40
0.0015263422158475
 50
148.5338044849189032
 51
229.2845335000342004
  0
ARC
  5
352DA
  8
0
 10
6523.9228292312882331
 20
336.2432131523992211
 30
0.0
 40
0.0098174311665902
 50
229.2845335000342004
 51
241.1158533130627006
  0
ARC
  5
352DB
  8
0
 10
6523.9222043394192951
 20
336.2420804220728883
 30
0.0
 40
0.0085237666660742
 50
241.1158533130627006
 51
257.2280356223378135
  0
ARC
  5
352DC
  8
0
 10
6523.9293627437536998
 20
336.2657410604862207
 30
0.0
 40
0.0332276502828313
 50
254.2080070177804032
 51
264.6479953140606085
  0
ARC
  5
352DD
  8
0
 10
6523.9313320512183054
 20
336.2825933784998824
 30
0.0
 40
0.0501916917154405
 50
264.2041220725939183
 51
270.1173649106427774
  0
ARC
  5
352DE
  8
0
 10
6524.0004650725213651
 20
336.1886598595223177
 30
0.0
 40
0.04467177150592
 50
77.2118963354795937
 51
90.2725467619114994
  0
ARC
  5
352DF
  8
0
 10
6524.0072453413813491
 20
336.218532031975883
 30
0.0
 40
0.0140397827863132
 50
59.1383553227038021
 51
77.2118963354795937
  0
ARC
  5
352E0
  8
0
 10
6524.0128753117578526
 20
336.2279533338631268
 30
0.0
 40
0.0030644697752328
 50
31.4661955150538297
 51
59.1383553227038021
  0
ARC
  5
352E1
  8
0
 10
6524.0141872550302651
 20
336.2287562293989822
 30
0.0
 40
0.0015263422158475
 50
310.7154664999657143
 51
31.4661955150810613
  0
ARC
  5
352E2
  8
0
 10
6524.0087789525687185
 20
336.2350405289216155
 30
0.0
 40
0.0098174311665902
 50
298.8841466869371857
 51
310.7154664999657143
  0
ARC
  5
352E3
  8
0
 10
6524.0094038444376565
 20
336.2339077985952827
 30
0.0
 40
0.0085237666660742
 50
282.7719643776621865
 51
298.8841466869355941
  0
ARC
  5
352E4
  8
0
 10
6524.0022454401041614
 20
336.2575684370086151
 30
0.0
 40
0.0332276502828313
 50
275.3520046859392778
 51
285.7919929822195968
  0
ARC
  5
352E5
  8
0
 10
6524.0002784435100693
 20
336.2743901469586945
 30
0.0
 40
0.0501610067647868
 50
270.0609846364926057
 51
275.7967824541079267
  0
ARC
  5
352E6
  8
0
 10
6524.0000400813296437
 20
336.1886598595223177
 30
0.0
 40
0.04467177150592
 50
89.7274532380884864
 51
102.7881036645204063
  0
ARC
  5
352E7
  8
0
 10
6523.9932598124705692
 20
336.218532031975883
 30
0.0
 40
0.0140397827863132
 50
102.7881036645204063
 51
120.8616446772961979
  0
ARC
  5
352E8
  8
0
 10
6523.9876298420940657
 20
336.2279533338631268
 30
0.0
 40
0.0030644697752328
 50
120.8616446772961979
 51
148.5338044849461028
  0
ARC
  5
352E9
  8
0
 10
6523.9863178988225627
 20
336.2287562293989822
 30
0.0
 40
0.0015263422158475
 50
148.5338044849189032
 51
229.2845335000342004
  0
ARC
  5
352EA
  8
0
 10
6523.9917262012822903
 20
336.2350405289216155
 30
0.0
 40
0.0098174311665902
 50
229.2845335000342004
 51
241.1158533130627006
  0
ARC
  5
352EB
  8
0
 10
6523.9911013094142618
 20
336.2339077985952827
 30
0.0
 40
0.0085237666660742
 50
241.1158533130627006
 51
257.2280356223378135
  0
ARC
  5
352EC
  8
0
 10
6523.9982597137477569
 20
336.2575684370086151
 30
0.0
 40
0.0332276502828313
 50
254.2080070177804032
 51
264.6479953140606085
  0
ARC
  5
352ED
  8
0
 10
6524.0002290212114531
 20
336.27442075502222
 30
0.0
 40
0.0501916917154405
 50
264.2041220725939183
 51
270.1173649106427774
  0
ARC
  5
352EE
  8
0
 10
6524.0150257053173846
 20
336.2115700224472903
 30
0.0
 40
0.04467177150592
 50
77.2118963354795937
 51
90.2725467619114994
  0
ARC
  5
352EF
  8
0
 10
6524.0218059741782781
 20
336.2414421949009125
 30
0.0
 40
0.0140397827863132
 50
59.1383553227038021
 51
77.2118963354795937
  0
ARC
  5
352F0
  8
0
 10
6524.0274359445529626
 20
336.2508634967879857
 30
0.0
 40
0.0030644697752328
 50
31.4661955150538297
 51
59.1383553227038021
  0
ARC
  5
352F1
  8
0
 10
6524.0287478878253751
 20
336.2516663923240117
 30
0.0
 40
0.0015263422158475
 50
310.7154664999657143
 51
31.4661955150810613
  0
ARC
  5
352F2
  8
0
 10
6524.0233395853656475
 20
336.2579506918465881
 30
0.0
 40
0.0098174311665902
 50
298.8841466869371857
 51
310.7154664999657143
  0
ARC
  5
352F3
  8
0
 10
6524.023964477233676
 20
336.2568179615203121
 30
0.0
 40
0.0085237666660742
 50
282.7719643776621865
 51
298.8841466869355941
  0
ARC
  5
352F4
  8
0
 10
6524.0168060729001809
 20
336.280478599933474
 30
0.0
 40
0.0332276502828313
 50
275.3520046859392778
 51
285.7919929822195968
  0
ARC
  5
352F5
  8
0
 10
6524.0148390763069983
 20
336.2973003098837239
 30
0.0
 40
0.0501610067647868
 50
270.0609846364926057
 51
275.7967824541079267
  0
ARC
  5
352F6
  8
0
 10
6524.0146007141283917
 20
336.2115700224472903
 30
0.0
 40
0.04467177150592
 50
89.7274532380884864
 51
102.7881036645204063
  0
ARC
  5
352F7
  8
0
 10
6524.0078204452665886
 20
336.2414421949009125
 30
0.0
 40
0.0140397827863132
 50
102.7881036645204063
 51
120.8616446772961979
  0
ARC
  5
352F8
  8
0
 10
6524.0021904748900852
 20
336.2508634967879857
 30
0.0
 40
0.0030644697752328
 50
120.8616446772961979
 51
148.5338044849461028
  0
ARC
  5
352F9
  8
0
 10
6524.0008785316185822
 20
336.2516663923240117
 30
0.0
 40
0.0015263422158475
 50
148.5338044849189032
 51
229.2845335000342004
  0
ARC
  5
352FA
  8
0
 10
6524.0062868340801288
 20
336.2579506918465881
 30
0.0
 40
0.0098174311665902
 50
229.2845335000342004
 51
241.1158533130627006
  0
ARC
  5
352FB
  8
0
 10
6524.0056619422111908
 20
336.2568179615203121
 30
0.0
 40
0.0085237666660742
 50
241.1158533130627006
 51
257.2280356223378135
  0
ARC
  5
352FC
  8
0
 10
6524.0128203465446859
 20
336.280478599933474
 30
0.0
 40
0.0332276502828313
 50
254.2080070177804032
 51
264.6479953140606085
  0
ARC
  5
352FD
  8
0
 10
6524.0147896540083821
 20
336.2973309179471926
 30
0.0
 40
0.0501916917154405
 50
264.2041220725939183
 51
270.1173649106427774
  0
ARC
  5
352FE
  8
0
 10
6524.0966432669820279
 20
336.2122173326990833
 30
0.0
 40
0.04467177150592
 50
77.2118963354795937
 51
90.2725467619114994
  0
ARC
  5
352FF
  8
0
 10
6524.1034235358429214
 20
336.2420895051527054
 30
0.0
 40
0.0140397827863132
 50
59.1383553227038021
 51
77.2118963354795937
  0
ARC
  5
35300
  8
0
 10
6524.1090535062194249
 20
336.2515108070397787
 30
0.0
 40
0.0030644697752328
 50
31.4661955150538297
 51
59.1383553227038021
  0
ARC
  5
35301
  8
0
 10
6524.1103654494909279
 20
336.2523137025758047
 30
0.0
 40
0.0015263422158475
 50
310.7154664999657143
 51
31.4661955150810613
  0
ARC
  5
35302
  8
0
 10
6524.1049571470302908
 20
336.2585980020983811
 30
0.0
 40
0.0098174311665902
 50
298.8841466869371857
 51
310.7154664999657143
  0
ARC
  5
35303
  8
0
 10
6524.1055820388992288
 20
336.2574652717721051
 30
0.0
 40
0.0085237666660742
 50
282.7719643776621865
 51
298.8841466869355941
  0
ARC
  5
35304
  8
0
 10
6524.0984236345657337
 20
336.2811259101853238
 30
0.0
 40
0.0332276502828313
 50
275.3520046859392778
 51
285.7919929822195968
  0
ARC
  5
35305
  8
0
 10
6524.0964566379698226
 20
336.2979476201355169
 30
0.0
 40
0.0501610067647868
 50
270.0609846364926057
 51
275.7967824541079267
  0
ARC
  5
35306
  8
0
 10
6524.096218275793035
 20
336.2122173326990833
 30
0.0
 40
0.04467177150592
 50
89.7274532380884864
 51
102.7881036645204063
  0
ARC
  5
35307
  8
0
 10
6524.0894380069312319
 20
336.2420895051527054
 30
0.0
 40
0.0140397827863132
 50
102.7881036645204063
 51
120.8616446772961979
  0
ARC
  5
35308
  8
0
 10
6524.0838080365547285
 20
336.2515108070397787
 30
0.0
 40
0.0030644697752328
 50
120.8616446772961979
 51
148.5338044849461028
  0
ARC
  5
35309
  8
0
 10
6524.082496093282316
 20
336.2523137025758047
 30
0.0
 40
0.0015263422158475
 50
148.5338044849189032
 51
229.2845335000342004
  0
ARC
  5
3530A
  8
0
 10
6524.0879043957429531
 20
336.2585980020983811
 30
0.0
 40
0.0098174311665902
 50
229.2845335000342004
 51
241.1158533130627006
  0
ARC
  5
3530B
  8
0
 10
6524.0872795038749246
 20
336.2574652717721051
 30
0.0
 40
0.0085237666660742
 50
241.1158533130627006
 51
257.2280356223378135
  0
ARC
  5
3530C
  8
0
 10
6524.0944379082084197
 20
336.2811259101853238
 30
0.0
 40
0.0332276502828313
 50
254.2080070177804032
 51
264.6479953140606085
  0
ARC
  5
3530D
  8
0
 10
6524.0964072156721159
 20
336.2979782281989856
 30
0.0
 40
0.0501916917154405
 50
264.2041220725939183
 51
270.1173649106427774
  0
ARC
  5
3530E
  8
0
 10
6523.9985887631601145
 20
336.2345738988088897
 30
0.0
 40
0.04467177150592
 50
77.2118963354795937
 51
90.2725467619114994
  0
ARC
  5
3530F
  8
0
 10
6524.005369032019189
 20
336.2644460712625119
 30
0.0
 40
0.0140397827863132
 50
59.1383553227038021
 51
77.2118963354795937
  0
ARC
  5
35310
  8
0
 10
6524.010999002398421
 20
336.2738673731496988
 30
0.0
 40
0.0030644697752328
 50
31.4661955150538297
 51
59.1383553227038021
  0
ARC
  5
35311
  8
0
 10
6524.012310945668105
 20
336.2746702686857247
 30
0.0
 40
0.0015263422158475
 50
310.7154664999657143
 51
31.4661955150810613
  0
ARC
  5
35312
  8
0
 10
6524.0069026432083774
 20
336.2809545682081875
 30
0.0
 40
0.0098174311665902
 50
298.8841466869371857
 51
310.7154664999657143
  0
ARC
  5
35313
  8
0
 10
6524.0075275350773154
 20
336.2798218378819115
 30
0.0
 40
0.0085237666660742
 50
282.7719643776621865
 51
298.8841466869355941
  0
ARC
  5
35314
  8
0
 10
6524.0003691307429108
 20
336.3034824762951871
 30
0.0
 40
0.0332276502828313
 50
275.3520046859392778
 51
285.7919929822195968
  0
ARC
  5
35315
  8
0
 10
6523.9984021341479092
 20
336.3203041862453802
 30
0.0
 40
0.0501610067647868
 50
270.0609846364926057
 51
275.7967824541079267
  0
ARC
  5
35316
  8
0
 10
6523.9981637719702121
 20
336.2345738988088897
 30
0.0
 40
0.04467177150592
 50
89.7274532380884864
 51
102.7881036645204063
  0
ARC
  5
35317
  8
0
 10
6523.991383503110228
 20
336.2644460712625119
 30
0.0
 40
0.0140397827863132
 50
102.7881036645204063
 51
120.8616446772961979
  0
ARC
  5
35318
  8
0
 10
6523.9857535327328151
 20
336.2738673731496988
 30
0.0
 40
0.0030644697752328
 50
120.8616446772961979
 51
148.5338044849461028
  0
ARC
  5
35319
  8
0
 10
6523.9844415894622216
 20
336.2746702686857247
 30
0.0
 40
0.0015263422158475
 50
148.5338044849189032
 51
229.2845335000342004
  0
ARC
  5
3531A
  8
0
 10
6523.9898498919219492
 20
336.2809545682081875
 30
0.0
 40
0.0098174311665902
 50
229.2845335000342004
 51
241.1158533130627006
  0
ARC
  5
3531B
  8
0
 10
6523.9892250000539207
 20
336.2798218378819115
 30
0.0
 40
0.0085237666660742
 50
241.1158533130627006
 51
257.2280356223378135
  0
ARC
  5
3531C
  8
0
 10
6523.9963834043855968
 20
336.3034824762951871
 30
0.0
 40
0.0332276502828313
 50
254.2080070177804032
 51
264.6479953140606085
  0
ARC
  5
3531D
  8
0
 10
6523.998352711851112
 20
336.320334794308792
 30
0.0
 40
0.0501916917154405
 50
264.2041220725939183
 51
270.1173649106427774
  0
ARC
  5
3531E
  8
0
 10
6524.0741112703890394
 20
336.2437231315627741
 30
0.0
 40
0.04467177150592
 50
77.2118963354795937
 51
90.2725467619114994
  0
ARC
  5
3531F
  8
0
 10
6524.080891539248114
 20
336.2735953040163963
 30
0.0
 40
0.0140397827863132
 50
59.1383553227038021
 51
77.2118963354795937
  0
ARC
  5
35320
  8
0
 10
6524.0865215096246175
 20
336.2830166059035264
 30
0.0
 40
0.0030644697752328
 50
31.4661955150538297
 51
59.1383553227038021
  0
ARC
  5
35321
  8
0
 10
6524.0878334528952109
 20
336.2838195014394955
 30
0.0
 40
0.0015263422158475
 50
310.7154664999657143
 51
31.4661955150810613
  0
ARC
  5
35322
  8
0
 10
6524.0824251504363929
 20
336.290103800962072
 30
0.0
 40
0.0098174311665902
 50
298.8841466869371857
 51
310.7154664999657143
  0
ARC
  5
35323
  8
0
 10
6524.0830500423044214
 20
336.2889710706356823
 30
0.0
 40
0.0085237666660742
 50
282.7719643776621865
 51
298.8841466869355941
  0
ARC
  5
35324
  8
0
 10
6524.0758916379700167
 20
336.3126317090490147
 30
0.0
 40
0.0332276502828313
 50
275.3520046859392778
 51
285.7919929822195968
  0
ARC
  5
35325
  8
0
 10
6524.0739246413768342
 20
336.3294534189992078
 30
0.0
 40
0.0501610067647868
 50
270.0609846364926057
 51
275.7967824541079267
  0
ARC
  5
35326
  8
0
 10
6524.0736862791982276
 20
336.2437231315627741
 30
0.0
 40
0.04467177150592
 50
89.7274532380884864
 51
102.7881036645204063
  0
ARC
  5
35327
  8
0
 10
6524.066906010337334
 20
336.2735953040163963
 30
0.0
 40
0.0140397827863132
 50
102.7881036645204063
 51
120.8616446772961979
  0
ARC
  5
35328
  8
0
 10
6524.06127603996174
 20
336.2830166059035264
 30
0.0
 40
0.0030644697752328
 50
120.8616446772961979
 51
148.5338044849461028
  0
ARC
  5
35329
  8
0
 10
6524.0599640966893276
 20
336.2838195014394955
 30
0.0
 40
0.0015263422158475
 50
148.5338044849189032
 51
229.2845335000342004
  0
ARC
  5
3532A
  8
0
 10
6524.0653723991490551
 20
336.290103800962072
 30
0.0
 40
0.0098174311665902
 50
229.2845335000342004
 51
241.1158533130627006
  0
ARC
  5
3532B
  8
0
 10
6524.0647475072810266
 20
336.2889710706356823
 30
0.0
 40
0.0085237666660742
 50
241.1158533130627006
 51
257.2280356223378135
  0
ARC
  5
3532C
  8
0
 10
6524.0719059116154313
 20
336.3126317090490147
 30
0.0
 40
0.0332276502828313
 50
254.2080070177804032
 51
264.6479953140606085
  0
ARC
  5
3532D
  8
0
 10
6524.0738752190782179
 20
336.3294840270626764
 30
0.0
 40
0.0501916917154405
 50
264.2041220725939183
 51
270.1173649106427774
  0
ARC
  5
3532E
  8
0
 10
6524.0112807548475757
 20
336.2714581631029773
 30
0.0
 40
0.04467177150592
 50
77.2118963354795937
 51
90.2725467619114994
  0
ARC
  5
3532F
  8
0
 10
6524.0180610237093788
 20
336.3013303355567132
 30
0.0
 40
0.0140397827863132
 50
59.1383553227038021
 51
77.2118963354795937
  0
ARC
  5
35330
  8
0
 10
6524.0236909940840633
 20
336.3107516374439001
 30
0.0
 40
0.0030644697752328
 50
31.4661955150538297
 51
59.1383553227038021
  0
ARC
  5
35331
  8
0
 10
6524.0250029373555662
 20
336.3115545329798124
 30
0.0
 40
0.0015263422158475
 50
310.7154664999657143
 51
31.4661955150810613
  0
ARC
  5
35332
  8
0
 10
6524.0195946348958387
 20
336.3178388325022752
 30
0.0
 40
0.0098174311665902
 50
298.8841466869371857
 51
310.7154664999657143
  0
ARC
  5
35333
  8
0
 10
6524.0202195267647767
 20
336.3167061021761128
 30
0.0
 40
0.0085237666660742
 50
282.7719643776621865
 51
298.8841466869355941
  0
ARC
  5
35334
  8
0
 10
6524.0130611224312815
 20
336.3403667405892747
 30
0.0
 40
0.0332276502828313
 50
275.3520046859392778
 51
285.7919929822195968
  0
ARC
  5
35335
  8
0
 10
6524.011094125838099
 20
336.3571884505395246
 30
0.0
 40
0.0501610067647868
 50
270.0609846364926057
 51
275.7967824541079267
  0
ARC
  5
35336
  8
0
 10
6524.0108557636585829
 20
336.2714581631029773
 30
0.0
 40
0.04467177150592
 50
89.7274532380884864
 51
102.7881036645204063
  0
ARC
  5
35337
  8
0
 10
6524.0040754947976893
 20
336.3013303355567132
 30
0.0
 40
0.0140397827863132
 50
102.7881036645204063
 51
120.8616446772961979
  0
ARC
  5
35338
  8
0
 10
6523.9984455244211858
 20
336.3107516374439001
 30
0.0
 40
0.0030644697752328
 50
120.8616446772961979
 51
148.5338044849461028
  0
ARC
  5
35339
  8
0
 10
6523.9971335811505924
 20
336.3115545329798124
 30
0.0
 40
0.0015263422158475
 50
148.5338044849189032
 51
229.2845335000342004
  0
ARC
  5
3533A
  8
0
 10
6524.0025418836103199
 20
336.3178388325022752
 30
0.0
 40
0.0098174311665902
 50
229.2845335000342004
 51
241.1158533130627006
  0
ARC
  5
3533B
  8
0
 10
6524.0019169917422914
 20
336.3167061021761128
 30
0.0
 40
0.0085237666660742
 50
241.1158533130627006
 51
257.2280356223378135
  0
ARC
  5
3533C
  8
0
 10
6524.0090753960739676
 20
336.3403667405892747
 30
0.0
 40
0.0332276502828313
 50
254.2080070177804032
 51
264.6479953140606085
  0
ARC
  5
3533D
  8
0
 10
6524.0110447035385732
 20
336.3572190586029933
 30
0.0
 40
0.0501916917154405
 50
264.2041220725939183
 51
270.1173649106427774
  0
ARC
  5
3533E
  8
0
 10
6523.9543002543086914
 20
336.2537586242121961
 30
0.0
 40
0.04467177150592
 50
77.2118963354795937
 51
90.2725467619114994
  0
ARC
  5
3533F
  8
0
 10
6523.9610805231686754
 20
336.2836307966658751
 30
0.0
 40
0.0140397827863132
 50
59.1383553227038021
 51
77.2118963354795937
  0
ARC
  5
35340
  8
0
 10
6523.9667104935460884
 20
336.2930520985531189
 30
0.0
 40
0.0030644697752328
 50
31.4661955150538297
 51
59.1383553227038021
  0
ARC
  5
35341
  8
0
 10
6523.9680224368166819
 20
336.2938549940889743
 30
0.0
 40
0.0015263422158475
 50
310.7154664999657143
 51
31.4661955150810613
  0
ARC
  5
35342
  8
0
 10
6523.9626141343560448
 20
336.3001392936116076
 30
0.0
 40
0.0098174311665902
 50
298.8841466869371857
 51
310.7154664999657143
  0
ARC
  5
35343
  8
0
 10
6523.9632390262258923
 20
336.2990065632852748
 30
0.0
 40
0.0085237666660742
 50
282.7719643776621865
 51
298.8841466869355941
  0
ARC
  5
35344
  8
0
 10
6523.9560806218923972
 20
336.3226672016984935
 30
0.0
 40
0.0332276502828313
 50
275.3520046859392778
 51
285.7919929822195968
  0
ARC
  5
35345
  8
0
 10
6523.9541136252983051
 20
336.3394889116486866
 30
0.0
 40
0.0501610067647868
 50
270.0609846364926057
 51
275.7967824541079267
  0
ARC
  5
35346
  8
0
 10
6523.953875263118789
 20
336.2537586242121961
 30
0.0
 40
0.04467177150592
 50
89.7274532380884864
 51
102.7881036645204063
  0
ARC
  5
35347
  8
0
 10
6523.9470949942588049
 20
336.2836307966658751
 30
0.0
 40
0.0140397827863132
 50
102.7881036645204063
 51
120.8616446772961979
  0
ARC
  5
35348
  8
0
 10
6523.941465023881392
 20
336.2930520985531189
 30
0.0
 40
0.0030644697752328
 50
120.8616446772961979
 51
148.5338044849461028
  0
ARC
  5
35349
  8
0
 10
6523.940153080609889
 20
336.2938549940889743
 30
0.0
 40
0.0015263422158475
 50
148.5338044849189032
 51
229.2845335000342004
  0
ARC
  5
3534A
  8
0
 10
6523.9455613830696166
 20
336.3001392936116076
 30
0.0
 40
0.0098174311665902
 50
229.2845335000342004
 51
241.1158533130627006
  0
ARC
  5
3534B
  8
0
 10
6523.9449364912015881
 20
336.2990065632852748
 30
0.0
 40
0.0085237666660742
 50
241.1158533130627006
 51
257.2280356223378135
  0
ARC
  5
3534C
  8
0
 10
6523.9520948955341737
 20
336.3226672016984935
 30
0.0
 40
0.0332276502828313
 50
254.2080070177804032
 51
264.6479953140606085
  0
ARC
  5
3534D
  8
0
 10
6523.9540642029996889
 20
336.3395195197122121
 30
0.0
 40
0.0501916917154405
 50
264.2041220725939183
 51
270.1173649106427774
  0
ARC
  5
3534E
  8
0
 10
6523.8876925644071889
 20
336.2665376532123105
 30
0.0
 40
0.04467177150592
 50
77.2118963354795937
 51
90.2725467619114994
  0
ARC
  5
3534F
  8
0
 10
6523.8944728332680825
 20
336.2964098256658758
 30
0.0
 40
0.0140397827863132
 50
59.1383553227038021
 51
77.2118963354795937
  0
ARC
  5
35350
  8
0
 10
6523.9001028036436765
 20
336.3058311275531196
 30
0.0
 40
0.0030644697752328
 50
31.4661955150538297
 51
59.1383553227038021
  0
ARC
  5
35351
  8
0
 10
6523.9014147469160889
 20
336.3066340230890887
 30
0.0
 40
0.0015263422158475
 50
310.7154664999657143
 51
31.4661955150810613
  0
ARC
  5
35352
  8
0
 10
6523.8960064444572708
 20
336.3129183226116083
 30
0.0
 40
0.0098174311665902
 50
298.8841466869371857
 51
310.7154664999657143
  0
ARC
  5
35353
  8
0
 10
6523.8966313363252993
 20
336.3117855922852755
 30
0.0
 40
0.0085237666660742
 50
282.7719643776621865
 51
298.8841466869355941
  0
ARC
  5
35354
  8
0
 10
6523.8894729319918042
 20
336.3354462306986079
 30
0.0
 40
0.0332276502828313
 50
275.3520046859392778
 51
285.7919929822195968
  0
ARC
  5
35355
  8
0
 10
6523.8875059353968027
 20
336.352267940648801
 30
0.0
 40
0.0501610067647868
 50
270.0609846364926057
 51
275.7967824541079267
  0
ARC
  5
35356
  8
0
 10
6523.887267573218196
 20
336.2665376532123105
 30
0.0
 40
0.04467177150592
 50
89.7274532380884864
 51
102.7881036645204063
  0
ARC
  5
35357
  8
0
 10
6523.8804873043573025
 20
336.2964098256658758
 30
0.0
 40
0.0140397827863132
 50
102.7881036645204063
 51
120.8616446772961979
  0
ARC
  5
35358
  8
0
 10
6523.8748573339798895
 20
336.3058311275531196
 30
0.0
 40
0.0030644697752328
 50
120.8616446772961979
 51
148.5338044849461028
  0
ARC
  5
35359
  8
0
 10
6523.8735453907102055
 20
336.3066340230890887
 30
0.0
 40
0.0015263422158475
 50
148.5338044849189032
 51
229.2845335000342004
  0
ARC
  5
3535A
  8
0
 10
6523.8789536931699331
 20
336.3129183226116083
 30
0.0
 40
0.0098174311665902
 50
229.2845335000342004
 51
241.1158533130627006
  0
ARC
  5
3535B
  8
0
 10
6523.8783288013009951
 20
336.3117855922852755
 30
0.0
 40
0.0085237666660742
 50
241.1158533130627006
 51
257.2280356223378135
  0
ARC
  5
3535C
  8
0
 10
6523.8854872056353997
 20
336.3354462306986079
 30
0.0
 40
0.0332276502828313
 50
254.2080070177804032
 51
264.6479953140606085
  0
ARC
  5
3535D
  8
0
 10
6523.8874565131000054
 20
336.3522985487123265
 30
0.0
 40
0.0501916917154405
 50
264.2041220725939183
 51
270.1173649106427774
  0
ARC
  5
3535E
  8
0
 10
6523.9186875114774011
 20
336.2885489826384173
 30
0.0
 40
0.04467177150592
 50
77.2118963354795937
 51
90.2725467619114994
  0
ARC
  5
3535F
  8
0
 10
6523.9254677803373852
 20
336.3184211550919827
 30
0.0
 40
0.0140397827863132
 50
59.1383553227038021
 51
77.2118963354795937
  0
ARC
  5
35360
  8
0
 10
6523.9310977507147982
 20
336.3278424569792264
 30
0.0
 40
0.0030644697752328
 50
31.4661955150538297
 51
59.1383553227038021
  0
ARC
  5
35361
  8
0
 10
6523.9324096939853916
 20
336.3286453525151956
 30
0.0
 40
0.0015263422158475
 50
310.7154664999657143
 51
31.4661955150810613
  0
ARC
  5
35362
  8
0
 10
6523.9270013915238451
 20
336.3349296520377152
 30
0.0
 40
0.0098174311665902
 50
298.8841466869371857
 51
310.7154664999657143
  0
ARC
  5
35363
  8
0
 10
6523.9276262833936926
 20
336.3337969217113823
 30
0.0
 40
0.0085237666660742
 50
282.7719643776621865
 51
298.8841466869355941
  0
ARC
  5
35364
  8
0
 10
6523.9204678790601974
 20
336.3574575601246011
 30
0.0
 40
0.0332276502828313
 50
275.3520046859392778
 51
285.7919929822195968
  0
ARC
  5
35365
  8
0
 10
6523.9185008824661054
 20
336.3742792700747941
 30
0.0
 40
0.0501610067647868
 50
270.0609846364926057
 51
275.7967824541079267
  0
ARC
  5
35366
  8
0
 10
6523.9182625202865893
 20
336.2885489826384173
 30
0.0
 40
0.04467177150592
 50
89.7274532380884864
 51
102.7881036645204063
  0
ARC
  5
35367
  8
0
 10
6523.9114822514266052
 20
336.3184211550919827
 30
0.0
 40
0.0140397827863132
 50
102.7881036645204063
 51
120.8616446772961979
  0
ARC
  5
35368
  8
0
 10
6523.9058522810501017
 20
336.3278424569792264
 30
0.0
 40
0.0030644697752328
 50
120.8616446772961979
 51
148.5338044849461028
  0
ARC
  5
35369
  8
0
 10
6523.9045403377776893
 20
336.3286453525151956
 30
0.0
 40
0.0015263422158475
 50
148.5338044849189032
 51
229.2845335000342004
  0
ARC
  5
3536A
  8
0
 10
6523.9099486402383263
 20
336.3349296520377152
 30
0.0
 40
0.0098174311665902
 50
229.2845335000342004
 51
241.1158533130627006
  0
ARC
  5
3536B
  8
0
 10
6523.9093237483702978
 20
336.3337969217113823
 30
0.0
 40
0.0085237666660742
 50
241.1158533130627006
 51
257.2280356223378135
  0
ARC
  5
3536C
  8
0
 10
6523.9164821527028835
 20
336.3574575601246011
 30
0.0
 40
0.0332276502828313
 50
254.2080070177804032
 51
264.6479953140606085
  0
ARC
  5
3536D
  8
0
 10
6523.9184514601683986
 20
336.3743098781383196
 30
0.0
 40
0.0501916917154405
 50
264.2041220725939183
 51
270.1173649106427774
  0
ARC
  5
3536E
  8
0
 10
6524.0760091197844304
 20
336.1800283794308939
 30
0.0
 40
0.04467177150592
 50
77.2118963354795937
 51
90.2725467619114994
  0
ARC
  5
3536F
  8
0
 10
6524.0827893886425954
 20
336.2099005518845729
 30
0.0
 40
0.0140397827863132
 50
59.1383553227038021
 51
77.2118963354795937
  0
ARC
  5
35370
  8
0
 10
6524.0884193590209179
 20
336.2193218537718167
 30
0.0
 40
0.0030644697752328
 50
31.4661955150538297
 51
59.1383553227038021
  0
ARC
  5
35371
  8
0
 10
6524.0897313022906019
 20
336.2201247493076721
 30
0.0
 40
0.0015263422158475
 50
310.7154664999657143
 51
31.4661955150810613
  0
ARC
  5
35372
  8
0
 10
6524.0843229998317838
 20
336.2264090488303054
 30
0.0
 40
0.0098174311665902
 50
298.8841466869371857
 51
310.7154664999657143
  0
ARC
  5
35373
  8
0
 10
6524.0849478917007218
 20
336.2252763185039726
 30
0.0
 40
0.0085237666660742
 50
282.7719643776621865
 51
298.8841466869355941
  0
ARC
  5
35374
  8
0
 10
6524.0777894873681362
 20
336.2489369569171913
 30
0.0
 40
0.0332276502828313
 50
275.3520046859392778
 51
285.7919929822195968
  0
ARC
  5
35375
  8
0
 10
6524.0758224907722251
 20
336.2657586668673844
 30
0.0
 40
0.0501610067647868
 50
270.0609846364926057
 51
275.7967824541079267
  0
ARC
  5
35376
  8
0
 10
6524.075584128592709
 20
336.1800283794308939
 30
0.0
 40
0.04467177150592
 50
89.7274532380884864
 51
102.7881036645204063
  0
ARC
  5
35377
  8
0
 10
6524.068803859732725
 20
336.2099005518845729
 30
0.0
 40
0.0140397827863132
 50
102.7881036645204063
 51
120.8616446772961979
  0
ARC
  5
35378
  8
0
 10
6524.063173889357131
 20
336.2193218537718167
 30
0.0
 40
0.0030644697752328
 50
120.8616446772961979
 51
148.5338044849461028
  0
ARC
  5
35379
  8
0
 10
6524.061861946083809
 20
336.2201247493076721
 30
0.0
 40
0.0015263422158475
 50
148.5338044849189032
 51
229.2845335000342004
  0
ARC
  5
3537A
  8
0
 10
6524.0672702485453556
 20
336.2264090488303054
 30
0.0
 40
0.0098174311665902
 50
229.2845335000342004
 51
241.1158533130627006
  0
ARC
  5
3537B
  8
0
 10
6524.0666453566764176
 20
336.2252763185039726
 30
0.0
 40
0.0085237666660742
 50
241.1158533130627006
 51
257.2280356223378135
  0
ARC
  5
3537C
  8
0
 10
6524.0738037610099127
 20
336.2489369569171913
 30
0.0
 40
0.0332276502828313
 50
254.2080070177804032
 51
264.6479953140606085
  0
ARC
  5
3537D
  8
0
 10
6524.0757730684736089
 20
336.2657892749309099
 30
0.0
 40
0.0501916917154405
 50
264.2041220725939183
 51
270.1173649106427774
  0
ENDSEC
  0
EOF
