  0
SECTION
  2
HEADER
  9
$ACADVER
  1
AC1009
  9
$INSBASE
 10
4311.1684433290602101
 20
397.7686423721773963
 30
0.0
  9
$EXTMIN
 10
4310.1841919076114209
 20
393.9166985763441176
 30
0.0
  9
$EXTMAX
 10
4312.1526947505099088
 20
398.7528937936273792
 30
0.0
  9
$LIMMIN
 10
0.0
 20
0.0
  9
$LIMMAX
 10
11.6929133858000007
 20
8.2677165353999982
  9
$ORTHOMODE
 70
     0
  9
$REGENMODE
 70
     1
  9
$FILLMODE
 70
     1
  9
$QTEXTMODE
 70
     0
  9
$MIRRTEXT
 70
     0
  9
$DRAGMODE
 70
     2
  9
$LTSCALE
 40
0.6431102362
  9
$OSMODE
 70
     3
  9
$ATTMODE
 70
     1
  9
$TEXTSIZE
 40
0.2
  9
$TRACEWID
 40
0.05
  9
$TEXTSTYLE
  7
STANDARD
  9
$CLAYER
  8
0
  9
$CELTYPE
  6
BYLAYER
  9
$CECOLOR
 62
   256
  9
$DIMSCALE
 40
1.0
  9
$DIMASZ
 40
0.1875
  9
$DIMEXO
 40
0.0625
  9
$DIMDLI
 40
0.4443307087
  9
$DIMRND
 40
0.0
  9
$DIMDLE
 40
0.0
  9
$DIMEXE
 40
0.125
  9
$DIMTP
 40
0.01
  9
$DIMTM
 40
0.01
  9
$DIMTXT
 40
2.0
  9
$DIMCEN
 40
0.1052362205
  9
$DIMTSZ
 40
0.0
  9
$DIMTOL
 70
     1
  9
$DIMLIM
 70
     0
  9
$DIMTIH
 70
     1
  9
$DIMTOH
 70
     1
  9
$DIMSE1
 70
     0
  9
$DIMSE2
 70
     0
  9
$DIMTAD
 70
     0
  9
$DIMZIN
 70
     0
  9
$DIMBLK
  1

  9
$DIMASO
 70
     1
  9
$DIMSHO
 70
     1
  9
$DIMPOST
  1
\X
  9
$DIMAPOST
  1

  9
$DIMALT
 70
     1
  9
$DIMALTD
 70
     2
  9
$DIMALTF
 40
25.3999999999999986
  9
$DIMLFAC
 40
1.0
  9
$DIMTOFL
 70
     0
  9
$DIMTVP
 40
0.0
  9
$DIMTIX
 70
     0
  9
$DIMSOXD
 70
     0
  9
$DIMSAH
 70
     0
  9
$DIMBLK1
  1

  9
$DIMBLK2
  1

  9
$DIMSTYLE
  2
STANDARD
  9
$DIMCLRD
 70
     0
  9
$DIMCLRE
 70
     0
  9
$DIMCLRT
 70
     0
  9
$DIMTFAC
 40
1.0
  9
$DIMGAP
 40
0.09
  9
$LUNITS
 70
     2
  9
$LUPREC
 70
     4
  9
$SKETCHINC
 40
0.1
  9
$FILLETRAD
 40
0.0
  9
$AUNITS
 70
     0
  9
$AUPREC
 70
     0
  9
$MENU
  1
.
  9
$ELEVATION
 40
0.0
  9
$PELEVATION
 40
0.0
  9
$THICKNESS
 40
0.0
  9
$LIMCHECK
 70
     0
  9
$BLIPMODE
 70
     0
  9
$CHAMFERA
 40
0.0
  9
$CHAMFERB
 40
0.0
  9
$SKPOLY
 70
     0
  9
$TDCREATE
 40
2458060.468368056230247
  9
$TDUPDATE
 40
2459164.4847337971441448
  9
$TDINDWG
 40
1.1208866898000001
  9
$TDUSRTIMER
 40
1.1208866898000001
  9
$USRTIMER
 70
     1
  9
$ANGBASE
 50
0.0
  9
$ANGDIR
 70
     0
  9
$PDMODE
 70
     0
  9
$PDSIZE
 40
0.3125
  9
$PLINEWID
 40
0.0
  9
$COORDS
 70
     1
  9
$SPLFRAME
 70
     0
  9
$SPLINETYPE
 70
     6
  9
$SPLINESEGS
 70
     8
  9
$ATTDIA
 70
     1
  9
$ATTREQ
 70
     1
  9
$HANDLING
 70
     1
  9
$HANDSEED
  5
17A9C
  9
$SURFTAB1
 70
     6
  9
$SURFTAB2
 70
     6
  9
$SURFTYPE
 70
     6
  9
$SURFU
 70
     6
  9
$SURFV
 70
     6
  9
$UCSNAME
  2

  9
$UCSORG
 10
0.0
 20
0.0
 30
0.0
  9
$UCSXDIR
 10
1.0
 20
0.0
 30
0.0
  9
$UCSYDIR
 10
0.0
 20
1.0
 30
0.0
  9
$PUCSNAME
  2

  9
$PUCSORG
 10
0.0
 20
0.0
 30
0.0
  9
$PUCSXDIR
 10
1.0
 20
0.0
 30
0.0
  9
$PUCSYDIR
 10
0.0
 20
1.0
 30
0.0
  9
$USERI1
 70
     0
  9
$USERI2
 70
     0
  9
$USERI3
 70
     0
  9
$USERI4
 70
     0
  9
$USERI5
 70
     0
  9
$USERR1
 40
0.0
  9
$USERR2
 40
0.0
  9
$USERR3
 40
0.0
  9
$USERR4
 40
0.0
  9
$USERR5
 40
0.0
  9
$WORLDVIEW
 70
     1
  9
$SHADEDGE
 70
     3
  9
$SHADEDIF
 70
    70
  9
$TILEMODE
 70
     1
  9
$MAXACTVP
 70
    64
  9
$PLIMCHECK
 70
     0
  9
$PEXTMIN
 10
1.0000000000000000E+20
 20
1.0000000000000000E+20
 30
1.0000000000000000E+20
  9
$PEXTMAX
 10
-1.0000000000000000E+20
 20
-1.0000000000000000E+20
 30
-1.0000000000000000E+20
  9
$PLIMMIN
 10
0.0
 20
0.0
  9
$PLIMMAX
 10
12.0
 20
9.0
  9
$UNITMODE
 70
     0
  9
$VISRETAIN
 70
     1
  9
$PLINEGEN
 70
     0
  9
$PSLTSCALE
 70
     1
  0
ENDSEC
  0
SECTION
  2
TABLES
  0
TABLE
  2
VPORT
 70
     1
  0
VPORT
  2
*ACTIVE
 70
     0
 10
0.0
 20
0.0
 11
1.0
 21
1.0
 12
399.8030868837477101
 22
263.7551910824466859
 13
0.0
 23
0.0
 14
1.0
 24
1.0
 15
0.0
 25
0.0
 16
0.0
 26
0.0
 36
60.4960186965801583
 17
3911.3653564453120453
 27
132.5796051025390057
 37
0.0
 40
4.86529970204134
 41
1.9267068273092369
 42
50.0
 43
0.0
 44
0.0
 50
0.0
 51
0.0
 71
     0
 72
   100
 73
     1
 74
     1
 75
     0
 76
     0
 77
     0
 78
     0
  0
ENDTAB
  0
TABLE
  2
LTYPE
 70
     2
  0
LTYPE
  2
CONTINUOUS
 70
     0
  3
Solid line
 72
    65
 73
     0
 40
0.0
  0
LTYPE
  2
PHANTOM2
 70
     0
  3
___ _ _ ___ _ _ ___ _ _ ___ _ _
 72
    65
 73
     6
 40
1.25
 49
0.625
 49
-0.125
 49
0.125
 49
-0.125
 49
0.125
 49
-0.125
  0
ENDTAB
  0
TABLE
  2
LAYER
 70
     2
  0
LAYER
  2
0
 70
     0
 62
   255
  6
CONTINUOUS
  0
LAYER
  2
DEFPOINTS
 70
     0
 62
     7
  6
CONTINUOUS
  0
ENDTAB
  0
TABLE
  2
STYLE
 70
     1
  0
STYLE
  2
STANDARD
 70
     0
 40
0.0
 41
0.8
 50
0.0
 71
     0
 42
0.2
  3
txt
  4

  0
ENDTAB
  0
TABLE
  2
VIEW
 70
     0
  0
ENDTAB
  0
TABLE
  2
UCS
 70
     0
  0
ENDTAB
  0
TABLE
  2
APPID
 70
    10
  0
APPID
  2
ACAD
 70
     0
  0
APPID
  2
ACAD_MLEADERVER
 70
     0
  0
APPID
  2
ACAD_EXEMPT_FROM_CAD_STANDARDS
 70
     0
  0
APPID
  2
ACAD_NAV_VCDISPLAY
 70
     0
  0
APPID
  2
ACAECLAYERSTANDARD
 70
     0
  0
APPID
  2
ACCMTRANSPARENCY
 70
     0
  0
APPID
  2
ACAD_DSTYLE_DIMJAG
 70
     0
  0
APPID
  2
ACAD_DSTYLE_DIMTALN
 70
     0
  0
APPID
  2
ACDBATTR
 70
     0
  0
APPID
  2
ACADANNOTATIVE
 70
     0
  0
ENDTAB
  0
TABLE
  2
DIMSTYLE
 70
     1
  0
DIMSTYLE
  2
STANDARD
 70
     0
  3

  4

  5

  6

  7

 40
1.0
 41
0.1875
 42
0.0625
 43
0.38
 44
0.125
 45
0.0
 46
0.0
 47
0.01
 48
0.01
140
0.15625
141
0.09
142
0.0
143
25.3999999999999986
144
1.0
145
0.0
146
1.0
147
0.09
 71
     1
 72
     0
 73
     1
 74
     1
 75
     0
 76
     0
 77
     0
 78
     4
170
     0
171
     2
172
     0
173
     0
174
     0
175
     0
176
     0
177
     0
178
     0
  0
ENDTAB
  0
ENDSEC
  0
SECTION
  2
BLOCKS
  0
BLOCK
  8
0
  2
$MODEL_SPACE
 70
     0
 10
0.0
 20
0.0
 30
0.0
  3
$MODEL_SPACE
  1

  0
ENDBLK
  5
21
  8
0
  0
BLOCK
 67
     1
  8
0
  2
$PAPER_SPACE
 70
     0
 10
0.0
 20
0.0
 30
0.0
  3
$PAPER_SPACE
  1

  0
ENDBLK
  5
1D
 67
     1
  8
0
  0
ENDSEC
  0
SECTION
  2
ENTITIES
  0
ATTDEF
  5
159BF
  8
0
 10
4311.161093021583838
 20
397.7728279052294056
 30
0.0
 40
0.001
  1
K-11545IN-4
  3

  2
MODELNUMBER
 70
     0
1001
ACDBATTR
1070
     0
1070
     1
  0
ATTDEF
  5
159C0
  8
0
 10
4311.1609672119284369
 20
397.7711610648502187
 30
0.0
 40
0.001
  1
SINGULIER
  3

  2
TRADENAME
 70
     0
1001
ACDBATTR
1070
     0
1070
     1
  0
ATTDEF
  5
159C1
  8
0
 10
4311.161093021583838
 20
397.7694945718960184
 30
0.0
 40
0.001
  1
BATHROOM SINK FAUCET
  3

  2
PRODUCT
 70
     0
1001
ACDBATTR
1070
     0
1070
     1
  0
ARC
  5
179EC
  8
0
 10
4311.1684433290602101
 20
397.7686423721773963
 30
0.0
 40
0.9842514214499997
 50
297.000653921712285
 51
242.9993460782876866
  0
LINE
  5
179ED
  8
0
 10
4310.721592525410415
 20
396.9496009509592795
 30
0.0
 11
4310.721592525410415
 21
393.9815814981274116
 31
0.0
  0
ARC
  5
179EE
  8
0
 10
4310.2930668834505923
 20
396.9801946318492014
 30
0.0
 40
0.4268321244440241
 50
11.3171967654117793
 51
41.2421274494395078
  0
ARC
  5
179EF
  8
0
 10
4309.992594152357924
 20
396.9435118912434177
 30
0.0
 40
0.7290238024650517
 50
0.4785597922232851
 51
9.5096292016893482
  0
LINE
  5
179F0
  8
0
 10
4310.8105915367095804
 20
395.1074530239274054
 30
0.0
 11
4311.5262953381106854
 21
395.1074530239274054
 31
0.0
  0
ARC
  5
179F1
  8
0
 10
4310.8109603764523854
 20
395.1732899903884118
 30
0.0
 40
0.065837999631983
 50
183.2799396752039911
 51
269.6790140776830071
  0
LINE
  5
179F2
  8
0
 10
4310.743080012509381
 20
396.6978474728632023
 30
0.0
 11
4310.743080012509381
 21
395.3553870028839015
 31
0.0
  0
LINE
  5
179F3
  8
0
 10
4310.7482105600101931
 20
396.9749580511253271
 30
0.0
 11
4310.7482105600101931
 21
395.3565245667705881
 31
0.0
  0
ARC
  5
179F4
  8
0
 10
4311.3930992017058088
 20
395.2243840070271972
 30
0.0
 40
0.6495189740078828
 50
179.4409857509594133
 51
184.5891946771039898
  0
ARC
  5
179F5
  8
0
 10
4310.0436126882068493
 20
395.226081512722601
 30
0.0
 40
0.7040980935125273
 50
355.6286946239760027
 51
0.374964394358937
  0
ARC
  5
179F6
  8
0
 10
4311.2278477508243668
 20
395.204372641512407
 30
0.0
 40
0.4838741222284465
 50
180.3348053767819863
 51
184.1301273277744883
  0
ARC
  5
179F7
  8
0
 10
4289.5744123514432431
 20
395.3802387145884722
 30
0.0
 40
21.173811488201931
 50
359.5953199798385072
 51
359.9358301234718738
  0
ARC
  5
179F8
  8
0
 10
4338.2351444746973357
 20
395.4101806348375021
 30
0.0
 40
27.4921190659273194
 50
180.1141943960818139
 51
180.3740108581405934
  0
ARC
  5
179F9
  8
0
 10
4310.2756747948424163
 20
396.9748199171842202
 30
0.0
 40
0.4725357853591654
 50
0.016748979004192
 51
41.2568544119738903
  0
ARC
  5
179FA
  8
0
 10
4310.4168868395281606
 20
396.9565637463044254
 30
0.0
 40
0.320510727597642
 50
2.5333795190356652
 51
14.6024589988105706
  0
ARC
  5
179FB
  8
0
 10
4310.6345830169466353
 20
397.0151583511752165
 30
0.0
 40
0.0950915440964787
 50
13.5067913428429307
 51
37.9803430584815018
  0
ARC
  5
179FC
  8
0
 10
4302.56705626639814
 20
396.6547142093459115
 30
0.0
 40
8.176137520056022
 50
359.6979863826103951
 51
2.2150956345632329
  0
ARC
  5
179FD
  8
0
 10
4311.1585053488452104
 20
397.7675474537456921
 30
0.0
 40
0.7579656691797684
 50
318.1230707132261841
 51
359.7506075049332139
  0
ARC
  5
179FE
  8
0
 10
4311.0743702122090326
 20
398.2822652816900018
 30
0.0
 40
0.2133950859567489
 50
101.0061962676297043
 51
112.9160604437342954
  0
ARC
  5
179FF
  8
0
 10
4311.1802236491630538
 20
397.3890555244150846
 30
0.0
 40
1.106021551836156
 50
90.6102732644013855
 51
99.836291476031036
  0
ARC
  5
17A00
  8
0
 10
4311.1684433291102323
 20
398.358946934027415
 30
0.0
 40
0.1892224409000007
 50
41.5203222522214475
 51
138.4796777413199891
  0
LINE
  5
17A01
  8
0
 10
4311.6152941327090957
 20
396.9496009509592795
 30
0.0
 11
4311.6152941327090957
 21
393.9815814796435802
 31
0.0
  0
ARC
  5
17A02
  8
0
 10
4312.0438197746698279
 20
396.9801946318492014
 30
0.0
 40
0.4268321244440241
 50
138.7578725505605064
 51
168.6828032345881923
  0
ARC
  5
17A03
  8
0
 10
4312.3442925057615867
 20
396.9435118912434177
 30
0.0
 40
0.7290238024650517
 50
170.4903707983106074
 51
179.521440207776692
  0
ARC
  5
17A04
  8
0
 10
4311.5502811736078002
 20
393.9817116446893124
 30
0.0
 40
0.0650130894063228
 50
270.0461187584555773
 51
359.8852859819048717
  0
ARC
  5
17A05
  8
0
 10
4311.5259262794834285
 20
395.1732899914021004
 30
0.0
 40
0.0658380018722975
 50
270.3211764006762792
 51
356.720059552888074
  0
LINE
  5
17A06
  8
0
 10
4311.5938066456101296
 20
396.6978474728632023
 30
0.0
 11
4311.5938066456101296
 21
395.3553870028839015
 31
0.0
  0
LINE
  5
17A07
  8
0
 10
4311.588676098110227
 20
396.9749580511253271
 30
0.0
 11
4311.588676098110227
 21
395.3565245667705881
 31
0.0
  0
ARC
  5
17A08
  8
0
 10
4310.9437874564146114
 20
395.2243840070271972
 30
0.0
 40
0.6495189740078828
 50
355.4108053228960102
 51
0.5590142490405321
  0
ARC
  5
17A09
  8
0
 10
4312.2932739699126614
 20
395.226081512722601
 30
0.0
 40
0.7040980935125273
 50
179.6250356056409885
 51
184.371305376023912
  0
ARC
  5
17A0A
  8
0
 10
4311.1090389072960534
 20
395.204372641512407
 30
0.0
 40
0.4838741222284465
 50
355.8698726722254833
 51
359.6651946232179853
  0
ARC
  5
17A0B
  8
0
 10
4332.7624743066771771
 20
395.3802387145884722
 30
0.0
 40
21.173811488201931
 50
180.0641698765280125
 51
180.4046800201614928
  0
ARC
  5
17A0C
  8
0
 10
4284.1017421834249035
 20
395.4101806348375021
 30
0.0
 40
27.4921190659273194
 50
359.6259891418594066
 51
359.8858056039181861
  0
ARC
  5
17A0D
  8
0
 10
4312.0609976860587267
 20
396.9748592974049188
 30
0.0
 40
0.4723215982726918
 50
138.7040829068409096
 51
179.988020510904704
  0
ARC
  5
17A0E
  8
0
 10
4311.9199998185922595
 20
396.9565637463044254
 30
0.0
 40
0.3205107275975974
 50
165.3975410011863119
 51
177.4666204809643091
  0
ARC
  5
17A0F
  8
0
 10
4311.7023036411737849
 20
397.0151583511752165
 30
0.0
 40
0.0950915440964787
 50
142.0196569415184911
 51
166.4932086571569982
  0
ARC
  5
17A10
  8
0
 10
4319.7698303917222802
 20
396.6547142093459115
 30
0.0
 40
8.1761375200553719
 50
177.7849043654366881
 51
180.3020136173896049
  0
ARC
  5
17A11
  8
0
 10
4311.2625164459113876
 20
398.2822652816900018
 30
0.0
 40
0.2133950859567489
 50
67.0839395562656904
 51
78.9938037323702531
  0
ARC
  5
17A12
  8
0
 10
4311.1566630089573664
 20
397.3890555244150846
 30
0.0
 40
1.106021551836156
 50
80.1637085239689782
 51
89.3897267355986145
  0
LINE
  5
17A14
  8
0
 10
4310.786553153910063
 20
393.9166985763441176
 30
0.0
 11
4311.5503335042112667
 21
393.9166985763441176
 31
0.0
  0
ARC
  5
17A15
  8
0
 10
4310.7866054845117105
 20
393.9817116446893124
 30
0.0
 40
0.0650130894063228
 50
180.1147140180950998
 51
269.9538812415444227
  0
ARC
  5
17A16
  8
0
 10
4311.1684433290602101
 20
397.7686423721773963
 30
0.0
 40
0.7480334148500001
 50
359.6634294664231106
 51
80.9776807399505714
  0
ARC
  5
17A17
  8
0
 10
4311.1684433290602101
 20
397.7686423721773963
 30
0.0
 40
0.7480334148500001
 50
99.0223192503412548
 51
180.3365705335768041
  0
ARC
  5
17A18
  8
0
 10
4311.1783813092761193
 20
397.7675474537456921
 30
0.0
 40
0.7579656691797684
 50
180.2493924950667861
 51
221.8769292867737875
  0
ARC
  5
17A19
  8
0
 10
4311.1684601204096907
 20
397.7686585049273731
 30
0.0
 40
0.7221556658999991
 50
318.119995416359302
 51
221.8949403229040911
  0
ENDSEC
  0
EOF
