  0
SECTION
  2
HEADER
  9
$ACADVER
  1
AC1009
  9
$INSBASE
 10
3435.3827874470648567
 20
143.8926483851060993
 30
0.0
  9
$EXTMIN
 10
3427.1113113608339518
 20
138.8319727854114944
 30
-0.0015258207003583
  9
$EXTMAX
 10
3435.4984989020558714
 20
144.9010211471374134
 30
0.0000000349246037
  9
$LIMMIN
 10
0.0
 20
0.0
  9
$LIMMAX
 10
11.6929133858000007
 20
8.2677165353999982
  9
$ORTHOMODE
 70
     0
  9
$REGENMODE
 70
     1
  9
$FILLMODE
 70
     1
  9
$QTEXTMODE
 70
     0
  9
$MIRRTEXT
 70
     0
  9
$DRAGMODE
 70
     2
  9
$LTSCALE
 40
0.6431102362
  9
$OSMODE
 70
  2039
  9
$ATTMODE
 70
     1
  9
$TEXTSIZE
 40
0.2
  9
$TRACEWID
 40
0.05
  9
$TEXTSTYLE
  7
STANDARD
  9
$CLAYER
  8
0
  9
$CELTYPE
  6
BYLAYER
  9
$CECOLOR
 62
   256
  9
$DIMSCALE
 40
1.0
  9
$DIMASZ
 40
0.1875
  9
$DIMEXO
 40
0.0625
  9
$DIMDLI
 40
0.4443307087
  9
$DIMRND
 40
0.0
  9
$DIMDLE
 40
0.0
  9
$DIMEXE
 40
0.125
  9
$DIMTP
 40
0.01
  9
$DIMTM
 40
0.01
  9
$DIMTXT
 40
2.0
  9
$DIMCEN
 40
0.1052362205
  9
$DIMTSZ
 40
0.0
  9
$DIMTOL
 70
     1
  9
$DIMLIM
 70
     0
  9
$DIMTIH
 70
     1
  9
$DIMTOH
 70
     1
  9
$DIMSE1
 70
     0
  9
$DIMSE2
 70
     0
  9
$DIMTAD
 70
     0
  9
$DIMZIN
 70
     0
  9
$DIMBLK
  1

  9
$DIMASO
 70
     1
  9
$DIMSHO
 70
     1
  9
$DIMPOST
  1
\X
  9
$DIMAPOST
  1

  9
$DIMALT
 70
     1
  9
$DIMALTD
 70
     2
  9
$DIMALTF
 40
25.3999999999999986
  9
$DIMLFAC
 40
1.0
  9
$DIMTOFL
 70
     0
  9
$DIMTVP
 40
0.0
  9
$DIMTIX
 70
     0
  9
$DIMSOXD
 70
     0
  9
$DIMSAH
 70
     0
  9
$DIMBLK1
  1

  9
$DIMBLK2
  1

  9
$DIMSTYLE
  2
STANDARD
  9
$DIMCLRD
 70
     0
  9
$DIMCLRE
 70
     0
  9
$DIMCLRT
 70
     0
  9
$DIMTFAC
 40
1.0
  9
$DIMGAP
 40
0.09
  9
$LUNITS
 70
     2
  9
$LUPREC
 70
     4
  9
$SKETCHINC
 40
0.1
  9
$FILLETRAD
 40
0.0
  9
$AUNITS
 70
     0
  9
$AUPREC
 70
     0
  9
$MENU
  1
.
  9
$ELEVATION
 40
0.0
  9
$PELEVATION
 40
0.0
  9
$THICKNESS
 40
0.0
  9
$LIMCHECK
 70
     0
  9
$BLIPMODE
 70
     0
  9
$CHAMFERA
 40
0.0
  9
$CHAMFERB
 40
0.0
  9
$SKPOLY
 70
     0
  9
$TDCREATE
 40
2458060.468368056230247
  9
$TDUPDATE
 40
2459166.3671064819209278
  9
$TDINDWG
 40
0.5749260416999999
  9
$TDUSRTIMER
 40
0.5749260416999999
  9
$USRTIMER
 70
     1
  9
$ANGBASE
 50
0.0
  9
$ANGDIR
 70
     0
  9
$PDMODE
 70
     0
  9
$PDSIZE
 40
0.3125
  9
$PLINEWID
 40
0.0
  9
$COORDS
 70
     1
  9
$SPLFRAME
 70
     0
  9
$SPLINETYPE
 70
     6
  9
$SPLINESEGS
 70
     8
  9
$ATTDIA
 70
     1
  9
$ATTREQ
 70
     1
  9
$HANDLING
 70
     1
  9
$HANDSEED
  5
17A0B
  9
$SURFTAB1
 70
     6
  9
$SURFTAB2
 70
     6
  9
$SURFTYPE
 70
     6
  9
$SURFU
 70
     6
  9
$SURFV
 70
     6
  9
$UCSNAME
  2

  9
$UCSORG
 10
0.0
 20
0.0
 30
0.0
  9
$UCSXDIR
 10
1.0
 20
0.0
 30
0.0
  9
$UCSYDIR
 10
0.0
 20
1.0
 30
0.0
  9
$PUCSNAME
  2

  9
$PUCSORG
 10
0.0
 20
0.0
 30
0.0
  9
$PUCSXDIR
 10
1.0
 20
0.0
 30
0.0
  9
$PUCSYDIR
 10
0.0
 20
1.0
 30
0.0
  9
$USERI1
 70
     0
  9
$USERI2
 70
     0
  9
$USERI3
 70
     0
  9
$USERI4
 70
     0
  9
$USERI5
 70
     0
  9
$USERR1
 40
0.0
  9
$USERR2
 40
0.0
  9
$USERR3
 40
0.0
  9
$USERR4
 40
0.0
  9
$USERR5
 40
0.0
  9
$WORLDVIEW
 70
     1
  9
$SHADEDGE
 70
     3
  9
$SHADEDIF
 70
    70
  9
$TILEMODE
 70
     1
  9
$MAXACTVP
 70
    64
  9
$PLIMCHECK
 70
     0
  9
$PEXTMIN
 10
1.0000000000000000E+20
 20
1.0000000000000000E+20
 30
1.0000000000000000E+20
  9
$PEXTMAX
 10
-1.0000000000000000E+20
 20
-1.0000000000000000E+20
 30
-1.0000000000000000E+20
  9
$PLIMMIN
 10
0.0
 20
0.0
  9
$PLIMMAX
 10
12.0
 20
9.0
  9
$UNITMODE
 70
     0
  9
$VISRETAIN
 70
     1
  9
$PLINEGEN
 70
     0
  9
$PSLTSCALE
 70
     1
  0
ENDSEC
  0
SECTION
  2
TABLES
  0
TABLE
  2
VPORT
 70
     1
  0
VPORT
  2
*ACTIVE
 70
     0
 10
0.0
 20
0.0
 11
1.0
 21
1.0
 12
127.611789897069599
 22
-53.3950146096133267
 13
0.0
 23
0.0
 14
1.0
 24
1.0
 15
0.0
 25
0.0
 16
0.0
 26
0.0
 36
96.5995694866707311
 17
3303.693115234375
 27
195.2615115758877096
 37
0.0
 40
6.119553618550241
 41
2.6486111111111108
 42
50.0
 43
0.0
 44
0.0
 50
0.0
 51
0.0
 71
     0
 72
   100
 73
     1
 74
     1
 75
     0
 76
     0
 77
     0
 78
     0
  0
ENDTAB
  0
TABLE
  2
LTYPE
 70
     2
  0
LTYPE
  2
CONTINUOUS
 70
     0
  3
Solid line
 72
    65
 73
     0
 40
0.0
  0
LTYPE
  2
PHANTOM2
 70
     0
  3
___ _ _ ___ _ _ ___ _ _ ___ _ _
 72
    65
 73
     6
 40
1.25
 49
0.625
 49
-0.125
 49
0.125
 49
-0.125
 49
0.125
 49
-0.125
  0
ENDTAB
  0
TABLE
  2
LAYER
 70
     2
  0
LAYER
  2
0
 70
     0
 62
   255
  6
CONTINUOUS
  0
LAYER
  2
DEFPOINTS
 70
     0
 62
     7
  6
CONTINUOUS
  0
ENDTAB
  0
TABLE
  2
STYLE
 70
     1
  0
STYLE
  2
STANDARD
 70
     0
 40
0.0
 41
0.8
 50
0.0
 71
     0
 42
0.2
  3
txt
  4

  0
ENDTAB
  0
TABLE
  2
VIEW
 70
     0
  0
ENDTAB
  0
TABLE
  2
UCS
 70
     0
  0
ENDTAB
  0
TABLE
  2
APPID
 70
     9
  0
APPID
  2
ACAD
 70
     0
  0
APPID
  2
ACAD_MLEADERVER
 70
     0
  0
APPID
  2
ACAD_EXEMPT_FROM_CAD_STANDARDS
 70
     0
  0
APPID
  2
ACAD_NAV_VCDISPLAY
 70
     0
  0
APPID
  2
ACAECLAYERSTANDARD
 70
     0
  0
APPID
  2
ACCMTRANSPARENCY
 70
     0
  0
APPID
  2
ACAD_DSTYLE_DIMJAG
 70
     0
  0
APPID
  2
ACAD_DSTYLE_DIMTALN
 70
     0
  0
APPID
  2
ACDBATTR
 70
     0
  0
ENDTAB
  0
TABLE
  2
DIMSTYLE
 70
     1
  0
DIMSTYLE
  2
STANDARD
 70
     0
  3

  4

  5

  6

  7

 40
1.0
 41
0.1875
 42
0.0625
 43
0.38
 44
0.125
 45
0.0
 46
0.0
 47
0.01
 48
0.01
140
0.15625
141
0.09
142
0.0
143
25.3999999999999986
144
1.0
145
0.0
146
1.0
147
0.09
 71
     1
 72
     0
 73
     1
 74
     1
 75
     0
 76
     0
 77
     0
 78
     4
170
     0
171
     2
172
     0
173
     0
174
     0
175
     0
176
     0
177
     0
178
     0
  0
ENDTAB
  0
ENDSEC
  0
SECTION
  2
BLOCKS
  0
BLOCK
  8
0
  2
$MODEL_SPACE
 70
     0
 10
0.0
 20
0.0
 30
0.0
  3
$MODEL_SPACE
  1

  0
ENDBLK
  5
21
  8
0
  0
BLOCK
 67
     1
  8
0
  2
$PAPER_SPACE
 70
     0
 10
0.0
 20
0.0
 30
0.0
  3
$PAPER_SPACE
  1

  0
ENDBLK
  5
1D
 67
     1
  8
0
  0
BLOCK
  8
0
  2
_FILLED
 70
     0
 10
0.0
 20
0.0
 30
0.0
  3
_FILLED
  1

  0
SOLID
  5
9E2C
  8
0
  6
BYBLOCK
 62
     0
 10
0.0
 20
0.0
 30
0.0
 11
-1.0
 21
0.1666666667
 31
0.0
 12
-1.0
 22
-0.1666666667
 32
0.0
 13
-1.0
 23
-0.1666666667
 33
0.0
  0
ENDBLK
  5
9E2D
  8
0
  6
BYBLOCK
 62
     0
  0
BLOCK
  8
0
  2
A$C6B0F1CD5
 70
     2
 10
0.0
 20
0.0
 30
0.0
  3
A$C6B0F1CD5
  1

  0
ATTDEF
  5
B779
  8
DEFPOINTS
 10
0.0005209962714616
 20
0.000347009907216
 30
0.0
 40
0.001
  1
BATH FAUCET
  3

  2
PRODUCT
 70
     0
1001
ACDBATTR
1070
     0
1070
     1
  0
ATTDEF
  5
B77A
  8
DEFPOINTS
 10
0.0005209962714616
 20
0.0020136765738812
 30
0.0
 40
0.001
  1
SINGULIER
  3

  2
TRADENAME
 70
     0
1001
ACDBATTR
1070
     0
1070
     1
  0
ATTDEF
  5
B77B
  8
DEFPOINTS
 10
0.0005209962714616
 20
0.0036803432405463
 30
0.0
 40
0.001
  1
K-10873W
  3

  2
MODELNUMBER
 70
     0
1001
ACDBATTR
1070
     0
1070
     1
  0
ENDBLK
  5
B77F
  8
0
  0
ENDSEC
  0
SECTION
  2
ENTITIES
  0
ATTDEF
  5
1642E
  8
DEFPOINTS
 10
3435.3829843424809951
 20
143.8964070595104943
 30
0.0
 40
0.001
  1
K-11560T
  3

  2
MODELNUMBER
 70
     0
1001
ACDBATTR
1070
     0
1070
     1
  0
ATTDEF
  5
1642F
  8
DEFPOINTS
 10
3435.3829843424809951
 20
143.8947403928438007
 30
0.0
 40
0.001
  1
ELEVATION
  3

  2
TRADENAME
 70
     0
1001
ACDBATTR
1070
     0
1070
     1
  0
ATTDEF
  5
16430
  8
DEFPOINTS
 10
3435.3829843424809951
 20
143.8930737261771924
 30
0.0
 40
0.001
  1
BATH SPOUT
  3

  2
PRODUCT
 70
     0
1001
ACDBATTR
1070
     0
1070
     1
  0
LINE
  5
176CE
  8
0
 10
3435.3827877058411104
 20
144.8965854437668952
 30
0.0
 11
3435.3827871882899672
 21
142.8887113772561008
 31
0.0
  0
LINE
  5
176CF
  8
0
 10
3435.382786701184159
 20
140.9989476476561094
 30
0.0
 11
3435.382786143040903
 21
138.8335933168561098
 31
0.0
  0
LINE
  5
176D0
  8
0
 10
3435.382786143040903
 20
138.8335933168561098
 30
0.0
 11
3435.2451064013412179
 21
138.8335933168561098
 31
0.0
  0
ARC
  5
176D1
  8
0
 10
3435.2451064317951932
 20
138.9517035847840134
 30
0.0
 40
0.1181102679278709
 50
182.3519948440331859
 51
269.999985226573699
  0
ARC
  5
176D2
  8
0
 10
3458.7292426893282027
 20
139.9162705070750121
 30
0.0
 40
23.6220470681736501
 50
177.6480051559668141
 51
182.3519948440331859
  0
ARC
  5
176D3
  8
0
 10
3435.2451063801499913
 20
140.8808374314149887
 30
0.0
 40
0.1181102162422159
 50
89.9997484777835552
 51
177.648005120937313
  0
LINE
  5
176D4
  8
0
 10
3435.2451068986410974
 20
140.9989476476561094
 30
0.0
 11
3435.3827867011827948
 21
140.9989476476561094
 31
0.0
  0
LINE
  5
176D5
  8
0
 10
3435.3827871882899672
 20
142.8887113772561008
 30
0.0
 11
3435.185936804740777
 21
142.8887114280560979
 31
0.0
  0
ARC
  5
176D6
  8
0
 10
3435.1859368149011971
 20
142.9280815169161087
 30
0.0
 40
0.0393700888600037
 50
180.0000147859767026
 51
269.999985214015112
  0
ARC
  5
176D7
  8
0
 10
1768541.8159331888891757
 20
143.383591975140007
 30
0.0
 40
1765106.669366521993652
 50
179.999952242176704
 51
180.0000147859767026
  0
ARC
  5
176D8
  8
0
 10
3435.1859855832058201
 20
144.8571035731816892
 30
0.0
 40
0.039481900093617
 50
90.070050554749173
 51
183.252496228783798
  0
LINE
  5
176D9
  8
0
 10
3435.1859373121410499
 20
144.8965854437668952
 30
0.0
 11
3435.3827877058411104
 21
144.8965854437668952
 31
0.0
  0
ARC
  5
176DA
  8
0
 10
3449.3536738108491591
 20
-136.1641885922471999
 30
0.0
 40
281.1443790465310144
 50
92.8965690020013284
 51
93.4677895138465118
  0
ARC
  5
176DB
  8
0
 10
3433.0647612908469455
 20
130.1500095826702079
 30
0.0
 40
14.3333280726370305
 50
92.8664380016480777
 51
99.9042906106061253
  0
ARC
  5
176DC
  8
0
 10
3431.302139584483939
 20
139.6957801180344063
 30
0.0
 40
4.6276114458490403
 50
98.7347665715566478
 51
124.1473439273748056
  0
ARC
  5
176DD
  8
0
 10
3430.1801072784278404
 20
141.3500687862706116
 30
0.0
 40
2.6287048713214261
 50
124.1473439273737966
 51
147.5091720499846133
  0
ARC
  5
176DE
  8
0
 10
3430.7316330843791548
 20
140.8791187547687116
 30
0.0
 40
3.3484050033496269
 50
145.7810797782576913
 51
159.281863130209814
  0
LINE
  5
176DF
  8
0
 10
3427.5997624271408313
 20
142.0636871372560961
 30
0.0
 11
3427.3906085083908692
 21
141.4904099195420883
 31
0.0
  0
ARC
  5
176E0
  8
0
 10
3428.149864011551017
 20
141.2817658983398985
 30
0.0
 40
0.7874015790323345
 50
164.6343600562414053
 51
174.8207969595526095
  0
LINE
  5
176E1
  8
0
 10
3427.3656772117410583
 20
141.352845499256091
 30
0.0
 11
3428.1795842061360418
 21
141.0566094732677982
 31
0.0
  0
ARC
  5
176E2
  8
0
 10
3427.5332950742549656
 20
141.5061604111855047
 30
0.0
 40
0.7872646872377139
 50
325.1779903210397151
 51
335.3660829604373248
  0
ARC
  5
176E3
  8
0
 10
3548.6766884683602257
 20
97.5082369421165254
 30
0.0
 40
128.1011284644839918
 50
159.7952964289000874
 51
160.068235091911788
  0
ARC
  5
176E4
  8
0
 10
3430.3727756970301925
 20
141.0118803604615039
 30
0.0
 40
2.0522633914686099
 50
108.7376111658191036
 51
158.8848431882898922
  0
ARC
  5
176E5
  8
0
 10
3431.3946097675698184
 20
137.9661388850880996
 30
0.0
 40
5.2648388683911227
 50
91.4459698564416072
 51
108.6209330333606005
  0
ARC
  5
176E6
  8
0
 10
3432.3277592224690125
 20
104.7481064554581991
 30
0.0
 40
38.4959571457629579
 50
87.2080175811799734
 51
91.5867984242806585
  0
ARC
  5
176E7
  8
0
 10
3419.3599494110831074
 20
-277.9765923703437238
 30
0.0
 40
421.4364245239403886
 50
87.9229789752252344
 51
87.9816310484421678
  0
ARC
  5
176E8
  8
0
 10
3434.7289583217670952
 20
142.5400675869134091
 30
0.0
 40
0.6498550245398353
 50
77.440758489037492
 51
98.3992015214972042
  0
LINE
  5
176E9
  8
0
 10
3434.8702686135411568
 20
143.1743726825561112
 30
0.0
 11
3435.1465666810317998
 21
143.1643021837778065
 31
0.0
  0
LINE
  5
176EA
  8
0
 10
3434.6532197092719798
 20
143.185493969622712
 30
0.0
 11
3434.654440807741139
 21
143.1842728710560948
 31
0.0
  0
LINE
  5
176EB
  8
0
 10
3434.654440807741139
 20
143.1842728710560948
 30
0.0
 11
3434.8144633204638012
 21
143.1842728710560948
 31
0.0
  0
LINE
  5
176EC
  8
0
 10
3435.3827873118411844
 20
139.7739476795561018
 30
0.0
 11
3435.3237321937408524
 21
139.7739477180606968
 31
0.0
  0
LINE
  5
176ED
  8
0
 10
3435.3237321937408524
 20
139.7739477180606968
 30
0.0
 11
3435.3237318184410469
 21
139.1983439538560958
 31
0.0
  0
LINE
  5
176EE
  8
0
 10
3435.3237318184410469
 20
139.1983439538560958
 30
0.0
 11
3435.3827857674300503
 21
139.1983439538560958
 31
0.0
  0
LINE
  5
176EF
  8
0
 10
3435.3827868868411315
 20
139.2385917333560883
 30
0.0
 11
3435.3237318446831523
 21
139.2385917486560913
 31
0.0
  0
LINE
  5
176F0
  8
0
 10
3435.3434162363409996
 20
139.2385917435560998
 30
0.0
 11
3435.3434161912409763
 21
139.3257192910456865
 31
0.0
  0
ARC
  5
176F1
  8
0
 10
3435.3237311520688309
 20
139.3257192808561058
 30
0.0
 40
0.0196850391721908
 50
0.0000296581242297
 51
29.9999855948544294
  0
ARC
  5
176F2
  8
0
 10
3435.3252204520608757
 20
139.2490352803885969
 30
0.0
 40
0.0879141808114
 50
79.8064982632865281
 51
90.9701656888392307
  0
LINE
  5
176F3
  8
0
 10
3435.3237319238091914
 20
139.3599494437561077
 30
0.0
 11
3435.3434166319411815
 21
139.3599494403561039
 31
0.0
  0
LINE
  5
176F4
  8
0
 10
3435.3434166319411815
 20
139.3599494403561039
 30
0.0
 11
3435.3434166316760638
 21
139.4851680233560955
 31
0.0
  0
LINE
  5
176F5
  8
0
 10
3435.3434166316760638
 20
139.4851680233560955
 30
0.0
 11
3435.3237320054531665
 21
139.4851680266561118
 31
0.0
  0
LINE
  5
176F6
  8
0
 10
3435.3827862600278422
 20
139.5005570904586136
 30
0.0
 11
3435.3237320158259536
 21
139.5010766509433893
 31
0.0
  0
LINE
  5
176F7
  8
0
 10
3435.3827855417412138
 20
139.4175042104560873
 30
0.0
 11
3435.343416694726784
 21
139.4175042534033082
 31
0.0
  0
LINE
  5
176F8
  8
0
 10
3435.1270961627810721
 20
140.8856844843990075
 30
0.0
 11
3435.1270961627810721
 21
138.9468443874575883
 31
0.0
  0
LINE
  5
176FA
  8
0
 10
3427.3906069442568878
 20
141.4904042275780114
 30
0.0
 11
3428.2489084174690106
 21
141.178008039331786
 31
0.0
  0
ENDSEC
  0
EOF
