  0
SECTION
  2
HEADER
  9
$ACADVER
  1
AC1009
  9
$INSBASE
 10
4422.802170887693137
 20
33.4687170976354622
 30
0.0
  9
$EXTMIN
 10
4421.7194937235417456
 20
28.4096619745270615
 30
0.0
  9
$EXTMAX
 10
4423.884848051843619
 20
34.4726541059999434
 30
0.0
  9
$LIMMIN
 10
0.0
 20
0.0
  9
$LIMMAX
 10
11.6929133858000007
 20
8.2677165353999982
  9
$ORTHOMODE
 70
     0
  9
$REGENMODE
 70
     1
  9
$FILLMODE
 70
     1
  9
$QTEXTMODE
 70
     0
  9
$MIRRTEXT
 70
     0
  9
$DRAGMODE
 70
     2
  9
$LTSCALE
 40
0.6431102362
  9
$OSMODE
 70
  4095
  9
$ATTMODE
 70
     1
  9
$TEXTSIZE
 40
0.2
  9
$TRACEWID
 40
0.05
  9
$TEXTSTYLE
  7
STANDARD
  9
$CLAYER
  8
0
  9
$CELTYPE
  6
BYLAYER
  9
$CECOLOR
 62
   256
  9
$DIMSCALE
 40
1.0
  9
$DIMASZ
 40
0.1875
  9
$DIMEXO
 40
0.0625
  9
$DIMDLI
 40
0.4443307087
  9
$DIMRND
 40
0.0
  9
$DIMDLE
 40
0.0
  9
$DIMEXE
 40
0.125
  9
$DIMTP
 40
0.01
  9
$DIMTM
 40
0.01
  9
$DIMTXT
 40
2.0
  9
$DIMCEN
 40
0.1052362205
  9
$DIMTSZ
 40
0.0
  9
$DIMTOL
 70
     1
  9
$DIMLIM
 70
     0
  9
$DIMTIH
 70
     1
  9
$DIMTOH
 70
     1
  9
$DIMSE1
 70
     0
  9
$DIMSE2
 70
     0
  9
$DIMTAD
 70
     0
  9
$DIMZIN
 70
     0
  9
$DIMBLK
  1

  9
$DIMASO
 70
     1
  9
$DIMSHO
 70
     1
  9
$DIMPOST
  1
\X
  9
$DIMAPOST
  1

  9
$DIMALT
 70
     1
  9
$DIMALTD
 70
     2
  9
$DIMALTF
 40
25.3999999999999986
  9
$DIMLFAC
 40
1.0
  9
$DIMTOFL
 70
     0
  9
$DIMTVP
 40
0.0
  9
$DIMTIX
 70
     0
  9
$DIMSOXD
 70
     0
  9
$DIMSAH
 70
     0
  9
$DIMBLK1
  1

  9
$DIMBLK2
  1

  9
$DIMSTYLE
  2
STANDARD
  9
$DIMCLRD
 70
     0
  9
$DIMCLRE
 70
     0
  9
$DIMCLRT
 70
     0
  9
$DIMTFAC
 40
1.0
  9
$DIMGAP
 40
0.09
  9
$LUNITS
 70
     2
  9
$LUPREC
 70
     4
  9
$SKETCHINC
 40
0.1
  9
$FILLETRAD
 40
0.0
  9
$AUNITS
 70
     0
  9
$AUPREC
 70
     0
  9
$MENU
  1
.
  9
$ELEVATION
 40
0.0
  9
$PELEVATION
 40
0.0
  9
$THICKNESS
 40
0.0
  9
$LIMCHECK
 70
     0
  9
$BLIPMODE
 70
     0
  9
$CHAMFERA
 40
0.0
  9
$CHAMFERB
 40
0.0
  9
$SKPOLY
 70
     0
  9
$TDCREATE
 40
2458060.468368056230247
  9
$TDUPDATE
 40
2459163.8511111121624708
  9
$TDINDWG
 40
0.4470672454
  9
$TDUSRTIMER
 40
0.4470672454
  9
$USRTIMER
 70
     1
  9
$ANGBASE
 50
0.0
  9
$ANGDIR
 70
     0
  9
$PDMODE
 70
     0
  9
$PDSIZE
 40
0.3125
  9
$PLINEWID
 40
0.0
  9
$COORDS
 70
     1
  9
$SPLFRAME
 70
     0
  9
$SPLINETYPE
 70
     6
  9
$SPLINESEGS
 70
     8
  9
$ATTDIA
 70
     1
  9
$ATTREQ
 70
     1
  9
$HANDLING
 70
     1
  9
$HANDSEED
  5
12A2E
  9
$SURFTAB1
 70
     6
  9
$SURFTAB2
 70
     6
  9
$SURFTYPE
 70
     6
  9
$SURFU
 70
     6
  9
$SURFV
 70
     6
  9
$UCSNAME
  2

  9
$UCSORG
 10
0.0
 20
0.0
 30
0.0
  9
$UCSXDIR
 10
1.0
 20
0.0
 30
0.0
  9
$UCSYDIR
 10
0.0
 20
1.0
 30
0.0
  9
$PUCSNAME
  2

  9
$PUCSORG
 10
0.0
 20
0.0
 30
0.0
  9
$PUCSXDIR
 10
1.0
 20
0.0
 30
0.0
  9
$PUCSYDIR
 10
0.0
 20
1.0
 30
0.0
  9
$USERI1
 70
     0
  9
$USERI2
 70
     0
  9
$USERI3
 70
     0
  9
$USERI4
 70
     0
  9
$USERI5
 70
     0
  9
$USERR1
 40
0.0
  9
$USERR2
 40
0.0
  9
$USERR3
 40
0.0
  9
$USERR4
 40
0.0
  9
$USERR5
 40
0.0
  9
$WORLDVIEW
 70
     1
  9
$SHADEDGE
 70
     3
  9
$SHADEDIF
 70
    70
  9
$TILEMODE
 70
     1
  9
$MAXACTVP
 70
    64
  9
$PLIMCHECK
 70
     0
  9
$PEXTMIN
 10
1.0000000000000000E+20
 20
1.0000000000000000E+20
 30
1.0000000000000000E+20
  9
$PEXTMAX
 10
-1.0000000000000000E+20
 20
-1.0000000000000000E+20
 30
-1.0000000000000000E+20
  9
$PLIMMIN
 10
0.0
 20
0.0
  9
$PLIMMAX
 10
12.0
 20
9.0
  9
$UNITMODE
 70
     0
  9
$VISRETAIN
 70
     1
  9
$PLINEGEN
 70
     0
  9
$PSLTSCALE
 70
     1
  0
ENDSEC
  0
SECTION
  2
TABLES
  0
TABLE
  2
VPORT
 70
     1
  0
VPORT
  2
*ACTIVE
 70
     0
 10
0.0
 20
0.0
 11
1.0
 21
1.0
 12
630.444260731443137
 22
-88.7394983928419663
 13
0.0
 23
0.0
 14
1.0
 24
1.0
 15
0.0
 25
0.0
 16
0.0
 26
0.0
 36
5.1040778033513332
 17
3792.35791015625
 27
120.1806564331053977
 37
0.0
 40
6.1402277000266556
 41
2.8872340425531919
 42
50.0
 43
0.0
 44
0.0
 50
0.0
 51
0.0
 71
     0
 72
   100
 73
     1
 74
     1
 75
     0
 76
     0
 77
     0
 78
     0
  0
ENDTAB
  0
TABLE
  2
LTYPE
 70
     2
  0
LTYPE
  2
CONTINUOUS
 70
     0
  3
Solid line
 72
    65
 73
     0
 40
0.0
  0
LTYPE
  2
PHANTOM2
 70
     0
  3
___ _ _ ___ _ _ ___ _ _ ___ _ _
 72
    65
 73
     6
 40
1.25
 49
0.625
 49
-0.125
 49
0.125
 49
-0.125
 49
0.125
 49
-0.125
  0
ENDTAB
  0
TABLE
  2
LAYER
 70
     2
  0
LAYER
  2
0
 70
     0
 62
   255
  6
CONTINUOUS
  0
LAYER
  2
DEFPOINTS
 70
     0
 62
     7
  6
CONTINUOUS
  0
ENDTAB
  0
TABLE
  2
STYLE
 70
     1
  0
STYLE
  2
STANDARD
 70
     0
 40
0.0
 41
0.8
 50
0.0
 71
     0
 42
0.2
  3
txt
  4

  0
ENDTAB
  0
TABLE
  2
VIEW
 70
     0
  0
ENDTAB
  0
TABLE
  2
UCS
 70
     0
  0
ENDTAB
  0
TABLE
  2
APPID
 70
     9
  0
APPID
  2
ACAD
 70
     0
  0
APPID
  2
ACAD_MLEADERVER
 70
     0
  0
APPID
  2
ACAD_EXEMPT_FROM_CAD_STANDARDS
 70
     0
  0
APPID
  2
ACAD_NAV_VCDISPLAY
 70
     0
  0
APPID
  2
ACAECLAYERSTANDARD
 70
     0
  0
APPID
  2
ACCMTRANSPARENCY
 70
     0
  0
APPID
  2
ACAD_DSTYLE_DIMJAG
 70
     0
  0
APPID
  2
ACAD_DSTYLE_DIMTALN
 70
     0
  0
APPID
  2
ACDBATTR
 70
     0
  0
ENDTAB
  0
TABLE
  2
DIMSTYLE
 70
     1
  0
DIMSTYLE
  2
STANDARD
 70
     0
  3

  4

  5

  6

  7

 40
1.0
 41
0.1875
 42
0.0625
 43
0.38
 44
0.125
 45
0.0
 46
0.0
 47
0.01
 48
0.01
140
0.15625
141
0.09
142
0.0
143
25.3999999999999986
144
1.0
145
0.0
146
1.0
147
0.09
 71
     1
 72
     0
 73
     1
 74
     1
 75
     0
 76
     0
 77
     0
 78
     4
170
     0
171
     2
172
     0
173
     0
174
     0
175
     0
176
     0
177
     0
178
     0
  0
ENDTAB
  0
ENDSEC
  0
SECTION
  2
BLOCKS
  0
BLOCK
  8
0
  2
$MODEL_SPACE
 70
     0
 10
0.0
 20
0.0
 30
0.0
  3
$MODEL_SPACE
  1

  0
ENDBLK
  5
21
  8
0
  0
BLOCK
 67
     1
  8
0
  2
$PAPER_SPACE
 70
     0
 10
0.0
 20
0.0
 30
0.0
  3
$PAPER_SPACE
  1

  0
ENDBLK
  5
1D
 67
     1
  8
0
  0
ENDSEC
  0
SECTION
  2
ENTITIES
  0
ATTDEF
  5
3930
  8
DEFPOINTS
 10
4422.7975183892858695
 20
33.4737191239660703
 30
0.0
 40
0.001
  1
K-11602T
  3

  2
MODELNUMBER
 70
     0
1001
ACDBATTR
1070
     0
1070
     1
  0
ATTDEF
  5
3931
  8
DEFPOINTS
 10
4422.7975183892858695
 20
33.472052457299398
 30
0.0
 40
0.001
  1
ELEVATION
  3

  2
TRADENAME
 70
     0
1001
ACDBATTR
1070
     0
1070
     1
  0
ATTDEF
  5
3932
  8
DEFPOINTS
 10
4422.7975183892858695
 20
33.4703857906327329
 30
0.0
 40
0.001
  1
BATH FAUCET
  3

  2
PRODUCT
 70
     0
1001
ACDBATTR
1070
     0
1070
     1
  0
CIRCLE
  5
1282D
  8
0
 10
4422.802170887693137
 20
29.4923391386784886
 30
0.0
 40
1.0826771641514259
  0
ARC
  5
1282E
  8
0
 10
4422.802170887693137
 20
33.4687170976354622
 30
0.0
 40
1.003937008364475
 50
298.7636523619444802
 51
241.2363476380554914
  0
ARC
  5
1282F
  8
0
 10
4422.810007816752659
 20
32.1253435392903484
 30
0.0
 40
1.4926877422998981
 50
266.5101619819135976
 51
269.6991835534640245
  0
ARC
  5
12830
  8
0
 10
4422.7913687482696332
 20
31.7215752969820315
 30
0.0
 40
1.088550045449121
 50
258.2035521522486192
 51
266.1957466781822177
  0
ARC
  5
12831
  8
0
 10
4422.6831528053271541
 20
31.2034143157027302
 30
0.0
 40
0.5592094246506174
 50
243.5970511166777044
 51
258.2035521522486192
  0
ARC
  5
12832
  8
0
 10
4422.4963716646871035
 20
30.8271947678282707
 30
0.0
 40
0.1391756846943429
 50
205.8414629209966904
 51
243.5970511166777044
  0
ARC
  5
12833
  8
0
 10
4423.073035414127844
 20
30.9658657585945285
 30
0.0
 40
0.7296776966715118
 50
184.3688976097978127
 51
195.8537372250908959
  0
ARC
  5
12834
  8
0
 10
4397.7308275808063627
 20
31.4455041644986686
 30
0.0
 40
24.61481030651073
 50
0.100021467665457
 51
3.4851298077924091
  0
ARC
  5
12835
  8
0
 10
4422.8021708536925871
 20
33.4687171346854697
 30
0.0
 40
0.7277870573966116
 50
313.6173169753453749
 51
226.3826908747498976
  0
LINE
  5
12836
  8
0
 10
4422.3454779773928749
 20
30.9102805332854587
 30
0.0
 11
4422.3456003807286834
 21
31.4884743138464493
 31
0.0
  0
ARC
  5
12837
  8
0
 10
4422.8019771582512476
 20
31.7828429438716817
 30
0.0
 40
1.1373744984852261
 50
265.2329624908587107
 51
270.0097592124977837
  0
ARC
  5
12838
  8
0
 10
4422.7847627678129356
 20
31.5764180920563788
 30
0.0
 40
0.9302331103341662
 50
256.1430093167666087
 51
265.2329624908587107
  0
ARC
  5
12839
  8
0
 10
4422.6622840692289174
 20
31.0799066492585503
 30
0.0
 40
0.4188383074314652
 50
240.1249358537918965
 51
256.1430093167666087
  0
ARC
  5
1283A
  8
0
 10
4422.5120181075535584
 20
30.8183227531097508
 30
0.0
 40
0.1171663101190387
 50
216.7774791404239068
 51
240.1249358537918965
  0
ARC
  5
1283B
  8
0
 10
4422.4618543069000225
 20
30.7808261789837907
 30
0.0
 40
0.0545372436459861
 50
150.7174615195116019
 51
216.7774791404239068
  0
ARC
  5
1283C
  8
0
 10
4422.5528154771600384
 20
30.7012740159668382
 30
0.0
 40
0.1745699399351536
 50
109.8661028077356008
 51
142.5182869930085019
  0
ARC
  5
1283D
  8
0
 10
4422.7487989018090957
 20
30.2041727313067199
 30
0.0
 40
0.7088552802294033
 50
94.6919750939885461
 51
111.1104576583042984
  0
ARC
  5
1283E
  8
0
 10
4422.8015002494794317
 20
29.793509764404881
 30
0.0
 40
1.122612632765813
 50
89.9657720389068203
 51
95.6583187925974556
  0
ARC
  5
1283F
  8
0
 10
4422.8019542322717825
 20
31.6463124206467583
 30
0.0
 40
0.9810710993839125
 50
265.555101063025802
 51
270.0126529476871156
  0
ARC
  5
12840
  8
0
 10
4422.7870098882158345
 20
31.4540629618412488
 30
0.0
 40
0.7882416726091808
 50
254.0608013420103077
 51
265.555101063025802
  0
ARC
  5
12841
  8
0
 10
4422.650972401915169
 20
30.9777367237756316
 30
0.0
 40
0.2928702132487545
 50
237.5032972127289099
 51
254.060801342010393
  0
ARC
  5
12842
  8
0
 10
4422.557290466816994
 20
30.8306668653069202
 30
0.0
 40
0.1184974853529151
 50
210.3293492093143868
 51
237.5032972127289099
  0
ARC
  5
12843
  8
0
 10
4422.5104947597928913
 20
30.7999330622589618
 30
0.0
 40
0.0626537510141972
 50
180.3144740930167984
 51
207.6790902487209109
  0
LINE
  5
12844
  8
0
 10
4422.4478419524921264
 20
30.7995891820854588
 30
0.0
 11
4422.4478419524921264
 21
30.8407559970546394
 31
0.0
  0
ARC
  5
12845
  8
0
 10
4422.8021335952289519
 20
31.6337836442858986
 30
0.0
 40
0.9673361523196129
 50
265.9901192775669756
 51
270.0022088504633757
  0
ARC
  5
12846
  8
0
 10
4422.7951720074379409
 20
31.5344744142923901
 30
0.0
 40
0.8677832173229283
 50
261.5422678706975148
 51
265.9901192775669756
  0
ARC
  5
12847
  8
0
 10
4422.7647596934066314
 20
31.3299488636812704
 30
0.0
 40
0.6610089208122089
 50
254.2604407363976975
 51
261.5422678706975148
  0
ARC
  5
12848
  8
0
 10
4422.6839416445691313
 20
31.043189669399041
 30
0.0
 40
0.3630787401935969
 50
245.4069485542671032
 51
254.2604407363976975
  0
ARC
  5
12849
  8
0
 10
4422.6082156060565467
 20
30.8777366458288505
 30
0.0
 40
0.1811195801683911
 50
225.9171553734236113
 51
245.4069485542671032
  0
ARC
  5
1284A
  8
0
 10
4422.5141235337587204
 20
30.7805829684444596
 30
0.0
 40
0.0458710862812846
 50
140.0636481333349934
 51
225.9171553734236113
  0
ARC
  5
1284B
  8
0
 10
4422.5785813127386064
 20
30.7266183761310003
 30
0.0
 40
0.1299364328552688
 50
112.4163456362121991
 51
140.0636481333349082
  0
ARC
  5
1284C
  8
0
 10
4422.7249122738958249
 20
30.4073216009635701
 30
0.0
 40
0.4810971348311774
 50
99.4242117345719123
 51
114.0261176590195049
  0
ARC
  5
1284D
  8
0
 10
4422.7755752747598308
 20
30.2181206529534201
 30
0.0
 40
0.676307064769209
 50
91.2372679424663175
 51
101.0339837574158963
  0
ARC
  5
1284E
  8
0
 10
4423.8607143038716458
 20
-20.0250157364875996
 30
0.0
 40
50.931160372290357
 50
91.1909101825214066
 51
91.2372679424663175
  0
ARC
  5
1284F
  8
0
 10
4422.8158207157066499
 20
31.7151097559928488
 30
0.0
 40
1.0147631217589479
 50
266.7553678816274783
 51
269.2292771526927027
  0
ARC
  5
12850
  8
0
 10
4422.7895061608178366
 20
31.2509274266611108
 30
0.0
 40
0.5498355030236102
 50
258.4646021283022037
 51
266.7553678816274783
  0
ARC
  5
12851
  8
0
 10
4422.7562242780677479
 20
31.0878574916868189
 30
0.0
 40
0.3834038731817436
 50
248.2925590173545061
 51
258.4646021283022037
  0
ARC
  5
12852
  8
0
 10
4422.6665357221945669
 20
30.8625652746863004
 30
0.0
 40
0.1409154815093994
 50
223.4242071229998032
 51
248.2925590173545061
  0
ARC
  5
12853
  8
0
 10
4422.598922419642804
 20
30.7984901829720812
 30
0.0
 40
0.0477641769791673
 50
178.6815733077054063
 51
223.3525611880864972
  0
ARC
  5
12854
  8
0
 10
4422.8020143602143435
 20
30.1650584736936516
 30
0.0
 40
0.7203777812934619
 50
89.9875504710280723
 51
94.8682364909106184
  0
ARC
  5
12855
  8
0
 10
4422.7906997280051655
 20
30.2979032660898007
 30
0.0
 40
0.5870520157086428
 50
94.8682364909106184
 51
103.9699241727237933
  0
ARC
  5
12856
  8
0
 10
4422.7149062500520813
 20
30.602575529233139
 30
0.0
 40
0.2730936757507111
 50
103.9699241727237933
 51
117.4272434218915038
  0
ARC
  5
12857
  8
0
 10
4422.6336956281020321
 20
30.7590645378683405
 30
0.0
 40
0.0967871956056794
 50
117.4272434218915038
 51
141.9103177810540899
  0
ARC
  5
12858
  8
0
 10
4422.5855286720252479
 20
30.7988601105680289
 30
0.0
 40
0.0343655189041412
 50
144.5906225777384009
 51
178.7843671091154079
  0
ARC
  5
12859
  8
0
 10
4422.8021253846545733
 20
31.3702469172756189
 30
0.0
 40
0.6684582406388869
 50
266.4300078759684993
 51
270.0039002167570743
  0
ARC
  5
1285A
  8
0
 10
4422.797594133050552
 20
31.2976177572123788
 30
0.0
 40
0.595687868009711
 50
259.6205932587391771
 51
266.4300078759684993
  0
ARC
  5
1285B
  8
0
 10
4422.7566267345828237
 20
31.0739512206796391
 30
0.0
 40
0.3683004292586863
 50
250.1062327472033928
 51
259.6205932587391771
  0
ARC
  5
1285C
  8
0
 10
4422.6856551057071556
 20
30.8778276033862795
 30
0.0
 40
0.1597304281425508
 50
231.1901059223644097
 51
250.1062327472033928
  0
ARC
  5
1285D
  8
0
 10
4422.6106755771752432
 20
30.784604847430959
 30
0.0
 40
0.0400959350946286
 50
200.721160392554907
 51
231.1901059223644097
  0
ARC
  5
1285E
  8
0
 10
4422.6005795848523121
 20
30.78078562821322
 30
0.0
 40
0.0293017006885678
 50
155.0173758315312114
 51
200.721160392555106
  0
ARC
  5
1285F
  8
0
 10
4422.6417891031960608
 20
30.7517084900613611
 30
0.0
 40
0.0794420182515201
 50
114.9994203595269937
 51
148.5472071968121952
  0
ARC
  5
12860
  8
0
 10
4422.7431453785584381
 20
30.54308887681686
 30
0.0
 40
0.3113725088281611
 50
99.5060679886213961
 51
115.6795147401424941
  0
ARC
  5
12861
  8
0
 10
4422.7980764117082799
 20
30.2598080277447714
 30
0.0
 40
0.5998809008022946
 50
92.6018922310386046
 51
100.2121397249297985
  0
ARC
  5
12862
  8
0
 10
4422.8021493221149285
 20
30.1895623790180991
 30
0.0
 40
0.6702396025143017
 50
89.9981564554344686
 51
92.6771059570928912
  0
ARC
  5
12863
  8
0
 10
4422.8013552931297454
 20
31.3114329819646002
 30
0.0
 40
0.604856573257269
 50
263.3268953244954105
 51
270.077258217126996
  0
ARC
  5
12864
  8
0
 10
4422.7847599971837553
 20
31.1695893757174716
 30
0.0
 40
0.4620454655635569
 50
254.4894236982345035
 51
263.3268953244954105
  0
ARC
  5
12865
  8
0
 10
4422.7163204558728467
 20
30.9229811417663214
 30
0.0
 40
0.2061165850766707
 50
238.4900020114415895
 51
254.4894236982345035
  0
ARC
  5
12866
  8
0
 10
4422.639646590873781
 20
30.7979097598771894
 30
0.0
 40
0.0594137148196945
 50
212.4837464777411071
 51
238.4900020114417032
  0
ARC
  5
12867
  8
0
 10
4422.6128269793889558
 20
30.7808344770017506
 30
0.0
 40
0.0276197398331686
 50
145.1117512152366089
 51
212.4837464777413061
  0
ARC
  5
12868
  8
0
 10
4422.6614533910633327
 20
30.7409500544176204
 30
0.0
 40
0.0904524541825876
 50
112.6036472243034012
 51
142.0046580383956893
  0
ARC
  5
12869
  8
0
 10
4422.7698618606282253
 20
30.4808840227572588
 30
0.0
 40
0.3722089685313525
 50
94.6690915832518556
 51
112.6226907104359043
  0
ARC
  5
1286A
  8
0
 10
4422.8017878574191855
 20
30.2400310255517191
 30
0.0
 40
0.6149827945152908
 50
89.9643144169547639
 51
95.8071397746507074
  0
ARC
  5
1286B
  8
0
 10
4422.8021310505901056
 20
31.0241801462365387
 30
0.0
 40
0.2750307598362019
 50
264.5921452437095809
 51
270.0082990638185834
  0
ARC
  5
1286C
  8
0
 10
4422.7945997378074026
 20
30.9446235905000293
 30
0.0
 40
0.195118519015977
 50
247.7888657901995089
 51
264.5921452437095809
  0
ARC
  5
1286D
  8
0
 10
4422.7395940049191267
 20
30.8099109942829408
 30
0.0
 40
0.0496086766342476
 50
214.5676774983992061
 51
247.7888657901995089
  0
ARC
  5
1286E
  8
0
 10
4422.7248737279142006
 20
30.7997684067752893
 30
0.0
 40
0.0317324735562205
 50
172.2752229099739054
 51
214.5676774983990072
  0
ARC
  5
1286F
  8
0
 10
4422.8021344943517761
 20
31.0055083473621487
 30
0.0
 40
0.2551528049721463
 50
264.6679876691413824
 51
270.0081722985452757
  0
ARC
  5
12870
  8
0
 10
4422.7959992338019219
 20
30.9397715957014903
 30
0.0
 40
0.1891303698390563
 50
251.7247691848307909
 51
264.6679876691413824
  0
ARC
  5
12871
  8
0
 10
4422.7525841300639513
 20
30.8083058332661004
 30
0.0
 40
0.0506813975592028
 50
223.5296458802247912
 51
251.7247691848307909
  0
ARC
  5
12872
  8
0
 10
4422.7247646413288749
 20
30.7807977481031294
 30
0.0
 40
0.0115926503100266
 50
140.1132512898751941
 51
219.6530711296659888
  0
ARC
  5
12873
  8
0
 10
4422.7545498549925469
 20
30.7511861133741604
 30
0.0
 40
0.0535589067228591
 50
103.0973136141606972
 51
136.2366765392692116
  0
ARC
  5
12874
  8
0
 10
4422.7958702435471423
 20
30.6194917631193917
 30
0.0
 40
0.1914736744406629
 50
93.374324225581006
 51
106.2117438626166006
  0
ARC
  5
12875
  8
0
 10
4422.8021157503626455
 20
30.5559715929307991
 30
0.0
 40
0.2552635273095386
 50
89.9876240198983339
 51
93.9345660463819456
  0
ARC
  5
12876
  8
0
 10
4422.8018989130878253
 20
30.5738802485915997
 30
0.0
 40
0.2363289698922578
 50
89.9340622503970195
 51
99.3060593556468945
  0
ARC
  5
12877
  8
0
 10
4422.7870681512522424
 20
30.6643862948649613
 30
0.0
 40
0.1446158524626171
 50
99.3060593556468945
 51
108.5851413037704987
  0
ARC
  5
12878
  8
0
 10
4422.7621444165952198
 20
30.7385092560308912
 30
0.0
 40
0.066414791592076
 50
108.5851413037704987
 51
127.3662715411109048
  0
ARC
  5
12879
  8
0
 10
4422.7298255117520966
 20
30.7808322407149504
 30
0.0
 40
0.0131630625796245
 50
127.3662715411109048
 51
216.4200432627006023
  0
ARC
  5
1287A
  8
0
 10
4422.7489069986540926
 20
30.8004840550422792
 30
0.0
 40
0.0404344538050426
 50
222.7882052745839871
 51
247.1729747237689878
  0
ARC
  5
1287B
  8
0
 10
4422.7852902327213087
 20
30.8868411053677114
 30
0.0
 40
0.1341429356184013
 50
247.1595376298724034
 51
262.2414503843609737
  0
ARC
  5
1287C
  8
0
 10
4422.8017704625208353
 20
30.9877179066400892
 30
0.0
 40
0.2363366485750539
 50
261.5841712048211889
 51
270.0970762830198737
  0
LINE
  5
1287D
  8
0
 10
4422.7256150908897325
 20
30.892579862901961
 30
0.0
 11
4422.7323905688890591
 21
30.8839313949905403
 31
0.0
  0
LINE
  5
1287E
  8
0
 10
4422.7323905688890591
 20
30.8839313949905403
 30
0.0
 11
4422.7420498272085752
 21
30.8848166082644617
 31
0.0
  0
LINE
  5
1287F
  8
0
 10
4422.7420498272085752
 20
30.8848166082644617
 30
0.0
 11
4422.7420498271876568
 21
30.8935962559338684
 31
0.0
  0
LINE
  5
12880
  8
0
 10
4422.6571236162271816
 20
30.8839738277954616
 30
0.0
 11
4422.6723656634403596
 21
30.8749444959167008
 31
0.0
  0
LINE
  5
12881
  8
0
 10
4422.6723656634403596
 20
30.8749444959167008
 30
0.0
 11
4422.6810259175017563
 21
30.8766545966393195
 31
0.0
  0
LINE
  5
12882
  8
0
 10
4422.6810259175017563
 20
30.8766545966393195
 30
0.0
 11
4422.6810259176072577
 21
30.8877859909533115
 31
0.0
  0
LINE
  5
12883
  8
0
 10
4422.5939742817436127
 20
30.8702575526388507
 30
0.0
 11
4422.6211867696838453
 21
30.8609503336884217
 31
0.0
  0
LINE
  5
12884
  8
0
 10
4422.6211867696838453
 20
30.8609503336884217
 30
0.0
 11
4422.6282578374930381
 21
30.8633687812854589
 31
0.0
  0
LINE
  5
12885
  8
0
 10
4422.6282578374930381
 20
30.8633687812854589
 30
0.0
 11
4422.6282578374930381
 21
30.8786095947277097
 31
0.0
  0
LINE
  5
12886
  8
0
 10
4422.5396747735912868
 20
30.8513278189643216
 30
0.0
 11
4422.5823416443927272
 21
30.8429025873854599
 31
0.0
  0
LINE
  5
12887
  8
0
 10
4422.5823416443927272
 20
30.8429025873854599
 30
0.0
 11
4422.5873416443928363
 21
30.8458645686685315
 31
0.0
  0
LINE
  5
12888
  8
0
 10
4422.5873416443928363
 20
30.8458645686685315
 30
0.0
 11
4422.5873416443928363
 21
30.86833003368546
 31
0.0
  0
LINE
  5
12889
  8
0
 10
4422.4969037315968308
 20
30.8276740504980893
 30
0.0
 11
4422.5584775186944171
 21
30.8220311809854586
 31
0.0
  0
LINE
  5
1288A
  8
0
 10
4422.5584775186944171
 20
30.8220311809854586
 30
0.0
 11
4422.5610657091920075
 21
30.8253348418854607
 31
0.0
  0
LINE
  5
1288B
  8
0
 10
4422.5610657091920075
 20
30.8253348418854607
 30
0.0
 11
4422.5610657091920075
 21
30.8471038488735587
 31
0.0
  0
LINE
  5
1288C
  8
0
 10
4422.4724527186999694
 20
30.7997584665854589
 30
0.0
 11
4422.5511748971821362
 21
30.7997584665854589
 31
0.0
  0
LINE
  5
1288D
  8
0
 10
4422.4742037276619158
 20
30.8031786679854704
 30
0.0
 11
4422.5514355795958181
 21
30.8031786679854704
 31
0.0
  0
LINE
  5
1288E
  8
0
 10
4422.5561879117631179
 20
30.7771552717050696
 30
0.0
 11
4422.4805624330929277
 21
30.7702246486854598
 31
0.0
  0
LINE
  5
1288F
  8
0
 10
4422.4805624330929277
 20
30.7702246486854598
 30
0.0
 11
4422.4779742425926088
 21
30.7735283095854584
 31
0.0
  0
LINE
  5
12890
  8
0
 10
4422.4779742425926088
 20
30.7735283095854584
 30
0.0
 11
4422.4779742425926088
 21
30.7997584665854589
 31
0.0
  0
LINE
  5
12891
  8
0
 10
4422.575757853356663
 20
30.7547851677172908
 30
0.0
 11
4422.5151643815934221
 21
30.7428200522854596
 31
0.0
  0
LINE
  5
12892
  8
0
 10
4422.5151643815934221
 20
30.7428200522854596
 30
0.0
 11
4422.5101643817260992
 21
30.7457820336118317
 31
0.0
  0
LINE
  5
12893
  8
0
 10
4422.5101643817260992
 20
30.7457820336118317
 30
0.0
 11
4422.5101643815787611
 21
30.7729374902992312
 31
0.0
  0
LINE
  5
12894
  8
0
 10
4422.6102110512783838
 20
30.7333959889594617
 30
0.0
 11
4422.5693253492590884
 21
30.7194122552078603
 31
0.0
  0
LINE
  5
12895
  8
0
 10
4422.5693253492590884
 20
30.7194122552078603
 30
0.0
 11
4422.5622542814462577
 21
30.7218307028346196
 31
0.0
  0
LINE
  5
12896
  8
0
 10
4422.5622542814462577
 20
30.7218307028346196
 30
0.0
 11
4422.5622542813816835
 21
30.7521186791878911
 31
0.0
  0
LINE
  5
12897
  8
0
 10
4422.6634224768968124
 20
30.7158543254768901
 30
0.0
 11
4422.6393543554931966
 21
30.7015964601854598
 31
0.0
  0
LINE
  5
12898
  8
0
 10
4422.6393543554931966
 20
30.7015964601854598
 30
0.0
 11
4422.6306941014936456
 21
30.7033065609854603
 31
0.0
  0
LINE
  5
12899
  8
0
 10
4422.6306941014936456
 20
30.7033065609854603
 30
0.0
 11
4422.6306941014936456
 21
30.7255859019372686
 31
0.0
  0
LINE
  5
1289A
  8
0
 10
4422.7311426889873474
 20
30.7041982564669809
 30
0.0
 11
4422.720479039431666
 21
30.6905867843339983
 31
0.0
  0
LINE
  5
1289B
  8
0
 10
4422.720479039431666
 20
30.6905867843339983
 30
0.0
 11
4422.710819781110331
 21
30.6914719976076711
 31
0.0
  0
LINE
  5
1289C
  8
0
 10
4422.710819781110331
 20
30.6914719976076711
 30
0.0
 11
4422.710819781110331
 21
30.7067514128256605
 31
0.0
  0
LINE
  5
1289D
  8
0
 10
4422.8071708876932462
 20
30.687120730385459
 30
0.0
 11
4422.7971708876930279
 21
30.687120730385459
 31
0.0
  0
LINE
  5
1289E
  8
0
 10
4422.7971708876930279
 20
30.687120730385459
 30
0.0
 11
4422.7971708876930279
 21
30.7005180266765691
 31
0.0
  0
LINE
  5
1289F
  8
0
 10
4422.8096708877292258
 20
30.7272058542925102
 30
0.0
 11
4422.7946708876570483
 21
30.7272945380798603
 31
0.0
  0
LINE
  5
128A0
  8
0
 10
4422.7946708876570483
 20
30.7272945380798603
 30
0.0
 11
4422.7946708876570483
 21
30.749250582847889
 31
0.0
  0
LINE
  5
128A1
  8
0
 10
4422.7375216399614146
 20
30.7580402921873706
 30
0.0
 11
4422.7002309015852006
 21
30.7359493981215088
 31
0.0
  0
LINE
  5
128A2
  8
0
 10
4422.7002309015852006
 20
30.7359493981215088
 30
0.0
 11
4422.6872405206531766
 21
30.7385145491738712
 31
0.0
  0
LINE
  5
128A3
  8
0
 10
4422.6872405206531766
 20
30.7385145491738712
 30
0.0
 11
4422.6872405206995609
 21
30.7758118125327798
 31
0.0
  0
LINE
  5
128A4
  8
0
 10
4422.7011489080059619
 20
30.7785582380939218
 30
0.0
 11
4422.6181056526929751
 21
30.7621600666854604
 31
0.0
  0
LINE
  5
128A5
  8
0
 10
4422.6181056526929751
 20
30.7621600666854604
 30
0.0
 11
4422.6106056526932662
 21
30.7666030386854601
 31
0.0
  0
LINE
  5
128A6
  8
0
 10
4422.6106056526932662
 20
30.7666030386854601
 30
0.0
 11
4422.6106056526932662
 21
30.7989034161854605
 31
0.0
  0
LINE
  5
128A7
  8
0
 10
4422.6931530458714406
 20
30.7989034161854605
 30
0.0
 11
4422.592005177784813
 21
30.7989034161854605
 31
0.0
  0
LINE
  5
128A8
  8
0
 10
4422.5966298011690014
 20
30.8040337183973705
 30
0.0
 11
4422.6934292212927176
 21
30.804033718178399
 31
0.0
  0
LINE
  5
128A9
  8
0
 10
4422.6934292212927176
 20
30.804033718178399
 30
0.0
 11
4422.6934292212927176
 21
30.8199793050248587
 31
0.0
  0
LINE
  5
128AA
  8
0
 10
4422.6414552353644467
 20
30.8302423700793291
 30
0.0
 11
4422.7042478421926717
 21
30.8178430014854605
 31
0.0
  0
LINE
  5
128AB
  8
0
 10
4422.7042478421926717
 20
30.8178430014854605
 30
0.0
 11
4422.7117478421923806
 21
30.822285973485549
 31
0.0
  0
LINE
  5
128AC
  8
0
 10
4422.7117478421923806
 20
30.822285973485549
 30
0.0
 11
4422.7117478421923806
 21
30.8485282490365194
 31
0.0
  0
LINE
  5
128AD
  8
0
 10
4422.7135880380756134
 20
30.8488144144763794
 30
0.0
 11
4422.7413048639928093
 21
30.832395070285461
 31
0.0
  0
LINE
  5
128AE
  8
0
 10
4422.7413048639928093
 20
30.832395070285461
 30
0.0
 11
4422.7542952449930453
 21
30.8349602213854617
 31
0.0
  0
LINE
  5
128AF
  8
0
 10
4422.7542952449930453
 20
30.8349602213854617
 30
0.0
 11
4422.7542952449930453
 21
30.8531772473576282
 31
0.0
  0
LINE
  5
128B0
  8
0
 10
4422.802169673293065
 20
30.8387487628854586
 30
0.0
 11
4422.7946708876934281
 21
30.8386604075707815
 31
0.0
  0
LINE
  5
128B1
  8
0
 10
4422.7946708876934281
 20
30.8386604075707815
 30
0.0
 11
4422.7946708876934281
 21
30.8549726376514108
 31
0.0
  0
LINE
  5
128B2
  8
0
 10
4422.7216493060886933
 20
30.7052951991932517
 30
0.0
 11
4422.710819781110331
 21
30.6914719976076711
 31
0.0
  0
LINE
  5
128B3
  8
0
 10
4422.6554067138104074
 20
30.7179462202881091
 30
0.0
 11
4422.6306941014936456
 21
30.7033065609854603
 31
0.0
  0
LINE
  5
128B4
  8
0
 10
4422.6042121710306674
 20
30.7361811463335783
 30
0.0
 11
4422.5622542814462577
 21
30.7218307028346196
 31
0.0
  0
LINE
  5
128B5
  8
0
 10
4422.5716923562549709
 20
30.7583447926961497
 30
0.0
 11
4422.5101643817251897
 21
30.7461951452816784
 31
0.0
  0
LINE
  5
128B6
  8
0
 10
4422.5546532093749192
 20
30.7805554784926194
 30
0.0
 11
4422.4779742425926088
 21
30.7735283095854584
 31
0.0
  0
LINE
  5
128B7
  8
0
 10
4422.5009852376706476
 20
30.8308408579524595
 30
0.0
 11
4422.5610657091920075
 21
30.8253348418854607
 31
0.0
  0
LINE
  5
128B8
  8
0
 10
4422.546190728035981
 20
30.853990451665819
 30
0.0
 11
4422.5873416443928363
 21
30.8458645686685315
 31
0.0
  0
LINE
  5
128B9
  8
0
 10
4422.6018296652700883
 20
30.8724077484636013
 30
0.0
 11
4422.6282578374930381
 21
30.8633687812854589
 31
0.0
  0
LINE
  5
128BA
  8
0
 10
4422.6660844675652697
 20
30.8855058558133315
 30
0.0
 11
4422.6810259175017563
 21
30.8766545966393195
 31
0.0
  0
LINE
  5
128BB
  8
0
 10
4422.7354533807838379
 20
30.8932365537293308
 30
0.0
 11
4422.7420498272085752
 21
30.8848166082644617
 31
0.0
  0
LINE
  5
128BC
  8
0
 10
4422.726503245384265
 20
30.7617736405883093
 30
0.0
 11
4422.6872405206531766
 21
30.7385145491738712
 31
0.0
  0
LINE
  5
128BD
  8
0
 10
4422.6974768680865964
 20
30.7837570998446708
 30
0.0
 11
4422.6106056526932662
 21
30.7666030386854601
 31
0.0
  0
LINE
  5
128BE
  8
0
 10
4422.6522725867553163
 20
30.8340302798876884
 30
0.0
 11
4422.7117478421923806
 21
30.822285973485549
 31
0.0
  0
LINE
  5
128BF
  8
0
 10
4422.7277251986961346
 20
30.8507002176113687
 30
0.0
 11
4422.7542952449930453
 21
30.8349602213854617
 31
0.0
  0
ARC
  5
128C0
  8
0
 10
4422.8024160107161151
 20
28.9960361436952105
 30
0.0
 40
0.0548785973860507
 50
249.433030852400492
 51
269.744079439678103
  0
ARC
  5
128C1
  8
0
 10
4422.8109942174987737
 20
29.0188981027363191
 30
0.0
 40
0.0792969266247733
 50
221.8086665464626037
 51
249.433030852400492
  0
ARC
  5
128C2
  8
0
 10
4422.9460579775695805
 20
29.1396958082435518
 30
0.0
 40
0.2604993133095034
 50
202.0983991602753065
 51
221.8086665464626037
  0
ARC
  5
128C3
  8
0
 10
4423.6496540297303
 20
29.4038911702950188
 30
0.0
 40
1.011994224711017
 50
184.0872004760730931
 51
200.9714078733620113
  0
ARC
  5
128C4
  8
0
 10
4424.3720256615088147
 20
29.4915191026728714
 30
0.0
 40
1.7391452653736641
 50
179.9729821654906914
 51
185.2706057788788883
  0
ARC
  5
128C5
  8
0
 10
4422.802170887693137
 20
28.9592722659272184
 30
0.0
 40
0.0100491448522451
 50
213.5315391125922133
 51
326.4684608874079004
  0
ARC
  5
128C6
  8
0
 10
4423.6263379631564021
 20
29.4921643305229892
 30
0.0
 40
0.9914889451145626
 50
208.8975694099590896
 51
212.89254707531029
  0
ARC
  5
128C7
  8
0
 10
4423.6263381576618485
 20
29.4921644378849095
 30
0.0
 40
0.9914891672831508
 50
194.5673278317474058
 51
208.8975694099590896
  0
ARC
  5
128C8
  8
0
 10
4423.6263380578993747
 20
29.4921644119595605
 30
0.0
 40
0.9914890642074603
 50
179.989899626613493
 51
194.5673278317474058
  0
ARC
  5
128C9
  8
0
 10
4422.8024162658375644
 20
29.9886421629268796
 30
0.0
 40
0.0548785973860507
 50
90.2558911077554313
 51
110.5669396949941046
  0
ARC
  5
128CA
  8
0
 10
4422.8109944608695514
 20
29.9657801994761996
 30
0.0
 40
0.0792969266247733
 50
110.5669396949941046
 51
138.191304000941102
  0
ARC
  5
128CB
  8
0
 10
4422.9460581588446075
 20
29.8449824245401913
 30
0.0
 40
0.2604993133095034
 50
138.191304000941102
 51
157.901571387135192
  0
ARC
  5
128CC
  8
0
 10
4423.6496540751968496
 20
29.580786700809039
 30
0.0
 40
1.011994224711017
 50
159.0285626740474072
 51
175.912770071344994
  0
ARC
  5
128CD
  8
0
 10
4424.3720256619308202
 20
29.4931583971000002
 30
0.0
 40
1.7391452653736641
 50
174.7293647685378062
 51
180.0269883818781977
  0
ARC
  5
128CE
  8
0
 10
4423.6263379632473516
 20
29.4925135525665709
 30
0.0
 40
0.9914889451145626
 50
147.1074234721195921
 51
151.1024011374663019
  0
ARC
  5
128CF
  8
0
 10
4423.626338157750979
 20
29.4925134452045583
 30
0.0
 40
0.9914891672831508
 50
151.1024011374663019
 51
165.4326427156730119
  0
ARC
  5
128D0
  8
0
 10
4423.6263380579894147
 20
29.4925134711299393
 30
0.0
 40
0.9914890642074603
 50
165.4326427156730119
 51
180.0100709205673866
  0
ARC
  5
128D1
  8
0
 10
4422.802171744892803
 20
29.4923391419841785
 30
0.0
 40
0.5118110235987073
 50
262.6458193539298236
 51
267.1444335278885092
  0
ARC
  5
128D2
  8
0
 10
4422.802171744892803
 20
29.4923391419845693
 30
0.0
 40
0.4981889657991095
 50
261.2281148273730196
 51
266.1049648949976927
  0
ARC
  5
128D3
  8
0
 10
4422.802171744892803
 20
29.4923391647635498
 30
0.0
 40
0.5118110235987073
 50
92.8555370194843022
 51
97.3541511934649151
  0
ARC
  5
128D4
  8
0
 10
4422.802171744892803
 20
29.4923391647631483
 30
0.0
 40
0.4981889657991095
 50
93.8950056523907932
 51
98.7718557199945337
  0
ARC
  5
128D5
  8
0
 10
4422.801925764670159
 20
28.9960361436952105
 30
0.0
 40
0.0548785973860507
 50
270.2559205603217833
 51
290.5669691475995933
  0
ARC
  5
128D6
  8
0
 10
4422.7933475578856815
 20
29.0188981027363191
 30
0.0
 40
0.0792969266247733
 50
290.5669691475995933
 51
318.1913334535374247
  0
ARC
  5
128D7
  8
0
 10
4422.6582837978166935
 20
29.1396958082435518
 30
0.0
 40
0.2604993133095034
 50
318.1913334535374247
 51
337.9016008397247219
  0
ARC
  5
128D8
  8
0
 10
4421.9546877456550646
 20
29.4038911702950188
 30
0.0
 40
1.011994224711017
 50
339.0285921266379887
 51
355.9127995239268785
  0
ARC
  5
128D9
  8
0
 10
4421.2323161138783689
 20
29.4915191026728714
 30
0.0
 40
1.7391452653736641
 50
354.7293942211210833
 51
0.0270178345092801
  0
ARC
  5
128DA
  8
0
 10
4421.978003812229872
 20
29.4921643305229892
 30
0.0
 40
0.9914889451145626
 50
327.10745292468971
 51
331.1024305900409104
  0
ARC
  5
128DB
  8
0
 10
4421.9780036177244256
 20
29.4921644378849095
 30
0.0
 40
0.9914891672831508
 50
331.1024305900409104
 51
345.432672168252509
  0
ARC
  5
128DC
  8
0
 10
4421.9780037174859899
 20
29.4921644119595605
 30
0.0
 40
0.9914890642074603
 50
345.432672168252509
 51
0.0101003733864715
  0
ARC
  5
128DD
  8
0
 10
4422.8019255095478002
 20
29.9886421629268796
 30
0.0
 40
0.0548785973860507
 50
69.4330603050058954
 51
89.7441088922445545
  0
ARC
  5
128DE
  8
0
 10
4422.7933473145167227
 20
29.9657801994761996
 30
0.0
 40
0.0792969266247733
 50
41.8086959990588767
 51
69.4330603050058954
  0
ARC
  5
128DF
  8
0
 10
4422.6582836165416666
 20
29.8449824245401913
 30
0.0
 40
0.2604993133095034
 50
22.0984286128647902
 51
41.8086959990588767
  0
ARC
  5
128E0
  8
0
 10
4421.9546877001876055
 20
29.580786700809039
 30
0.0
 40
1.011994224711017
 50
4.087229928654958
 51
20.9714373259525608
  0
ARC
  5
128E1
  8
0
 10
4421.2323161134563634
 20
29.4931583971000002
 30
0.0
 40
1.7391452653736641
 50
359.9730116181218023
 51
5.2706352314622027
  0
ARC
  5
128E2
  8
0
 10
4422.802170887693137
 20
30.0254065442500497
 30
0.0
 40
0.0100486383452486
 50
33.5300388652022932
 51
146.4699611347907933
  0
ARC
  5
128E3
  8
0
 10
4421.9780038121407415
 20
29.4925135525665709
 30
0.0
 40
0.9914889451145626
 50
28.8975988625338296
 51
32.8925765278804008
  0
ARC
  5
128E4
  8
0
 10
4421.9780036176352951
 20
29.4925134452045583
 30
0.0
 40
0.9914891672831508
 50
14.5673572843270005
 51
28.8975988625338296
  0
ARC
  5
128E5
  8
0
 10
4421.9780037173968594
 20
29.4925134711299393
 30
0.0
 40
0.9914890642074603
 50
359.9899290794322724
 51
14.5673572843270005
  0
ARC
  5
128E6
  8
0
 10
4422.8021700304925616
 20
29.4923391419841785
 30
0.0
 40
0.5118110235987073
 50
272.8555664721114908
 51
277.3541806460701764
  0
ARC
  5
128E7
  8
0
 10
4422.8021700304925616
 20
29.4923391419845693
 30
0.0
 40
0.4981889657991095
 50
273.8950351050021936
 51
278.7718851726269804
  0
ARC
  5
128E8
  8
0
 10
4422.8021700304925616
 20
29.4923391647635498
 30
0.0
 40
0.5118110235987073
 50
82.6458488065350991
 51
87.144462980515712
  0
ARC
  5
128E9
  8
0
 10
4422.8021700304925616
 20
29.4923391647631483
 30
0.0
 40
0.4981889657991095
 50
81.2281442799535967
 51
86.1049943476092068
  0
ARC
  5
128EA
  8
0
 10
4422.8020716104656458
 20
31.8915194981237207
 30
0.0
 40
1.2588431321315341
 50
270.0045185662823997
 51
273.7861358983573723
  0
ARC
  5
128EB
  8
0
 10
4422.8129730271166409
 20
31.7215752969820315
 30
0.0
 40
1.088550045449121
 50
273.8042533218177823
 51
281.7964478477513239
  0
ARC
  5
128EC
  8
0
 10
4422.92118897005912
 20
31.2034143157027302
 30
0.0
 40
0.5592094246506174
 50
281.7964478477513239
 51
296.402948883322324
  0
ARC
  5
128ED
  8
0
 10
4423.1079701106991706
 20
30.8271947678282707
 30
0.0
 40
0.1391756846943429
 50
296.402948883322324
 51
334.1585370790031106
  0
ARC
  5
128EE
  8
0
 10
4422.5313063612602491
 20
30.9658657585945285
 30
0.0
 40
0.7296776966715118
 50
344.1462627749090188
 51
355.631102390202102
  0
ARC
  5
128EF
  8
0
 10
4447.8735141945790019
 20
31.4455041644986686
 30
0.0
 40
24.61481030651073
 50
176.5148700317973862
 51
179.8999785323345009
  0
LINE
  5
128F0
  8
0
 10
4423.2588637979933992
 20
30.9102805332854587
 30
0.0
 11
4423.2587413946575907
 21
31.4884743138464493
 31
0.0
  0
ARC
  5
128F1
  8
0
 10
4422.8023646171350265
 20
31.7828429438716817
 30
0.0
 40
1.1373744984852261
 50
269.9902407875022163
 51
274.7670375091412893
  0
ARC
  5
128F2
  8
0
 10
4422.8195790075733385
 20
31.5764180920563788
 30
0.0
 40
0.9302331103341662
 50
274.7670375091412893
 51
283.856990683233505
  0
ARC
  5
128F3
  8
0
 10
4422.9420577061582662
 20
31.0799066492585503
 30
0.0
 40
0.4188383074314652
 50
283.856990683233505
 51
299.8750641462081035
  0
ARC
  5
128F4
  8
0
 10
4423.0923236678318062
 20
30.8183227531097508
 30
0.0
 40
0.1171663101190387
 50
299.8750641462081035
 51
323.2225208595762069
  0
ARC
  5
128F5
  8
0
 10
4423.1424874684862516
 20
30.7808261789837907
 30
0.0
 40
0.0545372436459861
 50
323.2225208595762069
 51
29.2825384804884017
  0
ARC
  5
128F6
  8
0
 10
4423.0515262982271452
 20
30.7012740159668382
 30
0.0
 40
0.1745699399351536
 50
37.4817130069915194
 51
70.1338971922644134
  0
ARC
  5
128F7
  8
0
 10
4422.8555428735771784
 20
30.2041727313067199
 30
0.0
 40
0.7088552802294033
 50
68.8895423416956447
 51
85.3080249060114539
  0
ARC
  5
128F8
  8
0
 10
4422.8028415259068424
 20
29.793509764404881
 30
0.0
 40
1.122612632765813
 50
84.341681207402587
 51
90.0342279610931939
  0
ARC
  5
128F9
  8
0
 10
4422.8023875431135821
 20
31.6463124206467583
 30
0.0
 40
0.9810710993839125
 50
269.9873470523128844
 51
274.444898936974198
  0
ARC
  5
128FA
  8
0
 10
4422.8173318871686206
 20
31.4540629618412488
 30
0.0
 40
0.7882416726091808
 50
274.444898936974198
 51
285.9391986579897207
  0
ARC
  5
128FB
  8
0
 10
4422.9533693734711051
 20
30.9777367237756316
 30
0.0
 40
0.2928702132487545
 50
285.939198657989607
 51
302.4967027872709764
  0
ARC
  5
128FC
  8
0
 10
4423.0470513085710991
 20
30.8306668653069202
 30
0.0
 40
0.1184974853529151
 50
302.4967027872709764
 51
329.6706507906856132
  0
ARC
  5
128FD
  8
0
 10
4423.0938470155933828
 20
30.7999330622589618
 30
0.0
 40
0.0626537510141972
 50
332.3209097512790891
 51
359.6855259069831163
  0
LINE
  5
128FE
  8
0
 10
4423.1564998228932382
 20
30.7995891820854588
 30
0.0
 11
4423.1564998228932382
 21
30.8407559970546394
 31
0.0
  0
ARC
  5
128FF
  8
0
 10
4422.8022081801591412
 20
31.6337836442858986
 30
0.0
 40
0.9673361523196129
 50
269.9977911495888065
 51
274.0098807224330244
  0
ARC
  5
12900
  8
0
 10
4422.8091697679483332
 20
31.5344744142923901
 30
0.0
 40
0.8677832173229283
 50
274.0098807224330244
 51
278.4577321293024852
  0
ARC
  5
12901
  8
0
 10
4422.8395820819787332
 20
31.3299488636812704
 30
0.0
 40
0.6610089208122089
 50
278.4577321293024852
 51
285.7395592636023025
  0
ARC
  5
12902
  8
0
 10
4422.9204001308180523
 20
31.043189669399041
 30
0.0
 40
0.3630787401935969
 50
285.7395592636023025
 51
294.5930514457330105
  0
ARC
  5
12903
  8
0
 10
4422.9961261693288179
 20
30.8777366458288505
 30
0.0
 40
0.1811195801683911
 50
294.5930514457330105
 51
314.0828446265763887
  0
ARC
  5
12904
  8
0
 10
4423.0902182416275537
 20
30.7805829684444596
 30
0.0
 40
0.0458710862812846
 50
314.0828446265763887
 51
39.9363518666649497
  0
ARC
  5
12905
  8
0
 10
4423.0257604626458487
 20
30.7266183761310003
 30
0.0
 40
0.1299364328552688
 50
39.9363518666651132
 51
67.5836543637878293
  0
ARC
  5
12906
  8
0
 10
4422.8794295014886302
 20
30.4073216009635701
 30
0.0
 40
0.4810971348311774
 50
65.9738823409804382
 51
80.5757882654280735
  0
ARC
  5
12907
  8
0
 10
4422.8287665006246243
 20
30.2181206529534201
 30
0.0
 40
0.676307064769209
 50
78.9660162425841179
 51
88.7627320575336967
  0
ARC
  5
12908
  8
0
 10
4421.7436274715146283
 20
-20.0250157364875996
 30
0.0
 40
50.931160372290357
 50
88.7627320575336967
 51
88.8090898174785934
  0
ARC
  5
12909
  8
0
 10
4422.7885210596778052
 20
31.7151097559928488
 30
0.0
 40
1.0147631217589479
 50
270.7707228473072973
 51
273.2446321183725217
  0
ARC
  5
1290A
  8
0
 10
4422.8148356145693469
 20
31.2509274266611108
 30
0.0
 40
0.5498355030236102
 50
273.2446321183725217
 51
281.5353978716977963
  0
ARC
  5
1290B
  8
0
 10
4422.8481174973167072
 20
31.0878574916868189
 30
0.0
 40
0.3834038731817436
 50
281.5353978716977963
 51
291.7074409826454939
  0
ARC
  5
1290C
  8
0
 10
4422.9378060531917072
 20
30.8625652746863004
 30
0.0
 40
0.1409154815093994
 50
291.7074409826454939
 51
316.5757928770001968
  0
ARC
  5
1290D
  8
0
 10
4423.0054193557425606
 20
30.7984901829720812
 30
0.0
 40
0.0477641769791673
 50
316.6474388119135028
 51
1.3184266922945249
  0
ARC
  5
1290E
  8
0
 10
4422.8023274151728401
 20
30.1650584736936516
 30
0.0
 40
0.7203777812934619
 50
85.1317635090893958
 51
90.0124495289719277
  0
ARC
  5
1290F
  8
0
 10
4422.8136420473811086
 20
30.2979032660898007
 30
0.0
 40
0.5870520157086428
 50
76.0300758272761641
 51
85.1317635090893958
  0
ARC
  5
12910
  8
0
 10
4422.8894355253341928
 20
30.602575529233139
 30
0.0
 40
0.2730936757507111
 50
62.5727565781084891
 51
76.0300758272761641
  0
ARC
  5
12911
  8
0
 10
4422.970646147284242
 20
30.7590645378683405
 30
0.0
 40
0.0967871956056794
 50
38.0896822189459527
 51
62.5727565781084891
  0
ARC
  5
12912
  8
0
 10
4423.0188131033601167
 20
30.7988601105680289
 30
0.0
 40
0.0343655189041412
 50
1.215632890884637
 51
35.4093774222616204
  0
ARC
  5
12913
  8
0
 10
4422.8022163907307913
 20
31.3702469172756189
 30
0.0
 40
0.6684582406388869
 50
269.9960997832429257
 51
273.5699921240315007
  0
ARC
  5
12914
  8
0
 10
4422.806747642335722
 20
31.2976177572123788
 30
0.0
 40
0.595687868009711
 50
273.5699921240315007
 51
280.3794067412608229
  0
ARC
  5
12915
  8
0
 10
4422.8477150408016314
 20
31.0739512206796391
 30
0.0
 40
0.3683004292586863
 50
280.3794067412608229
 51
289.8937672527965788
  0
ARC
  5
12916
  8
0
 10
4422.9186866696791185
 20
30.8778276033862795
 30
0.0
 40
0.1597304281425508
 50
289.8937672527965788
 51
308.8098940776355903
  0
ARC
  5
12917
  8
0
 10
4422.9936661982110309
 20
30.784604847430959
 30
0.0
 40
0.0400959350946286
 50
308.8098940776355903
 51
339.278839607445093
  0
ARC
  5
12918
  8
0
 10
4423.003762190533962
 20
30.78078562821322
 30
0.0
 40
0.0293017006885678
 50
339.2788396074449224
 51
24.9826241684687389
  0
ARC
  5
12919
  8
0
 10
4422.9625526721902133
 20
30.7517084900613611
 30
0.0
 40
0.0794420182515201
 50
31.4527928031877302
 51
65.0005796404729637
  0
ARC
  5
1291A
  8
0
 10
4422.8611963968269265
 20
30.54308887681686
 30
0.0
 40
0.3113725088281611
 50
64.3204852598575059
 51
80.4939320113786181
  0
ARC
  5
1291B
  8
0
 10
4422.8062653636789037
 20
30.2598080277447714
 30
0.0
 40
0.5998809008022946
 50
79.7878602750701731
 51
87.3981077689613812
  0
ARC
  5
1291C
  8
0
 10
4422.8021924532704361
 20
30.1895623790180991
 30
0.0
 40
0.6702396025143017
 50
87.3228940429070946
 51
90.001843544513406
  0
ARC
  5
1291D
  8
0
 10
4422.8029864822574382
 20
31.3114329819646002
 30
0.0
 40
0.604856573257269
 50
269.9227417828728903
 51
276.6731046755045895
  0
ARC
  5
1291E
  8
0
 10
4422.8195817782016093
 20
31.1695893757174716
 30
0.0
 40
0.4620454655635569
 50
276.6731046755045895
 51
285.5105763017655249
  0
ARC
  5
1291F
  8
0
 10
4422.8880213195116085
 20
30.9229811417663214
 30
0.0
 40
0.2061165850766707
 50
285.5105763017655249
 51
301.5099979885583821
  0
ARC
  5
12920
  8
0
 10
4422.9646951845115836
 20
30.7979097598771894
 30
0.0
 40
0.0594137148196945
 50
301.5099979885582115
 51
327.5162535222588076
  0
ARC
  5
12921
  8
0
 10
4422.9915147959964088
 20
30.7808344770017506
 30
0.0
 40
0.0276197398331686
 50
327.5162535222586939
 51
34.8882487847633769
  0
ARC
  5
12922
  8
0
 10
4422.9428883843247604
 20
30.7409500544176204
 30
0.0
 40
0.0904524541825876
 50
37.9953419616042822
 51
67.3963527756965419
  0
ARC
  5
12923
  8
0
 10
4422.8344799147571393
 20
30.4808840227572588
 30
0.0
 40
0.3722089685313525
 50
67.3773092895641241
 51
85.3309084167481302
  0
ARC
  5
12924
  8
0
 10
4422.8025539179679981
 20
30.2400310255517191
 30
0.0
 40
0.6149827945152908
 50
84.1928602253492926
 51
90.0356855830452503
  0
ARC
  5
12925
  8
0
 10
4422.802210724795259
 20
31.0241801462365387
 30
0.0
 40
0.2750307598362019
 50
269.9917009361814166
 51
275.4078547562904191
  0
ARC
  5
12926
  8
0
 10
4422.8097420375788715
 20
30.9446235905000293
 30
0.0
 40
0.195118519015977
 50
275.4078547562904191
 51
292.2111342098006048
  0
ARC
  5
12927
  8
0
 10
4422.8647477704662379
 20
30.8099109942829408
 30
0.0
 40
0.0496086766342476
 50
292.2111342098006048
 51
325.4323225016008223
  0
ARC
  5
12928
  8
0
 10
4422.879468047471164
 20
30.7997684067752893
 30
0.0
 40
0.0317324735562205
 50
325.4323225016008223
 51
7.724777090026099
  0
ARC
  5
12929
  8
0
 10
4422.8022072810354075
 20
31.0055083473621487
 30
0.0
 40
0.2551528049721463
 50
269.9918277014547243
 51
275.332012330858106
  0
ARC
  5
1292A
  8
0
 10
4422.8083425415852616
 20
30.9397715957014903
 30
0.0
 40
0.1891303698390563
 50
275.332012330858106
 51
288.2752308151692091
  0
ARC
  5
1292B
  8
0
 10
4422.8517576453232323
 20
30.8083058332661004
 30
0.0
 40
0.0506813975592028
 50
288.2752308151692091
 51
316.4703541197752088
  0
ARC
  5
1292C
  8
0
 10
4422.8795771340555802
 20
30.7807977481031294
 30
0.0
 40
0.0115926503100266
 50
320.3469288703340112
 51
39.8867487101247704
  0
ARC
  5
1292D
  8
0
 10
4422.8497919203928177
 20
30.7511861133741604
 30
0.0
 40
0.0535589067228591
 50
43.7633234607308026
 51
76.9026863858393313
  0
ARC
  5
1292E
  8
0
 10
4422.8084715318400413
 20
30.6194917631193917
 30
0.0
 40
0.1914736744406629
 50
73.7882561373833852
 51
86.6256757744190082
  0
ARC
  5
1292F
  8
0
 10
4422.8022260250227191
 20
30.5559715929307991
 30
0.0
 40
0.2552635273095386
 50
86.0654339536180686
 51
90.0123759801016661
  0
ARC
  5
12930
  8
0
 10
4422.8024428622984487
 20
30.5738802485915997
 30
0.0
 40
0.2363289698922578
 50
80.693940644353134
 51
90.0659377496029947
  0
ARC
  5
12931
  8
0
 10
4422.8172736241340317
 20
30.6643862948649613
 30
0.0
 40
0.1446158524626171
 50
71.4148586962295298
 51
80.693940644353134
  0
ARC
  5
12932
  8
0
 10
4422.8421973587910543
 20
30.7385092560308912
 30
0.0
 40
0.066414791592076
 50
52.6337284588890526
 51
71.4148586962295298
  0
ARC
  5
12933
  8
0
 10
4422.8745162636341774
 20
30.7808322407149504
 30
0.0
 40
0.0131630625796245
 50
323.5799567372991987
 51
52.6337284588890526
  0
ARC
  5
12934
  8
0
 10
4422.855434776733091
 20
30.8004840550422792
 30
0.0
 40
0.0404344538050426
 50
292.8270252762310975
 51
317.2117947254157002
  0
ARC
  5
12935
  8
0
 10
4422.8190515426658749
 20
30.8868411053677114
 30
0.0
 40
0.1341429356184013
 50
277.7585496156390263
 51
292.840462370127625
  0
ARC
  5
12936
  8
0
 10
4422.8025713128672578
 20
30.9877179066400892
 30
0.0
 40
0.2363366485750539
 50
269.9029237169801263
 51
278.4158287951786974
  0
LINE
  5
12937
  8
0
 10
4422.8787266844947226
 20
30.892579862901961
 30
0.0
 11
4422.8719512064981245
 21
30.8839313949905403
 31
0.0
  0
LINE
  5
12938
  8
0
 10
4422.8719512064981245
 20
30.8839313949905403
 30
0.0
 11
4422.8622919481767894
 21
30.8848166082644617
 31
0.0
  0
LINE
  5
12939
  8
0
 10
4422.8622919481767894
 20
30.8848166082644617
 30
0.0
 11
4422.8622919481977078
 21
30.8935962559338684
 31
0.0
  0
LINE
  5
1293A
  8
0
 10
4422.947218159160002
 20
30.8839738277954616
 30
0.0
 11
4422.9319761119459145
 21
30.8749444959167008
 31
0.0
  0
LINE
  5
1293B
  8
0
 10
4422.9319761119459145
 20
30.8749444959167008
 30
0.0
 11
4422.9233158578836083
 21
30.8766545966393195
 31
0.0
  0
LINE
  5
1293C
  8
0
 10
4422.9233158578836083
 20
30.8766545966393195
 30
0.0
 11
4422.9233158577781069
 21
30.8877859909533115
 31
0.0
  0
LINE
  5
1293D
  8
0
 10
4423.0103674936435709
 20
30.8702575526388507
 30
0.0
 11
4422.9831550057006098
 21
30.8609503336884217
 31
0.0
  0
LINE
  5
1293E
  8
0
 10
4422.9831550057006098
 20
30.8609503336884217
 30
0.0
 11
4422.976083937893236
 21
30.8633687812854589
 31
0.0
  0
LINE
  5
1293F
  8
0
 10
4422.976083937893236
 20
30.8633687812854589
 30
0.0
 11
4422.976083937893236
 21
30.8786095947277097
 31
0.0
  0
LINE
  5
12940
  8
0
 10
4423.0646670017949873
 20
30.8513278189643216
 30
0.0
 11
4423.0220001309935469
 21
30.8429025873854599
 31
0.0
  0
LINE
  5
12941
  8
0
 10
4423.0220001309935469
 20
30.8429025873854599
 30
0.0
 11
4423.0170001309934378
 21
30.8458645686685315
 31
0.0
  0
LINE
  5
12942
  8
0
 10
4423.0170001309934378
 20
30.8458645686685315
 30
0.0
 11
4423.0170001309934378
 21
30.86833003368546
 31
0.0
  0
LINE
  5
12943
  8
0
 10
4423.1074380437903528
 20
30.8276740504980893
 30
0.0
 11
4423.0458642566927665
 21
30.8220311809854586
 31
0.0
  0
LINE
  5
12944
  8
0
 10
4423.0458642566927665
 20
30.8220311809854586
 30
0.0
 11
4423.0432760661933571
 21
30.8253348418854607
 31
0.0
  0
LINE
  5
12945
  8
0
 10
4423.0432760661933571
 20
30.8253348418854607
 30
0.0
 11
4423.0432760661933571
 21
30.8471038488735587
 31
0.0
  0
LINE
  5
12946
  8
0
 10
4423.1318890566863047
 20
30.7997584665854589
 30
0.0
 11
4423.0531668782041379
 21
30.7997584665854589
 31
0.0
  0
LINE
  5
12947
  8
0
 10
4423.1301380477252678
 20
30.8031786679854704
 30
0.0
 11
4423.052906195788637
 21
30.8031786679854704
 31
0.0
  0
LINE
  5
12948
  8
0
 10
4423.0481538636231562
 20
30.7771552717050696
 30
0.0
 11
4423.1237793422933464
 21
30.7702246486854598
 31
0.0
  0
LINE
  5
12949
  8
0
 10
4423.1237793422933464
 20
30.7702246486854598
 30
0.0
 11
4423.1263675327936653
 21
30.7735283095854584
 31
0.0
  0
LINE
  5
1294A
  8
0
 10
4423.1263675327936653
 20
30.7735283095854584
 30
0.0
 11
4423.1263675327936653
 21
30.7997584665854589
 31
0.0
  0
LINE
  5
1294B
  8
0
 10
4423.0285839220314301
 20
30.7547851677172908
 30
0.0
 11
4423.0891773937928519
 21
30.7428200522854596
 31
0.0
  0
LINE
  5
1294C
  8
0
 10
4423.0891773937928519
 20
30.7428200522854596
 30
0.0
 11
4423.0941773936601749
 21
30.7457820336118317
 31
0.0
  0
LINE
  5
1294D
  8
0
 10
4423.0941773936601749
 20
30.7457820336118317
 30
0.0
 11
4423.0941773938084225
 21
30.7729374902992312
 31
0.0
  0
LINE
  5
1294E
  8
0
 10
4422.9941307241078903
 20
30.7333959889594617
 30
0.0
 11
4423.0350164261280952
 21
30.7194122552078603
 31
0.0
  0
LINE
  5
1294F
  8
0
 10
4423.0350164261280952
 20
30.7194122552078603
 30
0.0
 11
4423.0420874939409259
 21
30.7218307028346196
 31
0.0
  0
LINE
  5
12950
  8
0
 10
4423.0420874939409259
 20
30.7218307028346196
 30
0.0
 11
4423.0420874940036811
 21
30.7521186791878911
 31
0.0
  0
LINE
  5
12951
  8
0
 10
4422.9409192984885522
 20
30.7158543254768901
 30
0.0
 11
4422.9649874198930775
 21
30.7015964601854598
 31
0.0
  0
LINE
  5
12952
  8
0
 10
4422.9649874198930775
 20
30.7015964601854598
 30
0.0
 11
4422.9736476738926285
 21
30.7033065609854603
 31
0.0
  0
LINE
  5
12953
  8
0
 10
4422.9736476738926285
 20
30.7033065609854603
 30
0.0
 11
4422.9736476738926285
 21
30.7255859019372686
 31
0.0
  0
LINE
  5
12954
  8
0
 10
4422.8731990863980172
 20
30.7041982564669809
 30
0.0
 11
4422.8838627359564271
 21
30.6905867843339983
 31
0.0
  0
LINE
  5
12955
  8
0
 10
4422.8838627359564271
 20
30.6905867843339983
 30
0.0
 11
4422.8935219942759431
 21
30.6914719976076711
 31
0.0
  0
LINE
  5
12956
  8
0
 10
4422.8935219942759431
 20
30.6914719976076711
 30
0.0
 11
4422.8935219942759431
 21
30.7067514128256605
 31
0.0
  0
LINE
  5
12957
  8
0
 10
4422.8071708876932462
 20
30.687120730385459
 30
0.0
 11
4422.8071708876932462
 21
30.7005180266765691
 31
0.0
  0
LINE
  5
12958
  8
0
 10
4422.8096708877292258
 20
30.7272058542925102
 30
0.0
 11
4422.8096708877292258
 21
30.749250582847889
 31
0.0
  0
LINE
  5
12959
  8
0
 10
4422.866820135425769
 20
30.7580402921873706
 30
0.0
 11
4422.904110873800164
 21
30.7359493981215088
 31
0.0
  0
LINE
  5
1295A
  8
0
 10
4422.904110873800164
 20
30.7359493981215088
 30
0.0
 11
4422.9171012547340069
 21
30.7385145491738712
 31
0.0
  0
LINE
  5
1295B
  8
0
 10
4422.9171012547340069
 20
30.7385145491738712
 30
0.0
 11
4422.9171012546876227
 21
30.7758118125327798
 31
0.0
  0
LINE
  5
1295C
  8
0
 10
4422.9031928673803122
 20
30.7785582380939218
 30
0.0
 11
4422.986236122693299
 21
30.7621600666854604
 31
0.0
  0
LINE
  5
1295D
  8
0
 10
4422.986236122693299
 20
30.7621600666854604
 30
0.0
 11
4422.9937361226930079
 21
30.7666030386854601
 31
0.0
  0
LINE
  5
1295E
  8
0
 10
4422.9937361226930079
 20
30.7666030386854601
 30
0.0
 11
4422.9937361226930079
 21
30.7989034161854605
 31
0.0
  0
LINE
  5
1295F
  8
0
 10
4422.911188729515743
 20
30.7989034161854605
 30
0.0
 11
4423.0123365976032801
 21
30.7989034161854605
 31
0.0
  0
LINE
  5
12960
  8
0
 10
4423.0077119742172727
 20
30.8040337183973705
 30
0.0
 11
4422.910912554092647
 21
30.804033718178399
 31
0.0
  0
LINE
  5
12961
  8
0
 10
4422.910912554092647
 20
30.804033718178399
 30
0.0
 11
4422.910912554092647
 21
30.8199793050248587
 31
0.0
  0
LINE
  5
12962
  8
0
 10
4422.9628865400218274
 20
30.8302423700793291
 30
0.0
 11
4422.9000939331926929
 21
30.8178430014854605
 31
0.0
  0
LINE
  5
12963
  8
0
 10
4422.9000939331926929
 20
30.8178430014854605
 30
0.0
 11
4422.8925939331938935
 21
30.822285973485549
 31
0.0
  0
LINE
  5
12964
  8
0
 10
4422.8925939331938935
 20
30.822285973485549
 30
0.0
 11
4422.8925939331938935
 21
30.8485282490365194
 31
0.0
  0
LINE
  5
12965
  8
0
 10
4422.8907537373106607
 20
30.8488144144763794
 30
0.0
 11
4422.8630369113925553
 21
30.832395070285461
 31
0.0
  0
LINE
  5
12966
  8
0
 10
4422.8630369113925553
 20
30.832395070285461
 30
0.0
 11
4422.8500465303932287
 21
30.8349602213854617
 31
0.0
  0
LINE
  5
12967
  8
0
 10
4422.8500465303932287
 20
30.8349602213854617
 30
0.0
 11
4422.8500465303932287
 21
30.8531772473576282
 31
0.0
  0
LINE
  5
12968
  8
0
 10
4422.8021721020932091
 20
30.8387487628854586
 30
0.0
 11
4422.8096708876919365
 21
30.8386604075707815
 31
0.0
  0
LINE
  5
12969
  8
0
 10
4422.8096708876919365
 20
30.8386604075707815
 30
0.0
 11
4422.8096708876919365
 21
30.8549726376514108
 31
0.0
  0
LINE
  5
1296A
  8
0
 10
4422.8826924692966713
 20
30.7052951991932517
 30
0.0
 11
4422.8935219942759431
 21
30.6914719976076711
 31
0.0
  0
LINE
  5
1296B
  8
0
 10
4422.9489350615749572
 20
30.7179462202881091
 30
0.0
 11
4422.9736476738926285
 21
30.7033065609854603
 31
0.0
  0
LINE
  5
1296C
  8
0
 10
4423.0001296043537877
 20
30.7361811463335783
 30
0.0
 11
4423.0420874939409259
 21
30.7218307028346196
 31
0.0
  0
LINE
  5
1296D
  8
0
 10
4423.0326494191313031
 20
30.7583447926961497
 30
0.0
 11
4423.0941773936619938
 21
30.7461951452816784
 31
0.0
  0
LINE
  5
1296E
  8
0
 10
4423.0496885660113549
 20
30.7805554784926194
 30
0.0
 11
4423.1263675327936653
 21
30.7735283095854584
 31
0.0
  0
LINE
  5
1296F
  8
0
 10
4423.1033565377156265
 20
30.8308408579524595
 30
0.0
 11
4423.0432760661933571
 21
30.8253348418854607
 31
0.0
  0
LINE
  5
12970
  8
0
 10
4423.0581510473512026
 20
30.853990451665819
 30
0.0
 11
4423.0170001309934378
 21
30.8458645686685315
 31
0.0
  0
LINE
  5
12971
  8
0
 10
4423.0025121101161858
 20
30.8724077484636013
 30
0.0
 11
4422.976083937893236
 21
30.8633687812854589
 31
0.0
  0
LINE
  5
12972
  8
0
 10
4422.9382573078210044
 20
30.8855058558133315
 30
0.0
 11
4422.9233158578836083
 21
30.8766545966393195
 31
0.0
  0
LINE
  5
12973
  8
0
 10
4422.8688883946024362
 20
30.8932365537293308
 30
0.0
 11
4422.8622919481767894
 21
30.8848166082644617
 31
0.0
  0
LINE
  5
12974
  8
0
 10
4422.8778385300010996
 20
30.7617736405883093
 30
0.0
 11
4422.9171012547340069
 21
30.7385145491738712
 31
0.0
  0
LINE
  5
12975
  8
0
 10
4422.9068649072978587
 20
30.7837570998446708
 30
0.0
 11
4422.9937361226930079
 21
30.7666030386854601
 31
0.0
  0
LINE
  5
12976
  8
0
 10
4422.9520691886309578
 20
30.8340302798876884
 30
0.0
 11
4422.8925939331938935
 21
30.822285973485549
 31
0.0
  0
LINE
  5
12977
  8
0
 10
4422.876616576691049
 20
30.8507002176113687
 30
0.0
 11
4422.8500465303932287
 21
30.8349602213854617
 31
0.0
  0
LINE
  5
12978
  8
0
 10
4422.7971686806513389
 20
30.8950389333111097
 30
0.0
 11
4422.7971950511064279
 21
30.8872986710082706
 31
0.0
  0
LINE
  5
12979
  8
0
 10
4422.7971950511064279
 20
30.8872986710082706
 30
0.0
 11
4422.8071708876932462
 21
30.8872986710082706
 31
0.0
  0
LINE
  5
1297A
  8
0
 10
4422.8071708876932462
 20
30.8872986710082706
 30
0.0
 11
4422.8071708876932462
 21
30.8950389794086213
 31
0.0
  0
ARC
  5
1297B
  8
0
 10
4422.79340228203273
 20
30.4894289078255589
 30
0.0
 40
1.1503604392296809
 50
89.5632595275201453
 51
102.9938473872653049
  0
ARC
  5
1297C
  8
0
 10
4422.646736037091614
 20
31.1250215910765107
 30
0.0
 40
0.4980652250763173
 50
102.9938473872653049
 51
119.7911529120959955
  0
ARC
  5
1297D
  8
0
 10
4422.4636503411811645
 20
31.4448217311598803
 30
0.0
 40
0.1295648836321686
 50
119.7911529120959955
 51
147.2513018579537061
  0
ARC
  5
1297E
  8
0
 10
4422.4035956044126578
 20
31.4834483067958715
 30
0.0
 40
0.0581605157430316
 50
147.2513018579537061
 51
175.6811058058744095
  0
ARC
  5
1297F
  8
0
 10
4422.8109394933517251
 20
30.4894289078255589
 30
0.0
 40
1.1503604392296809
 50
77.0061526127346525
 51
90.4367404724798547
  0
ARC
  5
12980
  8
0
 10
4422.9576057382946601
 20
31.1250215910765107
 30
0.0
 40
0.4980652250763173
 50
60.2088470879039974
 51
77.0061526127346525
  0
ARC
  5
12981
  8
0
 10
4423.1406914342051095
 20
31.4448217311598803
 30
0.0
 40
0.1295648836321686
 50
32.7486981420462513
 51
60.2088470879039974
  0
ARC
  5
12982
  8
0
 10
4423.2007461709717973
 20
31.4834483067958715
 30
0.0
 40
0.0581605157430316
 50
4.3188941941255656
 51
32.7486981420462513
  0
ARC
  5
12983
  8
0
 10
4422.4125053422194469
 20
30.9077082364484887
 30
0.0
 40
0.0670767049466498
 50
139.8038354673531103
 51
177.802248931709812
  0
ARC
  5
12984
  8
0
 10
4422.485299819046304
 20
30.8470609435014111
 30
0.0
 40
0.1618234776620726
 50
117.9580652525343964
 51
140.0365445913585916
  0
ARC
  5
12985
  8
0
 10
4422.653594473231351
 20
30.5299851028213389
 30
0.0
 40
0.5207944783993171
 50
102.1950315345193019
 51
117.958065252534098
  0
ARC
  5
12986
  8
0
 10
4422.8137397435602907
 20
29.7889728012541788
 30
0.0
 40
1.278914349318788
 50
96.4026580868934957
 51
102.1950315345193019
  0
ARC
  5
12987
  8
0
 10
4422.801291301195306
 20
29.7734432899549404
 30
0.0
 40
1.2930357181995611
 50
89.961024589504035
 51
95.7777458120726948
  0
ARC
  5
12988
  8
0
 10
4423.1918364331677367
 20
30.9077082364484887
 30
0.0
 40
0.0670767049466498
 50
2.1977510682901999
 51
40.19616453264684
  0
ARC
  5
12989
  8
0
 10
4423.119041956341789
 20
30.8470609435014111
 30
0.0
 40
0.1618234776620726
 50
39.9634554086414227
 51
62.041934747465568
  0
ARC
  5
1298A
  8
0
 10
4422.9507473021549231
 20
30.5299851028213389
 30
0.0
 40
0.5207944783993171
 50
62.0419347474659304
 51
77.8049684654807123
  0
ARC
  5
1298B
  8
0
 10
4422.7906020318259834
 20
29.7889728012541788
 30
0.0
 40
1.278914349318788
 50
77.8049684654807123
 51
83.5973419131065327
  0
ARC
  5
1298C
  8
0
 10
4422.8030504741909681
 20
29.7734432899549404
 30
0.0
 40
1.2930357181995611
 50
84.2222541879273052
 51
90.0389754104959792
  0
ARC
  5
1298D
  8
0
 10
4422.8464044989823378
 20
27.2623663541039711
 30
0.0
 40
3.6668147450096291
 50
90.6911886440901753
 51
91.4174558008235323
  0
ARC
  5
1298E
  8
0
 10
4422.7891559918816711
 20
29.8546327686565398
 30
0.0
 40
1.073947545287802
 50
91.7852175704127262
 51
99.8178413319786131
  0
ARC
  5
1298F
  8
0
 10
4422.7411002735771035
 20
30.1323301194173503
 30
0.0
 40
0.7921228290519112
 50
99.8178413319786131
 51
107.8846068103960931
  0
ARC
  5
12990
  8
0
 10
4422.6113381764553196
 20
30.534450647741
 30
0.0
 40
0.3695839300750523
 50
107.8846068103960931
 51
119.938013923131507
  0
ARC
  5
12991
  8
0
 10
4422.5121091712317138
 20
30.7067505407065013
 30
0.0
 40
0.1707532267282891
 50
119.938013923131507
 51
136.9842102544284899
  0
ARC
  5
12992
  8
0
 10
4422.4379650485598177
 20
30.7759292644301006
 30
0.0
 40
0.0693478681768785
 50
136.9842102544284899
 51
171.3391923694103127
  0
ARC
  5
12993
  8
0
 10
4422.4207369105643011
 20
30.7807890179451107
 30
0.0
 40
0.0516316975170721
 50
173.7924332758564105
 51
196.0310250536197998
  0
ARC
  5
12994
  8
0
 10
4422.7579372764030268
 20
27.2623663541039711
 30
0.0
 40
3.6668147450096291
 50
88.5825441991764677
 51
89.3088113559098105
  0
ARC
  5
12995
  8
0
 10
4422.8151857835036935
 20
29.8546327686565398
 30
0.0
 40
1.073947545287802
 50
80.1821586680213727
 51
88.2147824295872738
  0
ARC
  5
12996
  8
0
 10
4422.8632415018100801
 20
30.1323301194173503
 30
0.0
 40
0.7921228290519112
 50
72.1153931896038927
 51
80.1821586680213727
  0
ARC
  5
12997
  8
0
 10
4422.9930035989309545
 20
30.534450647741
 30
0.0
 40
0.3695839300750523
 50
60.0619860768684717
 51
72.1153931896038927
  0
ARC
  5
12998
  8
0
 10
4423.0922326041536508
 20
30.7067505407065013
 30
0.0
 40
0.1707532267282891
 50
43.0157897455714533
 51
60.0619860768684717
  0
ARC
  5
12999
  8
0
 10
4423.1663767268255469
 20
30.7759292644301006
 30
0.0
 40
0.0693478681768785
 50
8.6608076305896482
 51
43.0157897455714533
  0
ARC
  5
1299A
  8
0
 10
4423.183604864821973
 20
30.7807890179451107
 30
0.0
 40
0.0516316975170721
 50
343.9689749463801718
 51
6.2075667241436188
  0
LINE
  5
1299B
  8
0
 10
4422.7508023205928112
 20
30.8043810601602317
 30
0.0
 11
4422.7508023205928112
 21
30.7778784228854612
 31
0.0
  0
LINE
  5
1299C
  8
0
 10
4422.7508023205928112
 20
30.7778784228854612
 30
0.0
 11
4422.7681228286928672
 21
30.7744582214854603
 31
0.0
  0
LINE
  5
1299D
  8
0
 10
4422.7681228286928672
 20
30.7744582214854603
 30
0.0
 11
4422.7972204745219642
 21
30.7916955581021909
 31
0.0
  0
LINE
  5
1299E
  8
0
 10
4422.8716255585295585
 20
30.7980483658854709
 30
0.0
 11
4422.8293921969943767
 21
30.7980483658854709
 31
0.0
  0
LINE
  5
1299F
  8
0
 10
4422.8515197864562651
 20
30.8048887686854584
 30
0.0
 11
4422.8293925787929766
 21
30.8048887686854584
 31
0.0
  0
LINE
  5
129A0
  8
0
 10
4422.8293925787929766
 20
30.8048887686854584
 30
0.0
 11
4422.829390252290068
 21
30.8086678551276982
 31
0.0
  0
LINE
  5
129A1
  8
0
 10
4422.7731712738941496
 20
30.8014685672854505
 30
0.0
 11
4422.7731708876926859
 21
30.8084566382117799
 31
0.0
  0
LINE
  5
129A2
  8
0
 10
4422.7798999270926288
 20
30.8078213982854798
 30
0.0
 11
4422.7779268093727296
 21
30.8089902659320494
 31
0.0
  0
ARC
  5
129A3
  8
0
 10
4422.784642057669771
 20
30.8086625282839783
 30
0.0
 40
0.0143527758319959
 50
224.6732963919642998
 51
250.7072560093320135
  0
ARC
  5
129A4
  8
0
 10
4422.7775574607458111
 20
30.8016582676527015
 30
0.0
 40
0.0043902871590621
 50
182.4764702155916041
 51
224.6732963919646977
  0
ARC
  5
129A5
  8
0
 10
4422.7780493021809889
 20
30.8011076311766914
 30
0.0
 40
0.0048913632924087
 50
128.9289313674890991
 51
175.7682699208218082
  0
ARC
  5
129A6
  8
0
 10
4422.7859392399150238
 20
30.7919748155339192
 30
0.0
 40
0.0169584045318287
 50
110.8624124348233977
 51
130.2775536091490096
  0
ARC
  5
129A7
  8
0
 10
4422.8022932258845685
 20
30.8680727698130717
 30
0.0
 40
0.0765454850085145
 50
266.2001623620486725
 51
281.766214999086003
  0
ARC
  5
129A8
  8
0
 10
4422.811447196678273
 20
30.8241257430727806
 30
0.0
 40
0.0316552150096627
 50
281.766214999086003
 51
304.5335856052222994
  0
ARC
  5
129A9
  8
0
 10
4422.8144928249912482
 20
30.7859927993459905
 30
0.0
 40
0.0240636722184921
 50
51.74369356334239
 51
79.1626668109140894
  0
LINE
  5
129AA
  8
0
 10
4422.7798999742217347
 20
30.7951157641438513
 30
0.0
 11
4422.7508023205928112
 21
30.7778784228854612
 31
0.0
  0
ENDSEC
  0
EOF
