  0
SECTION
  2
HEADER
  9
$ACADVER
  1
AC1009
  9
$INSBASE
 10
4428.7471353720484331
 20
33.7874936285964793
 30
0.0
  9
$EXTMIN
 10
4420.5974305417175856
 20
28.727773450863431
 30
-0.0000000000000058
  9
$EXTMAX
 10
4429.0449003147577969
 20
34.7931331344673609
 30
0.0000000000000104
  9
$LIMMIN
 10
0.0
 20
0.0
  9
$LIMMAX
 10
11.6929133858000007
 20
8.2677165353999982
  9
$ORTHOMODE
 70
     0
  9
$REGENMODE
 70
     1
  9
$FILLMODE
 70
     1
  9
$QTEXTMODE
 70
     0
  9
$MIRRTEXT
 70
     0
  9
$DRAGMODE
 70
     2
  9
$LTSCALE
 40
0.6431102362
  9
$OSMODE
 70
  4095
  9
$ATTMODE
 70
     1
  9
$TEXTSIZE
 40
0.2
  9
$TRACEWID
 40
0.05
  9
$TEXTSTYLE
  7
STANDARD
  9
$CLAYER
  8
0
  9
$CELTYPE
  6
BYLAYER
  9
$CECOLOR
 62
   256
  9
$DIMSCALE
 40
1.0
  9
$DIMASZ
 40
0.1875
  9
$DIMEXO
 40
0.0625
  9
$DIMDLI
 40
0.4443307087
  9
$DIMRND
 40
0.0
  9
$DIMDLE
 40
0.0
  9
$DIMEXE
 40
0.125
  9
$DIMTP
 40
0.01
  9
$DIMTM
 40
0.01
  9
$DIMTXT
 40
2.0
  9
$DIMCEN
 40
0.1052362205
  9
$DIMTSZ
 40
0.0
  9
$DIMTOL
 70
     1
  9
$DIMLIM
 70
     0
  9
$DIMTIH
 70
     1
  9
$DIMTOH
 70
     1
  9
$DIMSE1
 70
     0
  9
$DIMSE2
 70
     0
  9
$DIMTAD
 70
     0
  9
$DIMZIN
 70
     0
  9
$DIMBLK
  1

  9
$DIMASO
 70
     1
  9
$DIMSHO
 70
     1
  9
$DIMPOST
  1
\X
  9
$DIMAPOST
  1

  9
$DIMALT
 70
     1
  9
$DIMALTD
 70
     2
  9
$DIMALTF
 40
25.3999999999999986
  9
$DIMLFAC
 40
1.0
  9
$DIMTOFL
 70
     0
  9
$DIMTVP
 40
0.0
  9
$DIMTIX
 70
     0
  9
$DIMSOXD
 70
     0
  9
$DIMSAH
 70
     0
  9
$DIMBLK1
  1

  9
$DIMBLK2
  1

  9
$DIMSTYLE
  2
STANDARD
  9
$DIMCLRD
 70
     0
  9
$DIMCLRE
 70
     0
  9
$DIMCLRT
 70
     0
  9
$DIMTFAC
 40
1.0
  9
$DIMGAP
 40
0.09
  9
$LUNITS
 70
     2
  9
$LUPREC
 70
     4
  9
$SKETCHINC
 40
0.1
  9
$FILLETRAD
 40
0.0
  9
$AUNITS
 70
     0
  9
$AUPREC
 70
     0
  9
$MENU
  1
.
  9
$ELEVATION
 40
0.0
  9
$PELEVATION
 40
0.0
  9
$THICKNESS
 40
0.0
  9
$LIMCHECK
 70
     0
  9
$BLIPMODE
 70
     0
  9
$CHAMFERA
 40
0.0
  9
$CHAMFERB
 40
0.0
  9
$SKPOLY
 70
     0
  9
$TDCREATE
 40
2458060.468368056230247
  9
$TDUPDATE
 40
2459163.8532986110076308
  9
$TDINDWG
 40
0.4469399306
  9
$TDUSRTIMER
 40
0.4469399306
  9
$USRTIMER
 70
     1
  9
$ANGBASE
 50
0.0
  9
$ANGDIR
 70
     0
  9
$PDMODE
 70
     0
  9
$PDSIZE
 40
0.3125
  9
$PLINEWID
 40
0.0
  9
$COORDS
 70
     1
  9
$SPLFRAME
 70
     0
  9
$SPLINETYPE
 70
     6
  9
$SPLINESEGS
 70
     8
  9
$ATTDIA
 70
     1
  9
$ATTREQ
 70
     1
  9
$HANDLING
 70
     1
  9
$HANDSEED
  5
12899
  9
$SURFTAB1
 70
     6
  9
$SURFTAB2
 70
     6
  9
$SURFTYPE
 70
     6
  9
$SURFU
 70
     6
  9
$SURFV
 70
     6
  9
$UCSNAME
  2

  9
$UCSORG
 10
0.0
 20
0.0
 30
0.0
  9
$UCSXDIR
 10
1.0
 20
0.0
 30
0.0
  9
$UCSYDIR
 10
0.0
 20
1.0
 30
0.0
  9
$PUCSNAME
  2

  9
$PUCSORG
 10
0.0
 20
0.0
 30
0.0
  9
$PUCSXDIR
 10
1.0
 20
0.0
 30
0.0
  9
$PUCSYDIR
 10
0.0
 20
1.0
 30
0.0
  9
$USERI1
 70
     0
  9
$USERI2
 70
     0
  9
$USERI3
 70
     0
  9
$USERI4
 70
     0
  9
$USERI5
 70
     0
  9
$USERR1
 40
0.0
  9
$USERR2
 40
0.0
  9
$USERR3
 40
0.0
  9
$USERR4
 40
0.0
  9
$USERR5
 40
0.0
  9
$WORLDVIEW
 70
     1
  9
$SHADEDGE
 70
     3
  9
$SHADEDIF
 70
    70
  9
$TILEMODE
 70
     1
  9
$MAXACTVP
 70
    64
  9
$PLIMCHECK
 70
     0
  9
$PEXTMIN
 10
1.0000000000000000E+20
 20
1.0000000000000000E+20
 30
1.0000000000000000E+20
  9
$PEXTMAX
 10
-1.0000000000000000E+20
 20
-1.0000000000000000E+20
 30
-1.0000000000000000E+20
  9
$PLIMMIN
 10
0.0
 20
0.0
  9
$PLIMMAX
 10
12.0
 20
9.0
  9
$UNITMODE
 70
     0
  9
$VISRETAIN
 70
     1
  9
$PLINEGEN
 70
     0
  9
$PSLTSCALE
 70
     1
  0
ENDSEC
  0
SECTION
  2
TABLES
  0
TABLE
  2
VPORT
 70
     1
  0
VPORT
  2
*ACTIVE
 70
     0
 10
0.0
 20
0.0
 11
1.0
 21
1.0
 12
632.4632552719886007
 22
-88.4202031404400799
 13
0.0
 23
0.0
 14
1.0
 24
1.0
 15
0.0
 25
0.0
 16
0.0
 26
0.0
 36
5.1040778033513332
 17
3792.35791015625
 27
120.1806564331053977
 37
0.0
 40
6.1426254120574688
 41
2.8872340425531902
 42
50.0
 43
0.0
 44
0.0
 50
0.0
 51
0.0
 71
     0
 72
   100
 73
     1
 74
     1
 75
     0
 76
     0
 77
     0
 78
     0
  0
ENDTAB
  0
TABLE
  2
LTYPE
 70
     2
  0
LTYPE
  2
CONTINUOUS
 70
     0
  3
Solid line
 72
    65
 73
     0
 40
0.0
  0
LTYPE
  2
PHANTOM2
 70
     0
  3
___ _ _ ___ _ _ ___ _ _ ___ _ _
 72
    65
 73
     6
 40
1.25
 49
0.625
 49
-0.125
 49
0.125
 49
-0.125
 49
0.125
 49
-0.125
  0
ENDTAB
  0
TABLE
  2
LAYER
 70
     2
  0
LAYER
  2
0
 70
     0
 62
   255
  6
CONTINUOUS
  0
LAYER
  2
DEFPOINTS
 70
     0
 62
     7
  6
CONTINUOUS
  0
ENDTAB
  0
TABLE
  2
STYLE
 70
     1
  0
STYLE
  2
STANDARD
 70
     0
 40
0.0
 41
0.8
 50
0.0
 71
     0
 42
0.2
  3
txt
  4

  0
ENDTAB
  0
TABLE
  2
VIEW
 70
     0
  0
ENDTAB
  0
TABLE
  2
UCS
 70
     0
  0
ENDTAB
  0
TABLE
  2
APPID
 70
     9
  0
APPID
  2
ACAD
 70
     0
  0
APPID
  2
ACAD_MLEADERVER
 70
     0
  0
APPID
  2
ACAD_EXEMPT_FROM_CAD_STANDARDS
 70
     0
  0
APPID
  2
ACAD_NAV_VCDISPLAY
 70
     0
  0
APPID
  2
ACAECLAYERSTANDARD
 70
     0
  0
APPID
  2
ACCMTRANSPARENCY
 70
     0
  0
APPID
  2
ACAD_DSTYLE_DIMJAG
 70
     0
  0
APPID
  2
ACAD_DSTYLE_DIMTALN
 70
     0
  0
APPID
  2
ACDBATTR
 70
     0
  0
ENDTAB
  0
TABLE
  2
DIMSTYLE
 70
     1
  0
DIMSTYLE
  2
STANDARD
 70
     0
  3

  4

  5

  6

  7

 40
1.0
 41
0.1875
 42
0.0625
 43
0.38
 44
0.125
 45
0.0
 46
0.0
 47
0.01
 48
0.01
140
0.15625
141
0.09
142
0.0
143
25.3999999999999986
144
1.0
145
0.0
146
1.0
147
0.09
 71
     1
 72
     0
 73
     1
 74
     1
 75
     0
 76
     0
 77
     0
 78
     4
170
     0
171
     2
172
     0
173
     0
174
     0
175
     0
176
     0
177
     0
178
     0
  0
ENDTAB
  0
ENDSEC
  0
SECTION
  2
BLOCKS
  0
BLOCK
  8
0
  2
$MODEL_SPACE
 70
     0
 10
0.0
 20
0.0
 30
0.0
  3
$MODEL_SPACE
  1

  0
ENDBLK
  5
21
  8
0
  0
BLOCK
 67
     1
  8
0
  2
$PAPER_SPACE
 70
     0
 10
0.0
 20
0.0
 30
0.0
  3
$PAPER_SPACE
  1

  0
ENDBLK
  5
1D
 67
     1
  8
0
  0
ENDSEC
  0
SECTION
  2
ENTITIES
  0
ATTDEF
  5
3930
  8
DEFPOINTS
 10
4428.7490032078885633
 20
33.7875268862569698
 30
0.0
 40
0.001
  1
K-11602X
  3

  2
MODELNUMBER
 70
     0
1001
ACDBATTR
1070
     0
1070
     1
  0
ATTDEF
  5
3931
  8
DEFPOINTS
 10
4428.7490032078885633
 20
33.7858602195902975
 30
0.0
 40
0.001
  1
ELEVATION
  3

  2
TRADENAME
 70
     0
1001
ACDBATTR
1070
     0
1070
     1
  0
ATTDEF
  5
3932
  8
DEFPOINTS
 10
4428.7490032078885633
 20
33.7841935529236395
 30
0.0
 40
0.001
  1
BATH FAUCET
  3

  2
PRODUCT
 70
     0
1001
ACDBATTR
1070
     0
1070
     1
  0
LINE
  5
1269B
  8
0
 10
4428.7471353720484331
 20
32.7835566202320123
 30
0.0
 11
4428.7471353720484331
 21
34.7914306369609605
 31
0.0
  0
LINE
  5
1269C
  8
0
 10
4428.7471353720484331
 20
30.8937928337880905
 30
0.0
 11
4428.7471353720484331
 21
28.7284385054880786
 31
0.0
  0
LINE
  5
1269D
  8
0
 10
4428.6095446720755717
 20
30.8937928337880905
 30
0.0
 11
4428.7471353720484331
 21
30.8937928337880905
 31
0.0
  0
LINE
  5
1269E
  8
0
 10
4428.6095446720755717
 20
28.7284385054880786
 30
0.0
 11
4428.7471353720484331
 21
28.7284385054880786
 31
0.0
  0
LINE
  5
1269F
  8
0
 10
4428.5109148375258883
 20
32.8229566202320129
 30
0.0
 11
4428.5109148375258883
 21
34.75203063696096
 31
0.0
  0
LINE
  5
126A0
  8
0
 10
4428.5503148375255478
 20
32.7835566202320123
 30
0.0
 11
4428.7471353720484331
 21
32.7835566202320123
 31
0.0
  0
LINE
  5
126A1
  8
0
 10
4428.5503148375255478
 20
34.7914306369609605
 30
0.0
 11
4428.7471353720484331
 21
34.7914306369609605
 31
0.0
  0
ARC
  5
126A2
  8
0
 10
4428.5503148375255478
 20
32.8229566202320129
 30
0.0
 40
0.0394
 50
179.9999999999949125
 51
270.0
  0
ARC
  5
126A3
  8
0
 10
4428.5503148375255478
 20
34.75203063696096
 30
0.0
 40
0.0394
 50
90.0
 51
180.0
  0
LINE
  5
126A4
  8
0
 10
4428.491444672075886
 20
28.8465385054880805
 30
0.0
 11
4428.491444672075886
 21
30.7756928337880886
 31
0.0
  0
ARC
  5
126A5
  8
0
 10
4428.6095446720755717
 20
28.8465385054880805
 30
0.0
 40
0.1181
 50
179.9999999999996021
 51
270.0
  0
ARC
  5
126A6
  8
0
 10
4428.6095446720755717
 20
30.7756928337880886
 30
0.0
 40
0.1181
 50
90.0
 51
180.0
  0
ARC
  5
126A7
  8
0
 10
4452.7816639349239267
 20
29.8111156696380917
 30
0.0
 40
24.309363647427201
 50
177.7259498089655949
 51
182.2740501910342914
  0
LINE
  5
126A8
  8
0
 10
4428.6880801419101772
 20
29.6687929101464682
 30
0.0
 11
4428.7471337158076494
 21
29.6687929101464682
 31
0.0
  0
LINE
  5
126A9
  8
0
 10
4428.7471337158076494
 20
29.0931891539467813
 30
0.0
 11
4428.6880801419101772
 21
29.0931891539467813
 31
0.0
  0
LINE
  5
126AA
  8
0
 10
4428.6880801419101772
 20
29.0931891539467813
 30
0.0
 11
4428.6880801419101772
 21
29.6687929101464682
 31
0.0
  0
LINE
  5
126AB
  8
0
 10
4428.6880798720367238
 20
29.2547738749464905
 30
0.0
 11
4428.7443265066085587
 21
29.2547738749464905
 31
0.0
  0
LINE
  5
126AC
  8
0
 10
4428.7443265066085587
 20
29.2547738749464905
 30
0.0
 11
4428.7443265066085587
 21
29.4763734995464901
 31
0.0
  0
LINE
  5
126AD
  8
0
 10
4428.6880800164835819
 20
29.4763734995464901
 30
0.0
 11
4428.7443265066085587
 21
29.4763734995464901
 31
0.0
  0
LINE
  5
126AE
  8
0
 10
4428.7471353720484331
 20
29.133436956346479
 30
0.0
 11
4428.6880801419101772
 21
29.133436956346479
 31
0.0
  0
LINE
  5
126AF
  8
0
 10
4428.7077641788519031
 20
29.2223305360354608
 30
0.0
 11
4428.7077641788519031
 21
29.133436956346479
 31
0.0
  0
ARC
  5
126B0
  8
0
 10
4428.6869580458132987
 20
29.2199440886583091
 30
0.0
 40
0.0209425476753503
 50
6.5431877313254914
 51
29.9964290264489506
  0
ARC
  5
126B1
  8
0
 10
4428.6900795389547056
 20
29.1483636552955687
 30
0.0
 40
0.0834132815563946
 50
79.6291598770355193
 51
91.3734981140363232
  0
LINE
  5
126B2
  8
0
 10
4428.7471353720484331
 20
29.4604126735464789
 30
0.0
 11
4428.7443265066085587
 21
29.4604126735464789
 31
0.0
  0
LINE
  5
126B3
  8
0
 10
4428.7471353720484331
 20
29.3126277966464812
 30
0.0
 11
4428.7443265066085587
 21
29.3126277966464812
 31
0.0
  0
ARC
  5
126B4
  8
0
 10
4424.7026981078806784
 20
-45.195662476820587
 30
0.0
 40
78.3428048980017309
 50
87.589825693952406
 51
89.4592442850416774
  0
ARC
  5
126B5
  8
0
 10
4425.3277491651742821
 20
21.0296648239072788
 30
0.0
 40
12.1145279695419799
 50
89.4592442850416774
 51
95.3955191695551434
  0
ARC
  5
126B6
  8
0
 10
4424.6276376941323178
 20
28.4422579362834007
 30
0.0
 40
4.668945875338057
 50
95.3955191695551434
 51
110.7373463109028933
  0
ARC
  5
126B7
  8
0
 10
4423.6668605790346191
 20
30.9798771973163909
 30
0.0
 40
1.9555339680045201
 50
110.7373463109028933
 51
151.2013541361735065
  0
ARC
  5
126B8
  8
0
 10
4424.1583847903375499
 20
30.7096746029721714
 30
0.0
 40
2.5164310105065488
 50
151.2013541361735065
 51
158.1546604663471101
  0
ARC
  5
126B9
  8
0
 10
4451.0311980360256712
 20
-407.5987974206043987
 30
0.0
 40
442.6878213949191831
 50
92.9159925103904811
 51
93.2025090849622728
  0
ARC
  5
126BA
  8
0
 10
4427.454829224925561
 20
10.3431950453379091
 30
0.0
 40
24.082180325180591
 50
92.7477836760207737
 51
97.8139951877216305
  0
ARC
  5
126BB
  8
0
 10
4424.9537329296235839
 20
28.6472412957513711
 30
0.0
 40
5.6080605873048563
 50
97.9233228746248869
 51
115.4731268783487934
  0
ARC
  5
126BC
  8
0
 10
4423.9532696674441468
 20
30.8559895715994195
 30
0.0
 40
3.18408738846058
 50
116.3143988485687998
 51
148.3408212754002875
  0
ARC
  5
126BD
  8
0
 10
4424.1341982717567589
 20
30.7564707780427717
 30
0.0
 40
3.3903406251021648
 50
148.5141149463580064
 51
159.2338867131778102
  0
ARC
  5
126BE
  8
0
 10
4420.8975211310089435
 20
31.4010683243464683
 30
0.0
 40
0.7874015747999822
 50
325.1792030065619201
 51
335.3656309026961821
  0
ARC
  5
126BF
  8
0
 10
4421.5142119556094258
 20
31.1766112204464889
 30
0.0
 40
0.7874015747999646
 50
164.634369097293586
 51
174.8207970045422996
  0
LINE
  5
126C0
  8
0
 10
4421.8226545036795869
 20
31.6460447534058389
 30
0.0
 11
4420.9636695360095473
 21
31.9586897132464784
 31
0.0
  0
LINE
  5
126C1
  8
0
 10
4421.6132583778826302
 20
31.0728588890215818
 30
0.0
 11
4421.8219714573442616
 21
31.6462933619406499
 31
0.0
  0
LINE
  5
126C2
  8
0
 10
4420.7549564562514206
 20
31.3852552395110003
 30
0.0
 11
4420.9636695360095473
 21
31.9586897132464784
 31
0.0
  0
LINE
  5
126C3
  8
0
 10
4421.5439321552194087
 20
30.9514529005156902
 30
0.0
 11
4420.730025159959041
 21
31.2476908203649408
 31
0.0
  0
LINE
  5
126C4
  8
0
 10
4421.6132583778826302
 20
31.0728588890215818
 30
0.0
 11
4420.7549564236060178
 21
31.3852551207196306
 31
0.0
  0
ARC
  5
126C5
  8
0
 10
4428.0925258394408957
 20
32.4289726491798689
 30
0.0
 40
0.6558230609693905
 50
77.487057134805454
 51
98.3529733778304376
  0
ARC
  5
126C6
  8
0
 10
4422.449023402061357
 20
-129.4602169420583095
 30
0.0
 40
162.6323778095255079
 50
87.8638861866848373
 51
87.9612913843832445
  0
ENDSEC
  0
EOF
