  0
SECTION
  2
HEADER
  9
$ACADVER
  1
AC1009
  9
$INSBASE
 10
3508.6153530136239169
 20
160.6918222381158898
 30
0.0
  9
$EXTMIN
 10
3507.4903530136739391
 20
158.6349868260371068
 30
0.0
  9
$EXTMAX
 10
3509.7403530135748042
 20
161.816822238165912
 30
0.0
  9
$LIMMIN
 10
0.0
 20
0.0
  9
$LIMMAX
 10
11.6929133858000007
 20
8.2677165353999982
  9
$ORTHOMODE
 70
     0
  9
$REGENMODE
 70
     1
  9
$FILLMODE
 70
     1
  9
$QTEXTMODE
 70
     0
  9
$MIRRTEXT
 70
     0
  9
$DRAGMODE
 70
     2
  9
$LTSCALE
 40
0.6431102362
  9
$OSMODE
 70
  3839
  9
$ATTMODE
 70
     1
  9
$TEXTSIZE
 40
0.2
  9
$TRACEWID
 40
0.05
  9
$TEXTSTYLE
  7
STANDARD
  9
$CLAYER
  8
0
  9
$CELTYPE
  6
BYLAYER
  9
$CECOLOR
 62
   256
  9
$DIMSCALE
 40
1.0
  9
$DIMASZ
 40
0.1875
  9
$DIMEXO
 40
0.0625
  9
$DIMDLI
 40
0.4443307087
  9
$DIMRND
 40
0.0
  9
$DIMDLE
 40
0.0
  9
$DIMEXE
 40
0.125
  9
$DIMTP
 40
0.01
  9
$DIMTM
 40
0.01
  9
$DIMTXT
 40
2.0
  9
$DIMCEN
 40
0.1052362205
  9
$DIMTSZ
 40
0.0
  9
$DIMTOL
 70
     1
  9
$DIMLIM
 70
     0
  9
$DIMTIH
 70
     1
  9
$DIMTOH
 70
     1
  9
$DIMSE1
 70
     0
  9
$DIMSE2
 70
     0
  9
$DIMTAD
 70
     0
  9
$DIMZIN
 70
     0
  9
$DIMBLK
  1

  9
$DIMASO
 70
     1
  9
$DIMSHO
 70
     1
  9
$DIMPOST
  1
\X
  9
$DIMAPOST
  1

  9
$DIMALT
 70
     1
  9
$DIMALTD
 70
     2
  9
$DIMALTF
 40
25.3999999999999986
  9
$DIMLFAC
 40
1.0
  9
$DIMTOFL
 70
     0
  9
$DIMTVP
 40
0.0
  9
$DIMTIX
 70
     0
  9
$DIMSOXD
 70
     0
  9
$DIMSAH
 70
     0
  9
$DIMBLK1
  1

  9
$DIMBLK2
  1

  9
$DIMSTYLE
  2
STANDARD
  9
$DIMCLRD
 70
     0
  9
$DIMCLRE
 70
     0
  9
$DIMCLRT
 70
     0
  9
$DIMTFAC
 40
1.0
  9
$DIMGAP
 40
0.09
  9
$LUNITS
 70
     2
  9
$LUPREC
 70
     4
  9
$SKETCHINC
 40
0.1
  9
$FILLETRAD
 40
0.0
  9
$AUNITS
 70
     0
  9
$AUPREC
 70
     0
  9
$MENU
  1
.
  9
$ELEVATION
 40
0.0
  9
$PELEVATION
 40
0.0
  9
$THICKNESS
 40
0.0
  9
$LIMCHECK
 70
     0
  9
$BLIPMODE
 70
     0
  9
$CHAMFERA
 40
0.0
  9
$CHAMFERB
 40
0.0
  9
$SKPOLY
 70
     0
  9
$TDCREATE
 40
2458060.468368056230247
  9
$TDUPDATE
 40
2459177.5109953698702157
  9
$TDINDWG
 40
0.5875186343
  9
$TDUSRTIMER
 40
0.5875186343
  9
$USRTIMER
 70
     1
  9
$ANGBASE
 50
0.0
  9
$ANGDIR
 70
     0
  9
$PDMODE
 70
     0
  9
$PDSIZE
 40
0.3125
  9
$PLINEWID
 40
0.0
  9
$COORDS
 70
     1
  9
$SPLFRAME
 70
     0
  9
$SPLINETYPE
 70
     6
  9
$SPLINESEGS
 70
     8
  9
$ATTDIA
 70
     1
  9
$ATTREQ
 70
     1
  9
$HANDLING
 70
     1
  9
$HANDSEED
  5
13D2C
  9
$SURFTAB1
 70
     6
  9
$SURFTAB2
 70
     6
  9
$SURFTYPE
 70
     6
  9
$SURFU
 70
     6
  9
$SURFV
 70
     6
  9
$UCSNAME
  2

  9
$UCSORG
 10
0.0
 20
0.0
 30
0.0
  9
$UCSXDIR
 10
1.0
 20
0.0
 30
0.0
  9
$UCSYDIR
 10
0.0
 20
1.0
 30
0.0
  9
$PUCSNAME
  2

  9
$PUCSORG
 10
0.0
 20
0.0
 30
0.0
  9
$PUCSXDIR
 10
1.0
 20
0.0
 30
0.0
  9
$PUCSYDIR
 10
0.0
 20
1.0
 30
0.0
  9
$USERI1
 70
     0
  9
$USERI2
 70
     0
  9
$USERI3
 70
     0
  9
$USERI4
 70
     0
  9
$USERI5
 70
     0
  9
$USERR1
 40
0.0
  9
$USERR2
 40
0.0
  9
$USERR3
 40
0.0
  9
$USERR4
 40
0.0
  9
$USERR5
 40
0.0
  9
$WORLDVIEW
 70
     1
  9
$SHADEDGE
 70
     3
  9
$SHADEDIF
 70
    70
  9
$TILEMODE
 70
     1
  9
$MAXACTVP
 70
    64
  9
$PLIMCHECK
 70
     0
  9
$PEXTMIN
 10
1.0000000000000000E+20
 20
1.0000000000000000E+20
 30
1.0000000000000000E+20
  9
$PEXTMAX
 10
-1.0000000000000000E+20
 20
-1.0000000000000000E+20
 30
-1.0000000000000000E+20
  9
$PLIMMIN
 10
0.0
 20
0.0
  9
$PLIMMAX
 10
12.0
 20
9.0
  9
$UNITMODE
 70
     0
  9
$VISRETAIN
 70
     1
  9
$PLINEGEN
 70
     0
  9
$PSLTSCALE
 70
     1
  0
ENDSEC
  0
SECTION
  2
TABLES
  0
TABLE
  2
VPORT
 70
     1
  0
VPORT
  2
*ACTIVE
 70
     0
 10
0.0
 20
0.0
 11
1.0
 21
1.0
 12
0.0
 22
0.0
 13
0.0
 23
0.0
 14
1.0
 24
1.0
 15
0.0
 25
0.0
 16
0.0
 26
0.0
 36
15.3168000995923101
 17
3508.615234375
 27
160.2258987426758097
 37
0.0
 40
3.8969987623248188
 41
3.1182994454713491
 42
50.0
 43
0.0
 44
0.0
 50
0.0
 51
0.0
 71
     0
 72
   100
 73
     1
 74
     1
 75
     0
 76
     0
 77
     0
 78
     0
  0
ENDTAB
  0
TABLE
  2
LTYPE
 70
     2
  0
LTYPE
  2
CONTINUOUS
 70
     0
  3
Solid line
 72
    65
 73
     0
 40
0.0
  0
LTYPE
  2
PHANTOM2
 70
     0
  3
___ _ _ ___ _ _ ___ _ _ ___ _ _
 72
    65
 73
     6
 40
1.25
 49
0.625
 49
-0.125
 49
0.125
 49
-0.125
 49
0.125
 49
-0.125
  0
ENDTAB
  0
TABLE
  2
LAYER
 70
     2
  0
LAYER
  2
0
 70
     0
 62
   255
  6
CONTINUOUS
  0
LAYER
  2
DEFPOINTS
 70
     0
 62
     7
  6
CONTINUOUS
  0
ENDTAB
  0
TABLE
  2
STYLE
 70
     1
  0
STYLE
  2
STANDARD
 70
     0
 40
0.0
 41
0.8
 50
0.0
 71
     0
 42
0.2
  3
txt
  4

  0
ENDTAB
  0
TABLE
  2
VIEW
 70
     0
  0
ENDTAB
  0
TABLE
  2
UCS
 70
     0
  0
ENDTAB
  0
TABLE
  2
APPID
 70
     9
  0
APPID
  2
ACAD
 70
     0
  0
APPID
  2
ACAD_MLEADERVER
 70
     0
  0
APPID
  2
ACAD_EXEMPT_FROM_CAD_STANDARDS
 70
     0
  0
APPID
  2
ACAD_NAV_VCDISPLAY
 70
     0
  0
APPID
  2
ACAECLAYERSTANDARD
 70
     0
  0
APPID
  2
ACCMTRANSPARENCY
 70
     0
  0
APPID
  2
ACAD_DSTYLE_DIMJAG
 70
     0
  0
APPID
  2
ACAD_DSTYLE_DIMTALN
 70
     0
  0
APPID
  2
ACDBATTR
 70
     0
  0
ENDTAB
  0
TABLE
  2
DIMSTYLE
 70
     1
  0
DIMSTYLE
  2
STANDARD
 70
     0
  3

  4

  5

  6

  7

 40
1.0
 41
0.1875
 42
0.0625
 43
0.38
 44
0.125
 45
0.0
 46
0.0
 47
0.01
 48
0.01
140
0.15625
141
0.09
142
0.0
143
25.3999999999999986
144
1.0
145
0.0
146
1.0
147
0.09
 71
     1
 72
     0
 73
     1
 74
     1
 75
     0
 76
     0
 77
     0
 78
     4
170
     0
171
     2
172
     0
173
     0
174
     0
175
     0
176
     0
177
     0
178
     0
  0
ENDTAB
  0
ENDSEC
  0
SECTION
  2
BLOCKS
  0
BLOCK
  8
0
  2
$MODEL_SPACE
 70
     0
 10
0.0
 20
0.0
 30
0.0
  3
$MODEL_SPACE
  1

  0
ENDBLK
  5
21
  8
0
  0
BLOCK
 67
     1
  8
0
  2
$PAPER_SPACE
 70
     0
 10
0.0
 20
0.0
 30
0.0
  3
$PAPER_SPACE
  1

  0
ENDBLK
  5
1D
 67
     1
  8
0
  0
BLOCK
  8
0
  2
_FILLED
 70
     0
 10
0.0
 20
0.0
 30
0.0
  3
_FILLED
  1

  0
SOLID
  5
13356
  8
0
  6
BYBLOCK
 62
     0
 10
0.0
 20
0.0
 30
0.0
 11
-1.0
 21
0.1666666667
 31
0.0
 12
-1.0
 22
-0.1666666667
 32
0.0
 13
-1.0
 23
-0.1666666667
 33
0.0
  0
ENDBLK
  5
13357
  8
0
  6
BYBLOCK
 62
     0
  0
ENDSEC
  0
SECTION
  2
ENTITIES
  0
ATTDEF
  5
12BEB
  8
DEFPOINTS
 10
3508.6156943770010912
 20
160.6903662701529925
 30
0.0
 40
0.001
  1
K-11625T
  3

  2
MODELNUMBER
 70
     0
1001
ACDBATTR
1070
     0
1070
     1
  0
ATTDEF
  5
12BEC
  8
DEFPOINTS
 10
3508.6156943770010912
 20
160.6886996034864126
 30
0.0
 40
0.001
  1
MEMOIRS
  3

  2
TRADENAME
 70
     0
1001
ACDBATTR
1070
     0
1070
     1
  0
ATTDEF
  5
12BED
  8
DEFPOINTS
 10
3508.6156943770010912
 20
160.6870329368196906
 30
0.0
 40
0.001
  1
SHOWER ARM
  3

  2
PRODUCT
 70
     0
1001
ACDBATTR
1070
     0
1070
     1
  0
LINE
  5
13B0E
  8
0
 10
3509.7403530135748042
 20
161.7718222381658961
 30
0.0
 11
3509.7403530135748042
 21
159.6118222381658995
 31
0.0
  0
LINE
  5
13B0F
  8
0
 10
3509.021353013575208
 20
160.691822238165912
 30
0.0
 11
3509.021353013575208
 21
158.9530178905691002
 31
0.0
  0
LINE
  5
13B10
  8
0
 10
3509.6953530132741434
 20
161.816822238165912
 30
0.0
 11
3507.5353530136749214
 21
161.816822238165912
 31
0.0
  0
ARC
  5
13B11
  8
0
 10
3509.6953530135751862
 20
161.7718222381658961
 30
0.0
 40
0.0449999999999999
 50
359.9999999999984084
 51
90.0000003819677943
  0
LINE
  5
13B12
  8
0
 10
3509.6803530135748588
 20
161.7568222381659098
 30
0.0
 11
3509.6803530135748588
 21
159.6268222380658983
 31
0.0
  0
LINE
  5
13B13
  8
0
 10
3509.6803530135748588
 20
161.7568222381659098
 30
0.0
 11
3507.5503530136738846
 21
161.7568222381659098
 31
0.0
  0
ARC
  5
13B14
  8
0
 10
3508.6153530136239169
 20
160.6918222381158898
 30
0.0
 40
0.5185333861956507
 50
321.5340112955066161
 51
218.4659887044934123
  0
ARC
  5
13B15
  8
0
 10
3508.6153530136239169
 20
160.6918222381158898
 30
0.0
 40
0.414999999950001
 50
348.0457359204244199
 51
191.9542640795754949
  0
LINE
  5
13B16
  8
0
 10
3508.6153530136239169
 20
161.2143996095119007
 30
0.0
 11
3509.1744025348748437
 21
161.2508722899659119
 31
0.0
  0
LINE
  5
13B17
  8
0
 10
3509.1744025348748437
 20
161.2508722899659119
 30
0.0
 11
3509.136795175736097
 21
160.6918222381158898
 31
0.0
  0
LINE
  5
13B18
  8
0
 10
3509.1744025348748437
 20
161.2508722899659119
 30
0.0
 11
3509.6803530135748588
 21
161.7568222381659098
 31
0.0
  0
LINE
  5
13B19
  8
0
 10
3509.6953530132741434
 20
159.566822238065896
 30
0.0
 11
3509.021353013575208
 21
159.566822238065896
 31
0.0
  0
ARC
  5
13B1A
  8
0
 10
3509.6953530135751862
 20
159.611822238065912
 30
0.0
 40
0.0449999999999999
 50
269.9999996180321773
 51
0.0000000000016284
  0
LINE
  5
13B1B
  8
0
 10
3509.6803530135748588
 20
159.6268222380658983
 30
0.0
 11
3509.021353013575208
 21
159.6268222380658983
 31
0.0
  0
LINE
  5
13B1C
  8
0
 10
3509.021353013575208
 20
160.1427572163424884
 30
0.0
 11
3509.1744025348748437
 21
160.1327721862658962
 31
0.0
  0
LINE
  5
13B1D
  8
0
 10
3509.1744025348748437
 20
160.1327721862658962
 30
0.0
 11
3509.136795175736097
 21
160.6918222381158898
 31
0.0
  0
LINE
  5
13B1E
  8
0
 10
3509.1744025348748437
 20
160.1327721862658962
 30
0.0
 11
3509.6803530135748588
 21
159.6268222380658983
 31
0.0
  0
LINE
  5
13B1F
  8
0
 10
3507.4903530136739391
 20
161.7718222381658961
 30
0.0
 11
3507.4903530136739391
 21
159.6118222381658995
 31
0.0
  0
LINE
  5
13B20
  8
0
 10
3508.2093530136748996
 20
160.691822238165912
 30
0.0
 11
3508.2093530136748996
 21
158.9364142218931875
 31
0.0
  0
ARC
  5
13B21
  8
0
 10
3507.5353530136749214
 20
161.7718222381658961
 30
0.0
 40
0.0449999999999999
 50
89.9999996180321631
 51
180.0000000000015916
  0
LINE
  5
13B22
  8
0
 10
3507.5503530136738846
 20
161.7568222381659098
 30
0.0
 11
3507.5503530136738846
 21
159.6268222380658983
 31
0.0
  0
LINE
  5
13B23
  8
0
 10
3508.6153530136239169
 20
161.2143996095119007
 30
0.0
 11
3508.0563034923738996
 21
161.2508722899659119
 31
0.0
  0
LINE
  5
13B24
  8
0
 10
3508.0563034923738996
 20
161.2508722899659119
 30
0.0
 11
3508.0939108515140106
 21
160.6918222381158898
 31
0.0
  0
LINE
  5
13B25
  8
0
 10
3508.0563034923738996
 20
161.2508722899659119
 30
0.0
 11
3507.5503530136738846
 21
161.7568222381659098
 31
0.0
  0
LINE
  5
13B26
  8
0
 10
3507.5353530139741451
 20
159.566822238065896
 30
0.0
 11
3508.2093530136748996
 21
159.566822238065896
 31
0.0
  0
ARC
  5
13B27
  8
0
 10
3507.5353530136749214
 20
159.611822238065912
 30
0.0
 40
0.0449999999999999
 50
179.9999999999984084
 51
270.0000003819678227
  0
LINE
  5
13B28
  8
0
 10
3507.5503530136738846
 20
159.6268222380658983
 30
0.0
 11
3508.2093530136748996
 21
159.6268222380658983
 31
0.0
  0
LINE
  5
13B29
  8
0
 10
3508.2093530136748996
 20
160.1427572163424884
 30
0.0
 11
3508.0563034923738996
 21
160.1327721862658962
 31
0.0
  0
LINE
  5
13B2A
  8
0
 10
3508.0563034923738996
 20
160.1327721862658962
 30
0.0
 11
3508.0939108515140106
 21
160.6918222381158898
 31
0.0
  0
LINE
  5
13B2B
  8
0
 10
3508.0563034923738996
 20
160.1327721862658962
 30
0.0
 11
3507.5503530136738846
 21
159.6268222380658983
 31
0.0
  0
ARC
  5
13B2C
  8
0
 10
3508.6153530136239169
 20
160.6918199159987921
 30
0.0
 40
0.405999999956643
 50
0.0003277032269474
 51
179.9996722967730136
  0
ARC
  5
13B2D
  8
0
 10
3508.4746878475521044
 20
159.1793557077405978
 30
0.0
 40
0.2681996187960958
 50
122.6342526118791056
 51
171.6181110997796964
  0
ARC
  5
13B2E
  8
0
 10
3508.7560181796980032
 20
159.1793557077405978
 30
0.0
 40
0.2681996187960958
 50
8.3818889002203107
 51
57.3657473881208801
  0
ARC
  5
13B2F
  8
0
 10
3508.6153530136239169
 20
158.9552918520892888
 30
0.0
 40
0.532752948576656
 50
57.6210107636377273
 51
122.3789892363623011
  0
ARC
  5
13B30
  8
0
 10
3508.4931392611570118
 20
159.1163536529739986
 30
0.0
 40
0.2873537301102327
 50
131.8263261525536905
 51
170.9622466994867125
  0
ARC
  5
13B31
  8
0
 10
3508.5528075780621293
 20
159.0496799519931983
 30
0.0
 40
0.3768282541076224
 50
107.8178639241778995
 51
131.8263261525536905
  0
ARC
  5
13B32
  8
0
 10
3508.5025521923321321
 20
158.9036534141939114
 30
0.0
 40
0.5089541768445195
 50
84.4012606557289047
 51
97.3432482133033261
  0
ARC
  5
13B33
  8
0
 10
3508.5499466517089786
 20
159.4023373250782925
 30
0.0
 40
0.0081613679766034
 50
351.3996940278702823
 51
73.9266449448663252
  0
ARC
  5
13B34
  8
0
 10
3509.3860919612720863
 20
157.3317730451217926
 30
0.0
 40
2.2288771265700209
 50
111.8094810525571035
 51
113.4425470488100984
  0
ARC
  5
13B35
  8
0
 10
3508.5063004455028022
 20
159.0562999488558091
 30
0.0
 40
0.3028711406103089
 50
116.9961230701355959
 51
168.6494754679629011
  0
ARC
  5
13B36
  8
0
 10
3508.6212070957371907
 20
158.8677556254291972
 30
0.0
 40
0.5233005011709344
 50
90.5926560969116821
 51
118.8358739921265936
  0
ARC
  5
13B37
  8
0
 10
3508.5938190523188496
 20
158.6858534080126901
 30
0.0
 40
0.7055170455263999
 50
69.1959096460728347
 51
88.2150802992988901
  0
ARC
  5
13B38
  8
0
 10
3508.7397941041358536
 20
159.0772393700781038
 30
0.0
 40
0.2878141412332726
 50
11.9672120720412298
 51
68.6877764513918265
  0
ARC
  5
13B39
  8
0
 10
3508.7777568415390306
 20
159.048611280113505
 30
0.0
 40
0.2454916365515479
 50
7.1245418386215871
 51
51.5213944905678929
  0
ARC
  5
13B3A
  8
0
 10
3508.6411238024888917
 20
158.871112023056412
 30
0.0
 40
0.4694742992254028
 50
51.946365181097498
 51
89.3196952510193256
  0
ARC
  5
13B3B
  8
0
 10
3508.6720062084477831
 20
158.5940535624270069
 30
0.0
 40
0.7469285492448045
 50
91.9417266013798127
 51
113.3056695185967016
  0
ARC
  5
13B3C
  8
0
 10
3508.5200763580810417
 20
158.994445111011288
 30
0.0
 40
0.3196548882125901
 50
116.6910207978956038
 51
166.423848746335608
  0
ARC
  5
13B3D
  8
0
 10
3508.5004060007968292
 20
158.9598981889297136
 30
0.0
 40
0.2959202367083527
 50
118.1450861310743932
 51
169.5938716960087049
  0
ARC
  5
13B3E
  8
0
 10
3508.6355238846308566
 20
158.7097209213040117
 30
0.0
 40
0.580252534414527
 50
89.7894713375305855
 51
118.2567554296960992
  0
ARC
  5
13B3F
  8
0
 10
3508.6376363088847938
 20
158.8035206535641066
 30
0.0
 40
0.486448885459914
 50
56.262361410297423
 51
89.9976841948981559
  0
ARC
  5
13B40
  8
0
 10
3508.762522482402801
 20
158.989393051067907
 30
0.0
 40
0.2625194610140984
 50
9.6164981216721177
 51
56.398158712730627
  0
ARC
  5
13B41
  8
0
 10
3508.6699426931459129
 20
158.9283722939331085
 30
0.0
 40
0.3522734999077749
 50
4.011778219885997
 51
21.4787117183190901
  0
ARC
  5
13B42
  8
0
 10
3508.7246061393489072
 20
158.9124582679650075
 30
0.0
 40
0.3092005584790521
 50
27.9454558439314411
 51
76.6950296947522219
  0
ARC
  5
13B43
  8
0
 10
3508.6258312620711877
 20
158.6719384817851051
 30
0.0
 40
0.5674626158802498
 50
72.5748136151162413
 51
106.5760102558873967
  0
ARC
  5
13B44
  8
0
 10
3508.5363160953547776
 20
158.8881617102902908
 30
0.0
 40
0.3355548909151666
 50
102.4557941762650017
 51
137.2099369727689862
  0
ARC
  5
13B45
  8
0
 10
3508.50771078300113
 20
158.9103710191978109
 30
0.0
 40
0.2994922485211513
 50
136.6104110443843922
 51
175.0113815022052961
  0
ARC
  5
13B46
  8
0
 10
3508.4471762764987943
 20
158.9390926709133964
 30
0.0
 40
0.2378383451625538
 50
180.6452578889478104
 51
216.9109045325488978
  0
ARC
  5
13B47
  8
0
 10
3508.5583406617329274
 20
159.0278539833510933
 30
0.0
 40
0.3800529931103274
 50
217.5454028176939119
 51
249.7051342666121911
  0
ARC
  5
13B48
  8
0
 10
3508.6247785787932116
 20
159.1817013628518964
 30
0.0
 40
0.5474668111563431
 50
248.7682898402910894
 51
266.9960230244818149
  0
ARC
  5
13B49
  8
0
 10
3508.5098958854459852
 20
159.1346225038371927
 30
0.0
 40
0.507015744845932
 50
279.7878040807534035
 51
286.5688607662987124
  0
ARC
  5
13B4A
  8
0
 10
3508.7600571229809248
 20
158.8950682256214009
 30
0.0
 40
0.1778979081658829
 50
311.9276848967729734
 51
50.7316101664068668
  0
ARC
  5
13B4B
  8
0
 10
3508.6315590911581239
 20
159.0381424837545978
 30
0.0
 40
0.3702049218777281
 50
280.6608904225232095
 51
311.9276848967729734
  0
ARC
  5
13B4C
  8
0
 10
3508.6158904322742274
 20
159.1213779018746948
 30
0.0
 40
0.4549022754424383
 50
253.8871289948525032
 51
280.6608904225232095
  0
ARC
  5
13B4D
  8
0
 10
3508.5808811751239773
 20
159.0001876707142117
 30
0.0
 40
0.3287566444644019
 50
220.2501093714980129
 51
253.8871289948525032
  0
ARC
  5
13B4E
  8
0
 10
3508.4666184474322108
 20
158.8956826119259915
 30
0.0
 40
0.1741255081144124
 50
131.9269992043105901
 51
218.2973303519777062
  0
ARC
  5
13B4F
  8
0
 10
3508.5888548187931519
 20
158.7727688325275892
 30
0.0
 40
0.3473611101006975
 50
99.0409648479562037
 51
133.381077216279408
  0
ARC
  5
13B50
  8
0
 10
3508.61537018829722
 20
158.6697973905407935
 30
0.0
 40
0.4533303183596902
 50
80.2600562384322131
 51
100.3055797262207989
  0
ARC
  5
13B51
  8
0
 10
3508.6384757526197973
 20
158.7646053889195059
 30
0.0
 40
0.3560436580818287
 50
48.8726068087081202
 51
81.3436552090636553
  0
ARC
  5
13B52
  8
0
 10
3508.7807463550111606
 20
158.9039574406887994
 30
0.0
 40
0.1984047802293812
 50
309.4965354575879815
 51
49.0273594201720684
  0
ARC
  5
13B53
  8
0
 10
3508.6394210549187846
 20
159.0547558097904925
 30
0.0
 40
0.4048710411276403
 50
279.7432607072212249
 51
311.3568071401779207
  0
ARC
  5
13B54
  8
0
 10
3508.6172757847789399
 20
159.1359290133742945
 30
0.0
 40
0.4886880681495548
 50
248.8419277946780142
 51
280.6916461095555064
  0
ARC
  5
13B55
  8
0
 10
3508.5397927124631678
 20
158.974738495735096
 30
0.0
 40
0.3107159337618675
 50
215.7251279100343879
 51
251.439035480516992
  0
ARC
  5
13B56
  8
0
 10
3508.4430121953992057
 20
158.9046695657580983
 30
0.0
 40
0.191234152063073
 50
139.456659762283806
 51
215.6130725757321898
  0
ARC
  5
13B57
  8
0
 10
3508.5767205902529895
 20
158.78688792611689
 30
0.0
 40
0.3694109622239425
 50
99.8599823155452668
 51
139.0548790701091946
  0
ARC
  5
13B58
  8
0
 10
3508.6150328426820124
 20
158.655561252253591
 30
0.0
 40
0.5055887415886245
 50
73.4272817794258685
 51
101.589337106748502
  0
ARC
  5
13B59
  8
0
 10
3508.6575356390808338
 20
158.7854633077317033
 30
0.0
 40
0.3689782549433449
 50
46.6461250411441526
 51
73.9994971734606963
  0
ARC
  5
13B5A
  8
0
 10
3508.7976753714438019
 20
158.9679013974131863
 30
0.0
 40
0.224172269394158
 50
314.1940948833590141
 51
356.1931514623727821
  0
ENDSEC
  0
EOF
