  0
SECTION
  2
HEADER
  9
$ACADVER
  1
AC1009
  9
$INSBASE
 10
3793.243679197245001
 20
119.8859229868733962
 30
0.0
  9
$EXTMIN
 10
3790.946267419238211
 20
117.8412180620714054
 30
0.0
  9
$EXTMAX
 10
3794.5086791972448736
 20
121.1509229868733968
 30
0.0
  9
$LIMMIN
 10
0.0
 20
0.0
  9
$LIMMAX
 10
11.6929133858000007
 20
8.2677165353999982
  9
$ORTHOMODE
 70
     1
  9
$REGENMODE
 70
     1
  9
$FILLMODE
 70
     1
  9
$QTEXTMODE
 70
     0
  9
$MIRRTEXT
 70
     0
  9
$DRAGMODE
 70
     2
  9
$LTSCALE
 40
0.6431102362
  9
$OSMODE
 70
  4095
  9
$ATTMODE
 70
     1
  9
$TEXTSIZE
 40
0.2
  9
$TRACEWID
 40
0.05
  9
$TEXTSTYLE
  7
STANDARD
  9
$CLAYER
  8
0
  9
$CELTYPE
  6
BYLAYER
  9
$CECOLOR
 62
   256
  9
$DIMSCALE
 40
1.0
  9
$DIMASZ
 40
0.1875
  9
$DIMEXO
 40
0.0625
  9
$DIMDLI
 40
0.4443307087
  9
$DIMRND
 40
0.0
  9
$DIMDLE
 40
0.0
  9
$DIMEXE
 40
0.125
  9
$DIMTP
 40
0.01
  9
$DIMTM
 40
0.01
  9
$DIMTXT
 40
2.0
  9
$DIMCEN
 40
0.1052362205
  9
$DIMTSZ
 40
0.0
  9
$DIMTOL
 70
     1
  9
$DIMLIM
 70
     0
  9
$DIMTIH
 70
     1
  9
$DIMTOH
 70
     1
  9
$DIMSE1
 70
     0
  9
$DIMSE2
 70
     0
  9
$DIMTAD
 70
     0
  9
$DIMZIN
 70
     0
  9
$DIMBLK
  1

  9
$DIMASO
 70
     1
  9
$DIMSHO
 70
     1
  9
$DIMPOST
  1
\X
  9
$DIMAPOST
  1

  9
$DIMALT
 70
     1
  9
$DIMALTD
 70
     2
  9
$DIMALTF
 40
25.3999999999999986
  9
$DIMLFAC
 40
1.0
  9
$DIMTOFL
 70
     0
  9
$DIMTVP
 40
0.0
  9
$DIMTIX
 70
     0
  9
$DIMSOXD
 70
     0
  9
$DIMSAH
 70
     0
  9
$DIMBLK1
  1

  9
$DIMBLK2
  1

  9
$DIMSTYLE
  2
STANDARD
  9
$DIMCLRD
 70
     0
  9
$DIMCLRE
 70
     0
  9
$DIMCLRT
 70
     0
  9
$DIMTFAC
 40
1.0
  9
$DIMGAP
 40
0.09
  9
$LUNITS
 70
     2
  9
$LUPREC
 70
     4
  9
$SKETCHINC
 40
0.1
  9
$FILLETRAD
 40
0.0
  9
$AUNITS
 70
     0
  9
$AUPREC
 70
     0
  9
$MENU
  1
.
  9
$ELEVATION
 40
0.0
  9
$PELEVATION
 40
0.0
  9
$THICKNESS
 40
0.0
  9
$LIMCHECK
 70
     0
  9
$BLIPMODE
 70
     0
  9
$CHAMFERA
 40
0.0
  9
$CHAMFERB
 40
0.0
  9
$SKPOLY
 70
     0
  9
$TDCREATE
 40
2458060.468368056230247
  9
$TDUPDATE
 40
2459069.9366319449618459
  9
$TDINDWG
 40
0.3575186343
  9
$TDUSRTIMER
 40
0.3575186343
  9
$USRTIMER
 70
     1
  9
$ANGBASE
 50
0.0
  9
$ANGDIR
 70
     0
  9
$PDMODE
 70
     0
  9
$PDSIZE
 40
0.3125
  9
$PLINEWID
 40
0.0
  9
$COORDS
 70
     1
  9
$SPLFRAME
 70
     0
  9
$SPLINETYPE
 70
     6
  9
$SPLINESEGS
 70
     8
  9
$ATTDIA
 70
     1
  9
$ATTREQ
 70
     1
  9
$HANDLING
 70
     1
  9
$HANDSEED
  5
6B80
  9
$SURFTAB1
 70
     6
  9
$SURFTAB2
 70
     6
  9
$SURFTYPE
 70
     6
  9
$SURFU
 70
     6
  9
$SURFV
 70
     6
  9
$UCSNAME
  2

  9
$UCSORG
 10
0.0
 20
0.0
 30
0.0
  9
$UCSXDIR
 10
1.0
 20
0.0
 30
0.0
  9
$UCSYDIR
 10
0.0
 20
1.0
 30
0.0
  9
$PUCSNAME
  2

  9
$PUCSORG
 10
0.0
 20
0.0
 30
0.0
  9
$PUCSXDIR
 10
1.0
 20
0.0
 30
0.0
  9
$PUCSYDIR
 10
0.0
 20
1.0
 30
0.0
  9
$USERI1
 70
     0
  9
$USERI2
 70
     0
  9
$USERI3
 70
     0
  9
$USERI4
 70
     0
  9
$USERI5
 70
     0
  9
$USERR1
 40
0.0
  9
$USERR2
 40
0.0
  9
$USERR3
 40
0.0
  9
$USERR4
 40
0.0
  9
$USERR5
 40
0.0
  9
$WORLDVIEW
 70
     1
  9
$SHADEDGE
 70
     3
  9
$SHADEDIF
 70
    70
  9
$TILEMODE
 70
     1
  9
$MAXACTVP
 70
    64
  9
$PLIMCHECK
 70
     0
  9
$PEXTMIN
 10
1.0000000000000000E+20
 20
1.0000000000000000E+20
 30
1.0000000000000000E+20
  9
$PEXTMAX
 10
-1.0000000000000000E+20
 20
-1.0000000000000000E+20
 30
-1.0000000000000000E+20
  9
$PLIMMIN
 10
0.0
 20
0.0
  9
$PLIMMAX
 10
12.0
 20
9.0
  9
$UNITMODE
 70
     0
  9
$VISRETAIN
 70
     1
  9
$PLINEGEN
 70
     0
  9
$PSLTSCALE
 70
     1
  0
ENDSEC
  0
SECTION
  2
TABLES
  0
TABLE
  2
VPORT
 70
     1
  0
VPORT
  2
*ACTIVE
 70
     0
 10
0.0
 20
0.0
 11
1.0
 21
1.0
 12
0.0
 22
0.0
 13
0.0
 23
0.0
 14
1.0
 24
1.0
 15
0.0
 25
0.0
 16
0.0
 26
0.0
 36
17.5719678810705986
 17
3792.7254638671879547
 27
119.4930915832518963
 37
0.0
 40
4.8555751415968347
 41
2.8398203592814371
 42
50.0
 43
0.0
 44
0.0
 50
0.0
 51
0.0
 71
     0
 72
   100
 73
     1
 74
     1
 75
     0
 76
     0
 77
     0
 78
     0
  0
ENDTAB
  0
TABLE
  2
LTYPE
 70
     2
  0
LTYPE
  2
CONTINUOUS
 70
     0
  3
Solid line
 72
    65
 73
     0
 40
0.0
  0
LTYPE
  2
PHANTOM2
 70
     0
  3
___ _ _ ___ _ _ ___ _ _ ___ _ _
 72
    65
 73
     6
 40
1.25
 49
0.625
 49
-0.125
 49
0.125
 49
-0.125
 49
0.125
 49
-0.125
  0
ENDTAB
  0
TABLE
  2
LAYER
 70
     2
  0
LAYER
  2
0
 70
     0
 62
   255
  6
CONTINUOUS
  0
LAYER
  2
DEFPOINTS
 70
     0
 62
     7
  6
CONTINUOUS
  0
ENDTAB
  0
TABLE
  2
STYLE
 70
     1
  0
STYLE
  2
STANDARD
 70
     0
 40
0.0
 41
0.8
 50
0.0
 71
     0
 42
0.2
  3
txt
  4

  0
ENDTAB
  0
TABLE
  2
VIEW
 70
     0
  0
ENDTAB
  0
TABLE
  2
UCS
 70
     0
  0
ENDTAB
  0
TABLE
  2
APPID
 70
     9
  0
APPID
  2
ACAD
 70
     0
  0
APPID
  2
ACAD_MLEADERVER
 70
     0
  0
APPID
  2
ACAD_EXEMPT_FROM_CAD_STANDARDS
 70
     0
  0
APPID
  2
ACAD_NAV_VCDISPLAY
 70
     0
  0
APPID
  2
ACAECLAYERSTANDARD
 70
     0
  0
APPID
  2
ACCMTRANSPARENCY
 70
     0
  0
APPID
  2
ACAD_DSTYLE_DIMJAG
 70
     0
  0
APPID
  2
ACAD_DSTYLE_DIMTALN
 70
     0
  0
APPID
  2
ACDBATTR
 70
     0
  0
ENDTAB
  0
TABLE
  2
DIMSTYLE
 70
     1
  0
DIMSTYLE
  2
STANDARD
 70
     0
  3

  4

  5

  6

  7

 40
1.0
 41
0.1875
 42
0.0625
 43
0.38
 44
0.125
 45
0.0
 46
0.0
 47
0.01
 48
0.01
140
0.15625
141
0.09
142
0.0
143
25.3999999999999986
144
1.0
145
0.0
146
1.0
147
0.09
 71
     1
 72
     0
 73
     1
 74
     1
 75
     0
 76
     0
 77
     0
 78
     4
170
     0
171
     2
172
     0
173
     0
174
     0
175
     0
176
     0
177
     0
178
     0
  0
ENDTAB
  0
ENDSEC
  0
SECTION
  2
BLOCKS
  0
BLOCK
  8
0
  2
$MODEL_SPACE
 70
     0
 10
0.0
 20
0.0
 30
0.0
  3
$MODEL_SPACE
  1

  0
ENDBLK
  5
21
  8
0
  0
BLOCK
 67
     1
  8
0
  2
$PAPER_SPACE
 70
     0
 10
0.0
 20
0.0
 30
0.0
  3
$PAPER_SPACE
  1

  0
ENDBLK
  5
1D
 67
     1
  8
0
  0
BLOCK
  8
0
  2
_FILLED
 70
     0
 10
0.0
 20
0.0
 30
0.0
  3
_FILLED
  1

  0
SOLID
  5
64BA
  8
0
  6
BYBLOCK
 62
     0
 10
0.0
 20
0.0
 30
0.0
 11
-1.0
 21
0.1666666667
 31
0.0
 12
-1.0
 22
-0.1666666667
 32
0.0
 13
-1.0
 23
-0.1666666667
 33
0.0
  0
ENDBLK
  5
64BB
  8
0
  6
BYBLOCK
 62
     0
  0
ENDSEC
  0
SECTION
  2
ENTITIES
  0
ATTDEF
  5
3930
  8
DEFPOINTS
 10
3793.2432407586120462
 20
119.8837040763516057
 30
0.0
 40
0.001
  1
K-11626T
  3

  2
MODELNUMBER
 70
     0
1001
ACDBATTR
1070
     0
1070
     1
  0
ATTDEF
  5
3931
  8
DEFPOINTS
 10
3793.2432407586120462
 20
119.882037409684898
 30
0.0
 40
0.001
  1

  3

  2
TRADENAME
 70
     0
1001
ACDBATTR
1070
     0
1070
     1
  0
ATTDEF
  5
3932
  8
DEFPOINTS
 10
3793.2432407586120462
 20
119.8803707430182044
 30
0.0
 40
0.001
  1
SHOWER ARM AND FLANGE
  3

  2
PRODUCT
 70
     0
1001
ACDBATTR
1070
     0
1070
     1
  0
ARC
  5
693D
  8
0
 10
3793.243679197245001
 20
119.8859229868733962
 30
0.0
 40
1.264999999999999
 50
288.7203028918831933
 51
251.2796971081168067
  0
ARC
  5
693E
  8
0
 10
3793.243679197245001
 20
119.8859229868733962
 30
0.0
 40
0.4059999999999997
 50
0.0
 51
180.0
  0
ARC
  5
693F
  8
0
 10
3793.243679197245001
 20
119.8859229868733962
 30
0.0
 40
0.5918386706999997
 50
313.314125606790526
 51
226.3523248343173009
  0
LINE
  5
6940
  8
0
 10
3793.6496791972440406
 20
119.8859229868733962
 30
0.0
 11
3793.6496791972440406
 21
118.1284308295294068
 31
0.0
  0
LINE
  5
6941
  8
0
 10
3792.8376791972441424
 20
119.8859229868733962
 30
0.0
 11
3792.8376791972441424
 21
118.1284308274323962
 31
0.0
  0
ARC
  5
6942
  8
0
 10
3793.2354417862438822
 20
117.9119888984561015
 30
0.0
 40
0.503594659615589
 50
89.0627582630690569
 51
123.9206602019943944
  0
ARC
  5
6943
  8
0
 10
3793.0913922154418287
 20
118.1159549058177021
 30
0.0
 40
0.2540195744876191
 50
122.6322055750573981
 51
177.1848410559512104
  0
ARC
  5
6944
  8
0
 10
3793.0858945951340502
 20
118.138846543191093
 30
0.0
 40
0.2484338358205934
 50
182.4028586481148864
 51
234.5131750934949935
  0
ARC
  5
6945
  8
0
 10
3793.2581528632390473
 20
118.4130513047637976
 30
0.0
 40
0.5720163847788342
 50
236.4085395453107026
 51
268.5500966190335816
  0
ARC
  5
6946
  8
0
 10
3793.2264308988001176
 20
118.4132734912526956
 30
0.0
 40
0.572315400679581
 50
271.7270273825616869
 51
305.4608370540316855
  0
ARC
  5
6947
  8
0
 10
3793.4068935119221351
 20
118.136973963973503
 30
0.0
 40
0.2429359465859825
 50
308.6003921668452108
 51
357.9847096094341055
  0
ARC
  5
6948
  8
0
 10
3793.3772458084249593
 20
118.1079649276864956
 30
0.0
 40
0.2732010331158964
 50
4.296137928483974
 51
66.0680153211558832
  0
ARC
  5
6949
  8
0
 10
3793.2483397796349891
 20
117.8899595659180051
 30
0.0
 40
0.5255772814328985
 50
62.8624609143172606
 51
90.5080797953511649
  0
ARC
  5
694A
  8
0
 10
3793.2430820465360739
 20
117.8899083032861057
 30
0.0
 40
0.4273370885546754
 50
58.5040219264874608
 51
119.1379208830327059
  0
ARC
  5
694B
  8
0
 10
3793.3620256130529924
 20
118.0778754068185066
 30
0.0
 40
0.2049464524673993
 50
3.0647748807896318
 51
59.4040146618872811
  0
ARC
  5
694C
  8
0
 10
3793.355759186213163
 20
118.102498724468802
 30
0.0
 40
0.2113620051064184
 50
297.1939828095739813
 51
356.2928838667414766
  0
ARC
  5
694D
  8
0
 10
3793.2421423750051872
 20
118.295445684718203
 30
0.0
 40
0.4350955452798612
 50
253.4514229834946093
 51
298.8904023477609257
  0
ARC
  5
694E
  8
0
 10
3793.1967526950729734
 20
118.1744169570641958
 30
0.0
 40
0.3062850925208667
 50
217.9351195022119043
 51
255.1422260706690111
  0
ARC
  5
694F
  8
0
 10
3793.0948065487409622
 20
118.0891247580583041
 30
0.0
 40
0.1735053491966701
 50
138.7525209108416107
 51
216.4168043599144937
  0
ARC
  5
6950
  8
0
 10
3793.1720545543171283
 20
118.0291620768219047
 30
0.0
 40
0.2711829060142116
 50
120.3561695725749985
 51
139.9878756356125109
  0
ARC
  5
6951
  8
0
 10
3793.2531288937270801
 20
118.278453838436306
 30
0.0
 40
0.5409787186732075
 50
61.3747893060661127
 51
118.4503578028006956
  0
ARC
  5
6952
  8
0
 10
3793.3971597623381058
 20
118.5279299647371971
 30
0.0
 40
0.253087742669317
 50
3.8403885754132578
 51
62.938807229275902
  0
ARC
  5
6953
  8
0
 10
3793.1353172143558368
 20
118.4837689712214939
 30
0.0
 40
0.3043890355021701
 50
117.3638093862769978
 51
162.6704628487414936
  0
ARC
  5
6954
  8
0
 10
3792.9864668619861732
 20
118.5251030182287053
 30
0.0
 40
0.150062705700361
 50
160.8069565959906129
 51
172.5256866929505861
  0
ARC
  5
6955
  8
0
 10
3793.2521253738218547
 20
118.2197205105477025
 30
0.0
 40
0.5409787186732075
 50
61.3747893060661127
 51
118.4503578028006956
  0
ARC
  5
6956
  8
0
 10
3793.3934676191061044
 20
118.4661933537465046
 30
0.0
 40
0.2569874529869819
 50
4.4533500431975357
 51
62.7096219506827524
  0
ARC
  5
6957
  8
0
 10
3793.1343136944501566
 20
118.4250356433329046
 30
0.0
 40
0.3043890355021701
 50
117.3638093862769978
 51
162.6704628487414936
  0
ARC
  5
6958
  8
0
 10
3792.9854633420800383
 20
118.4663696903401018
 30
0.0
 40
0.150062705700361
 50
160.8069565959906129
 51
170.0027022636548963
  0
ARC
  5
6959
  8
0
 10
3793.2517839483539319
 20
118.1357803746949031
 30
0.0
 40
0.5409787186732075
 50
61.3747893060661127
 51
118.4503578028006956
  0
ARC
  5
695A
  8
0
 10
3793.3921944250969318
 20
118.3812130823842068
 30
0.0
 40
0.2583392702579637
 50
4.6614147955215346
 51
62.6317410363128602
  0
ARC
  5
695B
  8
0
 10
3793.1339722689817791
 20
118.3410955074801052
 30
0.0
 40
0.3043890355021701
 50
117.3638093862769978
 51
162.6704628487414936
  0
ARC
  5
695C
  8
0
 10
3792.9851219166139344
 20
118.3824295544873024
 30
0.0
 40
0.150062705700361
 50
160.8069565959906129
 51
169.2777812992900124
  0
ARC
  5
695D
  8
0
 10
3793.2495561266309778
 20
118.0548140424878056
 30
0.0
 40
0.5409787186732075
 50
61.3747893060661127
 51
118.4503578028006956
  0
ARC
  5
695E
  8
0
 10
3793.3836852419590286
 20
118.2932348510150007
 30
0.0
 40
0.2674642870165745
 50
6.0105131179477178
 51
62.1272791301146512
  0
ARC
  5
695F
  8
0
 10
3793.1317444472588249
 20
118.260129175273093
 30
0.0
 40
0.3043890355021701
 50
117.3638093862769978
 51
162.6704628487414936
  0
ARC
  5
6960
  8
0
 10
3792.9828940948909803
 20
118.3014632222802049
 30
0.0
 40
0.150062705700361
 50
160.8069565959906129
 51
165.3967303888782112
  0
ARC
  5
6961
  8
0
 10
3793.2512743134921038
 20
117.9767685968361945
 30
0.0
 40
0.5409787186732075
 50
61.3747893060661127
 51
118.4503578028006956
  0
ARC
  5
6962
  8
0
 10
3793.3902789798721642
 20
118.2206319949669933
 30
0.0
 40
0.2603797227837321
 50
4.9713427785086974
 51
62.5157686319111079
  0
ARC
  5
6963
  8
0
 10
3793.133462634119951
 20
118.1820837296213966
 30
0.0
 40
0.3043890355021701
 50
117.3638093862769978
 51
162.6704628487414936
  0
ARC
  5
6964
  8
0
 10
3792.9846122817521064
 20
118.2234177766285939
 30
0.0
 40
0.150062705700361
 50
160.8069565959906129
 51
168.277916343627993
  0
ARC
  5
6966
  8
0
 10
3793.2452926445548655
 20
117.9267913803902985
 30
0.0
 40
0.5409787186732075
 50
61.3747893060661127
 51
118.4503578028006956
  0
ARC
  5
6967
  8
0
 10
3793.3663236746278926
 20
118.1506019582534037
 30
0.0
 40
0.2865423749871464
 50
8.5531779489163142
 51
61.1778180193356178
  0
ARC
  5
6968
  8
0
 10
3793.1244782846479211
 20
118.1358557485978054
 30
0.0
 40
0.2996806535684073
 50
117.1834402351743023
 51
163.1398796028755953
  0
ARC
  5
6969
  8
0
 10
3793.2451018987580937
 20
118.0182347549819042
 30
0.0
 40
0.5409787186732075
 50
61.3747893060661127
 51
118.4503578028006956
  0
ARC
  5
696A
  8
0
 10
3793.3655124213159979
 20
118.2413530452357975
 30
0.0
 40
0.2874481209776957
 50
8.6655842569618997
 51
61.1359811254044416
  0
ARC
  5
696B
  8
0
 10
3793.1272902193868504
 20
118.2235498877671063
 30
0.0
 40
0.3043890355021701
 50
117.3638093862769978
 51
162.0731459942988977
  0
ARC
  5
696C
  8
0
 10
3793.2532625999801894
 20
118.1007706106114057
 30
0.0
 40
0.5409787186732075
 50
61.3747893060661127
 51
118.4503578028006956
  0
ARC
  5
696D
  8
0
 10
3793.3922672663588855
 20
118.3446340087422044
 30
0.0
 40
0.2603797227837321
 50
8.6589282790977506
 51
62.5157686319111079
  0
ARC
  5
696E
  8
0
 10
3793.1354509206080365
 20
118.3060857433965936
 30
0.0
 40
0.3043890355021701
 50
117.3638093862769978
 51
162.6704628487414936
  0
ARC
  5
696F
  8
0
 10
3792.7639009160698151
 20
118.4168909144157027
 30
0.0
 40
0.0834443645846522
 50
332.1484915098197916
 51
346.034889569285383
  0
ARC
  5
6970
  8
0
 10
3793.2538084906041149
 20
118.1820677155832016
 30
0.0
 40
0.5409787186732075
 50
61.3747893060661127
 51
118.4503578028006956
  0
ARC
  5
6971
  8
0
 10
3793.3928131569841753
 20
118.4259311137140003
 30
0.0
 40
0.2603797227837321
 50
9.4233409051509636
 51
62.5157686319111079
  0
ARC
  5
6972
  8
0
 10
3793.1359968112328716
 20
118.3873828483685031
 30
0.0
 40
0.3043890355021701
 50
117.3638093862769978
 51
162.6704628487414936
  0
ARC
  5
6973
  8
0
 10
3792.1133108094381896
 20
118.7013097987587997
 30
0.0
 40
0.7653990383185749
 50
341.1545146537313258
 51
343.040819776986325
  0
ENDSEC
  0
EOF
